  0
SECTION
  2
HEADER
  9
$ACADVER
  1
AC1014
  9
$ACADMAINTVER
 70
     9
  9
$DWGCODEPAGE
  3
ANSI_1250
  9
$INSBASE
 10
0.0
 20
0.0
 30
0.0
  9
$EXTMIN
 10
0.0
 20
-800.0
 30
0.0
  9
$EXTMAX
 10
1800.0
 20
0.0
 30
0.0
  9
$LIMMIN
 10
0.0
 20
0.0
  9
$LIMMAX
 10
3970.0
 20
2730.0
  9
$ORTHOMODE
 70
     0
  9
$REGENMODE
 70
     0
  9
$FILLMODE
 70
     1
  9
$QTEXTMODE
 70
     0
  9
$MIRRTEXT
 70
     0
  9
$DRAGMODE
 70
     2
  9
$LTSCALE
 40
80.0
  9
$OSMODE
 70
  3007
  9
$ATTMODE
 70
     1
  9
$TEXTSIZE
 40
90.0
  9
$TRACEWID
 40
0.05
  9
$TEXTSTYLE
  7
STANDARD
  9
$CLAYER
  8
0
  9
$CELTYPE
  6
BYLAYER
  9
$CECOLOR
 62
   256
  9
$CELTSCALE
 40
1.0
  9
$DELOBJ
 70
     1
  9
$DISPSILH
 70
     0
  9
$DIMSCALE
 40
10.0
  9
$DIMASZ
 40
5.0
  9
$DIMEXO
 40
2.0
  9
$DIMDLI
 40
7.0
  9
$DIMRND
 40
0.0
  9
$DIMDLE
 40
0.0
  9
$DIMEXE
 40
2.0
  9
$DIMTP
 40
0.0
  9
$DIMTM
 40
0.0
  9
$DIMTXT
 40
4.5
  9
$DIMCEN
 40
3.0
  9
$DIMTSZ
 40
0.0
  9
$DIMTOL
 70
     0
  9
$DIMLIM
 70
     0
  9
$DIMTIH
 70
     0
  9
$DIMTOH
 70
     0
  9
$DIMSE1
 70
     0
  9
$DIMSE2
 70
     0
  9
$DIMTAD
 70
     1
  9
$DIMZIN
 70
     9
  9
$DIMBLK
  1

  9
$DIMASO
 70
     1
  9
$DIMSHO
 70
     1
  9
$DIMPOST
  1

  9
$DIMAPOST
  1

  9
$DIMALT
 70
     0
  9
$DIMALTD
 70
     0
  9
$DIMALTF
 40
25.4
  9
$DIMLFAC
 40
1.0
  9
$DIMTOFL
 70
     1
  9
$DIMTVP
 40
1.166666666666666
  9
$DIMTIX
 70
     0
  9
$DIMSOXD
 70
     0
  9
$DIMSAH
 70
     0
  9
$DIMBLK1
  1

  9
$DIMBLK2
  1

  9
$DIMSTYLE
  2
STANDARD
  9
$DIMCLRD
 70
     0
  9
$DIMCLRE
 70
     0
  9
$DIMCLRT
 70
     2
  9
$DIMTFAC
 40
0.5444444444444444
  9
$DIMGAP
 40
1.5
  9
$DIMJUST
 70
     0
  9
$DIMSD1
 70
     0
  9
$DIMSD2
 70
     0
  9
$DIMTOLJ
 70
     1
  9
$DIMTZIN
 70
     9
  9
$DIMALTZ
 70
     9
  9
$DIMALTTZ
 70
     9
  9
$DIMFIT
 70
     5
  9
$DIMUPT
 70
     0
  9
$DIMUNIT
 70
     2
  9
$DIMDEC
 70
     2
  9
$DIMTDEC
 70
     2
  9
$DIMALTU
 70
     2
  9
$DIMALTTD
 70
     0
  9
$DIMTXSTY
  7
STANDARD
  9
$DIMAUNIT
 70
     0
  9
$LUNITS
 70
     2
  9
$LUPREC
 70
     2
  9
$SKETCHINC
 40
0.1
  9
$FILLETRAD
 40
100.0
  9
$AUNITS
 70
     0
  9
$AUPREC
 70
     1
  9
$MENU
  1
C:\ACAD\ACAD
  9
$ELEVATION
 40
0.0
  9
$PELEVATION
 40
0.0
  9
$THICKNESS
 40
0.0
  9
$LIMCHECK
 70
     0
  9
$BLIPMODE
 70
     0
  9
$CHAMFERA
 40
0.0
  9
$CHAMFERB
 40
0.0
  9
$CHAMFERC
 40
0.0
  9
$CHAMFERD
 40
0.0
  9
$SKPOLY
 70
     0
  9
$TDCREATE
 40
2450898.397826389
  9
$TDUPDATE
 40
2453966.364993483
  9
$TDINDWG
 40
0.0065093056
  9
$TDUSRTIMER
 40
0.0065093056
  9
$USRTIMER
 70
     1
  9
$ANGBASE
 50
0.0
  9
$ANGDIR
 70
     0
  9
$PDMODE
 70
     0
  9
$PDSIZE
 40
0.0
  9
$PLINEWID
 40
0.0
  9
$COORDS
 70
     2
  9
$SPLFRAME
 70
     0
  9
$SPLINETYPE
 70
     6
  9
$SPLINESEGS
 70
     8
  9
$ATTDIA
 70
     0
  9
$ATTREQ
 70
     1
  9
$HANDLING
 70
 22529
  9
$HANDSEED
  5
53EFB
  9
$SURFTAB1
 70
     5
  9
$SURFTAB2
 70
     2
  9
$SURFTYPE
 70
     6
  9
$SURFU
 70
     6
  9
$SURFV
 70
     6
  9
$UCSNAME
  2

  9
$UCSORG
 10
0.0
 20
0.0
 30
0.0
  9
$UCSXDIR
 10
1.0
 20
0.0
 30
0.0
  9
$UCSYDIR
 10
0.0
 20
1.0
 30
0.0
  9
$PUCSNAME
  2

  9
$PUCSORG
 10
0.0
 20
0.0
 30
0.0
  9
$PUCSXDIR
 10
1.0
 20
0.0
 30
0.0
  9
$PUCSYDIR
 10
0.0
 20
1.0
 30
0.0
  9
$USERI1
 70
     0
  9
$USERI2
 70
     0
  9
$USERI3
 70
     0
  9
$USERI4
 70
     0
  9
$USERI5
 70
     0
  9
$USERR1
 40
0.0
  9
$USERR2
 40
0.0
  9
$USERR3
 40
0.0
  9
$USERR4
 40
0.0
  9
$USERR5
 40
0.0
  9
$WORLDVIEW
 70
     1
  9
$SHADEDGE
 70
     3
  9
$SHADEDIF
 70
    70
  9
$TILEMODE
 70
     1
  9
$MAXACTVP
 70
    16
  9
$PINSBASE
 10
-26347.60695032222
 20
60120.64476028043
 30
-37596.24943709658
  9
$PLIMCHECK
 70
     0
  9
$PEXTMIN
 10
1.000000000000000E+20
 20
1.000000000000000E+20
 30
1.000000000000000E+20
  9
$PEXTMAX
 10
-1.000000000000000E+20
 20
-1.000000000000000E+20
 30
-1.000000000000000E+20
  9
$PLIMMIN
 10
0.0
 20
0.0
  9
$PLIMMAX
 10
12.0
 20
9.0
  9
$UNITMODE
 70
     1
  9
$VISRETAIN
 70
     0
  9
$PLINEGEN
 70
     0
  9
$PSLTSCALE
 70
     0
  9
$TREEDEPTH
 70
  3020
  9
$PICKSTYLE
 70
     1
  9
$CMLSTYLE
  2
STANDARD
  9
$CMLJUST
 70
     0
  9
$CMLSCALE
 40
1.0
  9
$PROXYGRAPHICS
 70
     1
  9
$MEASUREMENT
 70
     0
  0
ENDSEC
  0
SECTION
  2
CLASSES
  0
CLASS
  1
ACDBDICTIONARYWDFLT
  2
AcDbDictionaryWithDefault
  3
AutoCAD 2000
 90
        0
280
     0
281
     0
  0
CLASS
  1
ACDBPLACEHOLDER
  2
AcDbPlaceHolder
  3
AutoCAD 2000
 90
        0
280
     0
281
     0
  0
CLASS
  1
LAYOUT
  2
AcDbLayout
  3
AutoCAD 2000
 90
        0
280
     0
281
     0
  0
CLASS
  1
DICTIONARYVAR
  2
AcDbDictionaryVar
  3
AutoCAD 2000
 90
        0
280
     0
281
     0
  0
CLASS
  1
LONG_TRANSACTION
  2
AcDbLongTransaction
  3
AutoCAD 2000
 90
        0
280
     0
281
     0
  0
CLASS
  1
LWPOLYLINE
  2
AcDbPolyline
  3
AutoCAD 2000
 90
        0
280
     0
281
     1
  0
CLASS
  1
HATCH
  2
AcDbHatch
  3
AutoCAD 2000
 90
        0
280
     0
281
     1
  0
CLASS
  1
XRECORD
  2
AcDbXrecord
  3
AutoCAD 2000
 90
        0
280
     0
281
     0
  0
ENDSEC
  0
SECTION
  2
TABLES
  0
TABLE
  2
VPORT
  5
53EAF
330
0
100
AcDbSymbolTable
 70
     2
  0
VPORT
  5
53ED5
330
53EAF
100
AcDbSymbolTableRecord
100
AcDbViewportTableRecord
  2
*ACTIVE
 70
     0
 10
0.0
 20
0.0
 11
1.0
 21
1.0
 12
1223.64514158914
 22
-154.8819633376051
 13
0.0
 23
0.0
 14
10.0
 24
10.0
 15
0.0
 25
0.0
 16
0.0
 26
0.0
 36
1.0
 17
0.0
 27
0.0
 37
0.0
 40
1839.129264333485
 41
1.674961119751166
 42
50.0
 43
0.0
 44
0.0
 50
0.0
 51
0.0
 71
     0
 72
   100
 73
     1
 74
     0
 75
     0
 76
     0
 77
     0
 78
     0
  0
ENDTAB
  0
TABLE
  2
LTYPE
  5
53EAC
330
0
100
AcDbSymbolTable
 70
     1
  0
LTYPE
  5
53EBA
330
53EAC
100
AcDbSymbolTableRecord
100
AcDbLinetypeTableRecord
  2
BYBLOCK
 70
     0
  3

 72
    65
 73
     0
 40
0.0
  0
LTYPE
  5
53EBB
330
53EAC
100
AcDbSymbolTableRecord
100
AcDbLinetypeTableRecord
  2
BYLAYER
 70
     0
  3

 72
    65
 73
     0
 40
0.0
  0
LTYPE
  5
53EBC
330
53EAC
100
AcDbSymbolTableRecord
100
AcDbLinetypeTableRecord
  2
CONTINUOUS
 70
     0
  3
Solid line
 72
    65
 73
     0
 40
0.0
  0
ENDTAB
  0
TABLE
  2
LAYER
  5
53EA9
330
0
100
AcDbSymbolTable
 70
     2
  0
LAYER
  5
53EB7
330
53EA9
100
AcDbSymbolTableRecord
100
AcDbLayerTableRecord
  2
0
 70
     0
 62
     7
  6
CONTINUOUS
  0
LAYER
  5
53ECA
330
53EA9
100
AcDbSymbolTableRecord
100
AcDbLayerTableRecord
  2
RIHO-2D
 70
     0
 62
   254
  6
CONTINUOUS
  0
ENDTAB
  0
TABLE
  2
STYLE
  5
53EAA
330
0
100
AcDbSymbolTable
 70
     1
  0
STYLE
  5
53EB8
330
53EAA
100
AcDbSymbolTableRecord
100
AcDbTextStyleTableRecord
  2
STANDARD
 70
     0
 40
0.0
 41
1.0
 50
0.0
 71
     0
 42
90.0
  3
ROMANS.SHX
  4

  0
ENDTAB
  0
TABLE
  2
VIEW
  5
53EAD
330
0
100
AcDbSymbolTable
 70
     0
  0
ENDTAB
  0
TABLE
  2
UCS
  5
53EAE
330
0
100
AcDbSymbolTable
 70
     0
  0
ENDTAB
  0
TABLE
  2
APPID
  5
53EB0
330
0
100
AcDbSymbolTable
 70
     1
  0
APPID
  5
53EB9
330
53EB0
100
AcDbSymbolTableRecord
100
AcDbRegAppTableRecord
  2
ACAD
 70
     0
  0
ENDTAB
  0
TABLE
  2
DIMSTYLE
  5
53EB1
330
0
100
AcDbSymbolTable
 70
     1
  0
DIMSTYLE
105
53ECF
330
53EB1
100
AcDbSymbolTableRecord
100
AcDbDimStyleTableRecord
  2
STANDARD
 70
     0
  3

  4

  5

  6

  7

 40
1.0
 41
0.18
 42
0.0625
 43
0.38
 44
0.18
 45
0.0
 46
0.0
 47
0.0
 48
0.0
140
0.18
141
0.09
142
0.0
143
25.4
144
1.0
145
0.0
146
1.0
147
0.09
 71
     0
 72
     0
 73
     1
 74
     1
 75
     0
 76
     0
 77
     0
 78
     0
170
     0
171
     2
172
     0
173
     0
174
     0
175
     0
176
     0
177
     0
178
     0
270
     2
271
     4
272
     4
273
     2
274
     2
340
53EB8
275
     0
280
     0
281
     0
282
     0
283
     1
284
     0
285
     0
286
     0
287
     3
288
     0
  0
ENDTAB
  0
TABLE
  2
BLOCK_RECORD
  5
53EA8
330
0
100
AcDbSymbolTable
 70
     0
  0
BLOCK_RECORD
  5
53EC5
102
{ACAD_XDICTIONARY
360
53EF9
102
}
330
53EA8
100
AcDbSymbolTableRecord
100
AcDbBlockTableRecord
  2
*MODEL_SPACE
  0
BLOCK_RECORD
  5
53EC1
102
{ACAD_XDICTIONARY
360
53EF7
102
}
330
53EA8
100
AcDbSymbolTableRecord
100
AcDbBlockTableRecord
  2
*PAPER_SPACE
  0
ENDTAB
  0
ENDSEC
  0
SECTION
  2
BLOCKS
  0
BLOCK
  5
53ECD
330
53EC5
100
AcDbEntity
  8
0
100
AcDbBlockBegin
  2
*MODEL_SPACE
 70
     0
 10
0.0
 20
0.0
 30
0.0
  3
*MODEL_SPACE
  1

  0
ENDBLK
  5
53ECE
330
53EC5
100
AcDbEntity
  8
0
100
AcDbBlockEnd
  0
BLOCK
  5
53ECB
330
53EC1
100
AcDbEntity
 67
     1
  8
0
100
AcDbBlockBegin
  2
*PAPER_SPACE
 70
     0
 10
0.0
 20
0.0
 30
0.0
  3
*PAPER_SPACE
  1

  0
ENDBLK
  5
53ECC
330
53EC1
100
AcDbEntity
 67
     1
  8
0
100
AcDbBlockEnd
  0
ENDSEC
  0
SECTION
  2
ENTITIES
  0
LWPOLYLINE
  5
538FE
330
53EC5
100
AcDbEntity
  8
RIHO-2D
100
AcDbPolyline
 90
        4
 70
     1
 43
0.0
 10
0.0
 20
0.0
 10
1800.0
 20
0.0
 10
1800.0
 20
-800.0
 10
0.0
 20
-800.0
  0
LWPOLYLINE
  5
53904
330
53EC5
100
AcDbEntity
  8
RIHO-2D
100
AcDbPolyline
 90
        6
 70
     0
 43
0.0
 10
159.2962803482951
 20
-148.2138517619241
 42
-0.2494119662443416
 10
325.1391489381057
 20
-60.0
 10
1395.0
 20
-60.0
 42
-0.9264705882353048
 10
1394.999999999992
 20
-740.0
 10
325.1391489381057
 20
-740.0
 42
-0.249411966244347
 10
159.2962803482951
 20
-651.7861482380685
  0
ARC
  5
5390C
330
53EC5
100
AcDbEntity
  8
RIHO-2D
100
AcDbCircle
 10
424.0822784810152
 20
-400.0
 30
0.0
 40
224.0822784810125
100
AcDbArc
 50
96.81288750998916
 51
263.1871124900108
  0
POLYLINE
  5
5390D
330
53EC5
100
AcDbEntity
  8
RIHO-2D
  6
CONTINUOUS
100
AcDb3dPolyline
 66
     1
 10
0.0
 20
0.0
 30
0.0
 70
     8
  0
VERTEX
  5
5390E
330
5390D
100
AcDbEntity
  8
RIHO-2D
  6
CONTINUOUS
100
AcDbVertex
100
AcDb3dPolylineVertex
 10
106.5912606942729
 20
-380.0
 30
0.0
 70
    32
1001
ACAD
1000
R13OBJECT
1002
{
1005
507E9
1002
}
  0
VERTEX
  5
5390F
330
5390D
100
AcDbEntity
  8
RIHO-2D
  6
CONTINUOUS
100
AcDbVertex
100
AcDb3dPolylineVertex
 10
102.9704295900378
 20
-383.1749293433749
 30
0.0
 70
    32
1001
ACAD
1000
R13OBJECT
1002
{
1005
507E9
1002
}
  0
VERTEX
  5
53910
330
5390D
100
AcDbEntity
  8
RIHO-2D
  6
CONTINUOUS
100
AcDbVertex
100
AcDb3dPolylineVertex
 10
100.4991867778276
 20
-391.6916997399639
 30
0.0
 70
    32
1001
ACAD
1000
R13OBJECT
1002
{
1005
507E9
1002
}
  0
VERTEX
  5
53911
330
5390D
100
AcDbEntity
  8
RIHO-2D
  6
CONTINUOUS
100
AcDbVertex
100
AcDb3dPolylineVertex
 10
99.96213438955146
 20
-402.8462967654668
 30
0.0
 70
    32
1001
ACAD
1000
R13OBJECT
1002
{
1005
507E9
1002
}
  0
VERTEX
  5
53912
330
5390D
100
AcDbEntity
  8
RIHO-2D
  6
CONTINUOUS
100
AcDbVertex
100
AcDb3dPolylineVertex
 10
101.529782763856
 20
-413.0972146789063
 30
0.0
 70
    32
1001
ACAD
1000
R13OBJECT
1002
{
1005
507E9
1002
}
  0
VERTEX
  5
53913
330
5390D
100
AcDbEntity
  8
RIHO-2D
  6
CONTINUOUS
100
AcDbVertex
100
AcDb3dPolylineVertex
 10
104.7044146183734
 20
-419.1898594722915
 30
0.0
 70
    32
1001
ACAD
1000
R13OBJECT
1002
{
1005
507E9
1002
}
  0
VERTEX
  5
53914
330
5390D
100
AcDbEntity
  8
RIHO-2D
  6
CONTINUOUS
100
AcDbVertex
100
AcDb3dPolylineVertex
 10
108.4781067701724
 20
-419.1898594722915
 30
0.0
 70
    32
1001
ACAD
1000
R13OBJECT
1002
{
1005
507E9
1002
}
  0
VERTEX
  5
53915
330
5390D
100
AcDbEntity
  8
RIHO-2D
  6
CONTINUOUS
100
AcDbVertex
100
AcDb3dPolylineVertex
 10
111.6527386246902
 20
-413.0972146789063
 30
0.0
 70
    32
1001
ACAD
1000
R13OBJECT
1002
{
1005
507E9
1002
}
  0
VERTEX
  5
53916
330
5390D
100
AcDbEntity
  8
RIHO-2D
  6
CONTINUOUS
100
AcDbVertex
100
AcDb3dPolylineVertex
 10
113.2203869989948
 20
-402.8462967654668
 30
0.0
 70
    32
1001
ACAD
1000
R13OBJECT
1002
{
1005
507E9
1002
}
  0
VERTEX
  5
53917
330
5390D
100
AcDbEntity
  8
RIHO-2D
  6
CONTINUOUS
100
AcDbVertex
100
AcDb3dPolylineVertex
 10
112.6833346107182
 20
-391.6916997399603
 30
0.0
 70
    32
1001
ACAD
1000
R13OBJECT
1002
{
1005
507E9
1002
}
  0
VERTEX
  5
53918
330
5390D
100
AcDbEntity
  8
RIHO-2D
  6
CONTINUOUS
100
AcDbVertex
100
AcDb3dPolylineVertex
 10
110.2120917985075
 20
-383.1749293433749
 30
0.0
 70
    32
1001
ACAD
1000
R13OBJECT
1002
{
1005
507E9
1002
}
  0
VERTEX
  5
53919
330
5390D
100
AcDbEntity
  8
RIHO-2D
  6
CONTINUOUS
100
AcDbVertex
100
AcDb3dPolylineVertex
 10
106.5912606942729
 20
-380.0
 30
0.0
 70
    32
1001
ACAD
1000
R13OBJECT
1002
{
1005
507E9
1002
}
  0
SEQEND
  5
5391A
330
5390D
100
AcDbEntity
  8
RIHO-2D
  6
CONTINUOUS
  0
ARC
  5
5391B
330
53EC5
100
AcDbEntity
  8
RIHO-2D
100
AcDbCircle
 10
582.0771978794582
 20
-400.0
 30
0.0
 40
492.0771978794626
100
AcDbArc
 50
149.2241894979101
 51
210.7758105020891
  0
LWPOLYLINE
  5
5391C
330
53EC5
100
AcDbEntity
  8
RIHO-2D
100
AcDbPolyline
 90
        2
 70
     0
 43
0.0
 10
397.5
 20
-177.5
 10
1215.5
 20
-177.5
  0
LWPOLYLINE
  5
53920
330
53EC5
100
AcDbEntity
  8
RIHO-2D
100
AcDbPolyline
 90
        2
 70
     0
 43
0.0
 10
397.5
 20
-622.5
 10
1215.5
 20
-622.5
  0
LWPOLYLINE
  5
53924
330
53EC5
100
AcDbEntity
  8
RIHO-2D
100
AcDbPolyline
 90
        8
 70
     1
 43
0.0
 10
950.0
 20
-740.0
 10
950.0
 20
-690.0
 10
948.7150219625181
 20
-685.0112893677215
 42
0.3421615009063643
 10
929.3471938388611
 20
-670.0000000000073
 10
212.1388489237288
 20
-669.9999999999927
 42
0.1861603835760006
 10
325.139148938193
 20
-720.0000000000073
 10
929.3471938388611
 20
-720.0000000000073
 42
-0.3421615009063643
 10
948.7150219625181
 20
-735.0112893677215
  0
LWPOLYLINE
  5
5392E
330
53EC5
100
AcDbEntity
  8
RIHO-2D
100
AcDbPolyline
 90
        8
 70
     1
 43
0.0
 10
950.0
 20
-60.0
 10
950.0
 20
-110.0
 10
948.7150219625181
 20
-114.9887106322785
 42
-0.3421615009063643
 10
929.3471938388611
 20
-129.9999999999927
 10
212.1388489237288
 20
-130.0000000000072
 42
-0.1861603835760006
 10
325.139148938193
 20
-79.99999999999272
 10
929.3471938388611
 20
-79.99999999999272
 42
0.3421615009063643
 10
948.7150219625181
 20
-64.98871063227852
  0
CIRCLE
  5
53938
330
53EC5
100
AcDbEntity
  8
RIHO-2D
100
AcDbCircle
 10
310.0
 20
-400.0
 30
0.0
 40
35.0
  0
LWPOLYLINE
  5
53939
330
53EC5
100
AcDbEntity
  8
RIHO-2D
100
AcDbPolyline
 90
        9
 70
     1
 43
0.0
 10
998.6517977252951
 20
-68.65179772529518
 10
990.0
 20
-60.0
 10
990.0
 20
-110.0
 10
998.6340911573206
 20
-118.6340911573133
 42
0.1864532105225011
 10
1001.929457104488
 20
-120.0927858556388
 10
1276.616504012105
 20
-133.3022387221062
 42
-0.1270784941369425
 10
1445.016628647645
 20
-185.5521282335394
 42
0.2182695367865589
 10
1255.711567436119
 20
-84.53549718704744
 10
1001.903573043396
 20
-70.10820543198497
 42
-0.1841957141671848
  0
LWPOLYLINE
  5
53944
330
53EC5
100
AcDbEntity
  8
RIHO-2D
100
AcDbPolyline
 90
        9
 70
     1
 43
0.0
 10
998.6517977252951
 20
-731.3482022747048
 10
990.0
 20
-740.0
 10
990.0
 20
-690.0
 10
998.6340911573206
 20
-681.3659088426866
 42
-0.1864532105225011
 10
1001.929457104488
 20
-679.9072141443612
 10
1276.616504012105
 20
-666.6977612778937
 42
0.1270784941369425
 10
1445.016628647645
 20
-614.4478717664606
 42
-0.2182695367865589
 10
1255.711567436119
 20
-715.4645028129525
 10
1001.903573043396
 20
-729.891794568015
 42
0.1841957141671848
  0
ARC
  5
5394F
330
53EC5
100
AcDbEntity
  8
RIHO-2D
100
AcDbCircle
 10
1188.917721518984
 20
-400.0
 30
0.0
 40
224.0822784810129
100
AcDbArc
 50
276.81288750999
 51
83.18711249000989
  0
LWPOLYLINE
  5
53950
330
53EC5
100
AcDbEntity
  8
RIHO-2D
100
AcDbPolyline
 90
        2
 70
     0
 43
0.0
 10
990.0
 20
-690.0
 10
950.0
 20
-690.0
  0
LWPOLYLINE
  5
53954
330
53EC5
100
AcDbEntity
  8
RIHO-2D
100
AcDbPolyline
 90
        2
 70
     0
 43
0.0
 10
990.0
 20
-110.0
 10
950.0
 20
-110.0
  0
ARC
  5
53958
330
53EC5
100
AcDbEntity
  8
RIHO-2D
100
AcDbCircle
 10
1175.376300284813
 20
-400.0000000000072
 30
0.0
 40
344.5196603748191
100
AcDbArc
 50
321.5043900480648
 51
38.49560995193781
  0
LWPOLYLINE
  5
53959
330
53EC5
100
AcDbEntity
  8
RIHO-2D
100
AcDbPolyline
 90
        4
 70
     0
 43
0.0
 10
1394.999999999992
 20
-740.0
 10
1444.999999999993
 20
-740.0
 42
0.9264705882353048
 10
1445.0
 20
-60.0
 10
1395.0
 20
-60.0
  0
ENDSEC
  0
SECTION
  2
OBJECTS
  0
DICTIONARY
  5
53EB3
330
0
100
AcDbDictionary
  3
ACAD_GROUP
350
53EB4
  3
ACAD_LAYOUT
350
53EC0
  3
ACAD_MLINESTYLE
350
53EBD
  3
ACAD_PLOTSETTINGS
350
53EBF
  3
ACAD_PLOTSTYLENAME
350
53EB5
  3
ACDBHEADERROUNDTRIPXREC
350
53ED6
  3
ACDBVARIABLEDICTIONARY
350
53ED2
  0
DICTIONARY
  5
53EF9
330
53EC5
100
AcDbDictionary
280
     1
  3
ACAD_LAYOUTSELFREF
360
53EFA
  0
DICTIONARY
  5
53EF7
330
53EC1
100
AcDbDictionary
280
     1
  3
ACAD_LAYOUTSELFREF
360
53EF8
  0
DICTIONARY
  5
53EB4
102
{ACAD_REACTORS
330
53EB3
102
}
330
53EB3
100
AcDbDictionary
  0
DICTIONARY
  5
53EC0
102
{ACAD_REACTORS
330
53EB3
102
}
330
53EB3
100
AcDbDictionary
  0
DICTIONARY
  5
53EBD
102
{ACAD_REACTORS
330
53EB3
102
}
330
53EB3
100
AcDbDictionary
  3
STANDARD
350
53EBE
  0
DICTIONARY
  5
53EBF
102
{ACAD_REACTORS
330
53EB3
102
}
330
53EB3
100
AcDbDictionary
  0
ACDBDICTIONARYWDFLT
  5
53EB5
102
{ACAD_REACTORS
330
53EB3
102
}
330
53EB3
100
AcDbDictionary
281
     1
  3
Normal
350
53EB6
100
AcDbDictionaryWithDefault
340
53EB6
  0
DICTIONARY
  5
53ED6
102
{ACAD_REACTORS
330
53EB3
102
}
330
53EB3
100
AcDbDictionary
  3
CEPSNTYPE
350
53EE0
  3
DIMSTYLEDATA
350
53EE4
  3
FINGERPRINTGUID
350
53EE1
  3
HYPERLINKBASE
350
53ED9
  3
INSUNITS
350
53EDF
  3
LAYOUTDICT
350
53EDB
  3
LWETCUNION
350
53EDE
  3
PLOTSETDICT
350
53EDC
  3
PLOTSTYLNAMDICT
350
53EDD
  3
PSVPSCALE
350
53EE3
  3
PUCSBASE
350
53EE7
  3
PUCSORGBACK
350
53EED
  3
PUCSORGBOTTOM
350
53EE9
  3
PUCSORGFRONT
350
53EEC
  3
PUCSORGLEFT
350
53EEA
  3
PUCSORGRIGHT
350
53EEB
  3
PUCSORGTOP
350
53EE8
  3
PUCSORTHOREF
350
53EE5
  3
PUCSORTHOVIEW
350
53EE6
  3
STYLESHEET
350
53EDA
  3
TSTACKALIGN
350
53ED7
  3
TSTACKSIZE
350
53ED8
  3
UCSBASE
350
53EF0
  3
UCSORGBACK
350
53EF6
  3
UCSORGBOTTOM
350
53EF2
  3
UCSORGFRONT
350
53EF5
  3
UCSORGLEFT
350
53EF3
  3
UCSORGRIGHT
350
53EF4
  3
UCSORGTOP
350
53EF1
  3
UCSORTHOREF
350
53EEE
  3
UCSORTHOVIEW
350
53EEF
  3
VERSIONGUID
350
53EE2
  0
DICTIONARY
  5
53ED2
102
{ACAD_REACTORS
330
53EB3
102
}
330
53EB3
100
AcDbDictionary
  3
DIMASSOC
350
53ED4
  3
HIDETEXT
350
53ED3
  0
XRECORD
  5
53EFA
102
{ACAD_REACTORS
330
53EF9
102
}
330
53EF9
100
AcDbXrecord
340
53EC5
  0
XRECORD
  5
53EF8
102
{ACAD_REACTORS
330
53EF7
102
}
330
53EF7
100
AcDbXrecord
340
53EC1
  0
MLINESTYLE
  5
53EBE
102
{ACAD_REACTORS
330
53EBD
102
}
330
53EBD
100
AcDbMlineStyle
  2
STANDARD
 70
     0
  3

 62
   256
 51
90.0
 52
90.0
 71
     2
 49
0.5
 62
   256
  6
BYLAYER
 49
-0.5
 62
   256
  6
BYLAYER
  0
ACDBPLACEHOLDER
  5
53EB6
102
{ACAD_REACTORS
330
53EB5
102
}
330
53EB5
100
AcDbPlaceHolder
280
     0
  0
XRECORD
  5
53EE0
102
{ACAD_REACTORS
330
53ED6
102
}
330
53ED6
100
AcDbXrecord
 90
        0
  0
XRECORD
  5
53EE4
102
{ACAD_REACTORS
330
53ED6
102
}
330
53ED6
100
AcDbXrecord
1000
DSTYLE
1002
{
1070
   179
 70
     1
1070
   279
 70
     2
1002
}
  0
XRECORD
  5
53EE1
102
{ACAD_REACTORS
330
53ED6
102
}
330
53ED6
100
AcDbXrecord
  1
{F70CE3B3-1E07-4F0F-8EF7-60B3E62C0AE6}
  0
XRECORD
  5
53ED9
102
{ACAD_REACTORS
330
53ED6
102
}
330
53ED6
100
AcDbXrecord
  1

  0
XRECORD
  5
53EDF
102
{ACAD_REACTORS
330
53ED6
102
}
330
53ED6
100
AcDbXrecord
 90
        0
  0
XRECORD
  5
53EDB
102
{ACAD_REACTORS
330
53ED6
102
}
330
53ED6
100
AcDbXrecord
340
53EC0
  0
XRECORD
  5
53EDE
102
{ACAD_REACTORS
330
53ED6
102
}
330
53ED6
100
AcDbXrecord
 90
    14877
  0
XRECORD
  5
53EDC
102
{ACAD_REACTORS
330
53ED6
102
}
330
53ED6
100
AcDbXrecord
340
53EBF
  0
XRECORD
  5
53EDD
102
{ACAD_REACTORS
330
53ED6
102
}
330
53ED6
100
AcDbXrecord
340
53EB5
  0
XRECORD
  5
53EE3
102
{ACAD_REACTORS
330
53ED6
102
}
330
53ED6
100
AcDbXrecord
 40
0.0
  0
XRECORD
  5
53EE7
102
{ACAD_REACTORS
330
53ED6
102
}
330
53ED6
100
AcDbXrecord
340
0
  0
XRECORD
  5
53EED
102
{ACAD_REACTORS
330
53ED6
102
}
330
53ED6
100
AcDbXrecord
 10
0.0
 20
0.0
 30
0.0
  0
XRECORD
  5
53EE9
102
{ACAD_REACTORS
330
53ED6
102
}
330
53ED6
100
AcDbXrecord
 10
0.0
 20
0.0
 30
0.0
  0
XRECORD
  5
53EEC
102
{ACAD_REACTORS
330
53ED6
102
}
330
53ED6
100
AcDbXrecord
 10
0.0
 20
0.0
 30
0.0
  0
XRECORD
  5
53EEA
102
{ACAD_REACTORS
330
53ED6
102
}
330
53ED6
100
AcDbXrecord
 10
0.0
 20
0.0
 30
0.0
  0
XRECORD
  5
53EEB
102
{ACAD_REACTORS
330
53ED6
102
}
330
53ED6
100
AcDbXrecord
 10
0.0
 20
0.0
 30
0.0
  0
XRECORD
  5
53EE8
102
{ACAD_REACTORS
330
53ED6
102
}
330
53ED6
100
AcDbXrecord
 10
0.0
 20
0.0
 30
0.0
  0
XRECORD
  5
53EE5
102
{ACAD_REACTORS
330
53ED6
102
}
330
53ED6
100
AcDbXrecord
340
0
  0
XRECORD
  5
53EE6
102
{ACAD_REACTORS
330
53ED6
102
}
330
53ED6
100
AcDbXrecord
 70
     0
  0
XRECORD
  5
53EDA
102
{ACAD_REACTORS
330
53ED6
102
}
330
53ED6
100
AcDbXrecord
  1

  0
XRECORD
  5
53ED7
102
{ACAD_REACTORS
330
53ED6
102
}
330
53ED6
100
AcDbXrecord
 90
        1
  0
XRECORD
  5
53ED8
102
{ACAD_REACTORS
330
53ED6
102
}
330
53ED6
100
AcDbXrecord
 90
       70
  0
XRECORD
  5
53EF0
102
{ACAD_REACTORS
330
53ED6
102
}
330
53ED6
100
AcDbXrecord
340
0
  0
XRECORD
  5
53EF6
102
{ACAD_REACTORS
330
53ED6
102
}
330
53ED6
100
AcDbXrecord
 10
0.0
 20
0.0
 30
0.0
  0
XRECORD
  5
53EF2
102
{ACAD_REACTORS
330
53ED6
102
}
330
53ED6
100
AcDbXrecord
 10
0.0
 20
0.0
 30
0.0
  0
XRECORD
  5
53EF5
102
{ACAD_REACTORS
330
53ED6
102
}
330
53ED6
100
AcDbXrecord
 10
0.0
 20
0.0
 30
0.0
  0
XRECORD
  5
53EF3
102
{ACAD_REACTORS
330
53ED6
102
}
330
53ED6
100
AcDbXrecord
 10
0.0
 20
0.0
 30
0.0
  0
XRECORD
  5
53EF4
102
{ACAD_REACTORS
330
53ED6
102
}
330
53ED6
100
AcDbXrecord
 10
0.0
 20
0.0
 30
0.0
  0
XRECORD
  5
53EF1
102
{ACAD_REACTORS
330
53ED6
102
}
330
53ED6
100
AcDbXrecord
 10
0.0
 20
0.0
 30
0.0
  0
XRECORD
  5
53EEE
102
{ACAD_REACTORS
330
53ED6
102
}
330
53ED6
100
AcDbXrecord
340
0
  0
XRECORD
  5
53EEF
102
{ACAD_REACTORS
330
53ED6
102
}
330
53ED6
100
AcDbXrecord
 70
     0
  0
XRECORD
  5
53EE2
102
{ACAD_REACTORS
330
53ED6
102
}
330
53ED6
100
AcDbXrecord
  1
{F0391F2A-2718-4303-9CD5-CECCC2EAAA49}
  0
DICTIONARYVAR
  5
53ED4
102
{ACAD_REACTORS
330
53ED2
102
}
330
53ED2
100
DictionaryVariables
280
     0
  1
2
  0
DICTIONARYVAR
  5
53ED3
102
{ACAD_REACTORS
330
53ED2
102
}
330
53ED2
100
DictionaryVariables
280
     0
  1
1
  0
ENDSEC
  0
EOF
