  0
SECTION
  2
HEADER
  9
$ACADVER
  1
AC1014
  9
$ACADMAINTVER
 70
     9
  9
$DWGCODEPAGE
  3
ANSI_1250
  9
$INSBASE
 10
0.0
 20
0.0
 30
0.0
  9
$EXTMIN
 10
-1176.306334264208
 20
-4.716606937850201
 30
0.0
  9
$EXTMAX
 10
523.6936657357914
 20
1657.926609432848
 30
0.0
  9
$LIMMIN
 10
0.0
 20
0.0
  9
$LIMMAX
 10
420.0
 20
297.0
  9
$ORTHOMODE
 70
     0
  9
$REGENMODE
 70
     1
  9
$FILLMODE
 70
     1
  9
$QTEXTMODE
 70
     0
  9
$MIRRTEXT
 70
     1
  9
$DRAGMODE
 70
     2
  9
$LTSCALE
 40
1.0
  9
$OSMODE
 70
  3007
  9
$ATTMODE
 70
     1
  9
$TEXTSIZE
 40
2.5
  9
$TRACEWID
 40
1.0
  9
$TEXTSTYLE
  7
ISO35
  9
$CLAYER
  8
PEN50
  9
$CELTYPE
  6
BYLAYER
  9
$CECOLOR
 62
   256
  9
$CELTSCALE
 40
1.0
  9
$DELOBJ
 70
     1
  9
$DISPSILH
 70
     0
  9
$DIMSCALE
 40
10.0
  9
$DIMASZ
 40
3.5
  9
$DIMEXO
 40
0.875
  9
$DIMDLI
 40
5.25
  9
$DIMRND
 40
0.0
  9
$DIMDLE
 40
0.0
  9
$DIMEXE
 40
1.75
  9
$DIMTP
 40
0.0
  9
$DIMTM
 40
0.0
  9
$DIMTXT
 40
3.5
  9
$DIMCEN
 40
0.0
  9
$DIMTSZ
 40
0.0
  9
$DIMTOL
 70
     0
  9
$DIMLIM
 70
     0
  9
$DIMTIH
 70
     0
  9
$DIMTOH
 70
     0
  9
$DIMSE1
 70
     0
  9
$DIMSE2
 70
     0
  9
$DIMTAD
 70
     1
  9
$DIMZIN
 70
     8
  9
$DIMBLK
  1

  9
$DIMASO
 70
     1
  9
$DIMSHO
 70
     1
  9
$DIMPOST
  1

  9
$DIMAPOST
  1

  9
$DIMALT
 70
     0
  9
$DIMALTD
 70
     4
  9
$DIMALTF
 40
0.0394
  9
$DIMLFAC
 40
1.0
  9
$DIMTOFL
 70
     1
  9
$DIMTVP
 40
0.0
  9
$DIMTIX
 70
     0
  9
$DIMSOXD
 70
     0
  9
$DIMSAH
 70
     0
  9
$DIMBLK1
  1

  9
$DIMBLK2
  1

  9
$DIMSTYLE
  2
ISO-35
  9
$DIMCLRD
 70
   256
  9
$DIMCLRE
 70
   256
  9
$DIMCLRT
 70
     2
  9
$DIMTFAC
 40
1.0
  9
$DIMGAP
 40
2.0
  9
$DIMJUST
 70
     0
  9
$DIMSD1
 70
     0
  9
$DIMSD2
 70
     0
  9
$DIMTOLJ
 70
     1
  9
$DIMTZIN
 70
     0
  9
$DIMALTZ
 70
     0
  9
$DIMALTTZ
 70
     0
  9
$DIMFIT
 70
     3
  9
$DIMUPT
 70
     0
  9
$DIMUNIT
 70
     2
  9
$DIMDEC
 70
     2
  9
$DIMTDEC
 70
     2
  9
$DIMALTU
 70
     8
  9
$DIMALTTD
 70
     4
  9
$DIMTXSTY
  7
ISO35
  9
$DIMAUNIT
 70
     0
  9
$LUNITS
 70
     2
  9
$LUPREC
 70
     2
  9
$SKETCHINC
 40
1.0
  9
$FILLETRAD
 40
10.0
  9
$AUNITS
 70
     0
  9
$AUPREC
 70
     0
  9
$MENU
  1
.
  9
$ELEVATION
 40
0.0
  9
$PELEVATION
 40
0.0
  9
$THICKNESS
 40
0.0
  9
$LIMCHECK
 70
     0
  9
$BLIPMODE
 70
     0
  9
$CHAMFERA
 40
10.0
  9
$CHAMFERB
 40
10.0
  9
$CHAMFERC
 40
20.0
  9
$CHAMFERD
 40
0.0
  9
$SKPOLY
 70
     1
  9
$TDCREATE
 40
2451092.421720590
  9
$TDUPDATE
 40
2453966.365033449
  9
$TDINDWG
 40
0.5190294676
  9
$TDUSRTIMER
 40
0.5190294676
  9
$USRTIMER
 70
     1
  9
$ANGBASE
 50
0.0
  9
$ANGDIR
 70
     0
  9
$PDMODE
 70
     0
  9
$PDSIZE
 40
0.0
  9
$PLINEWID
 40
0.0
  9
$COORDS
 70
     2
  9
$SPLFRAME
 70
     0
  9
$SPLINETYPE
 70
     6
  9
$SPLINESEGS
 70
     8
  9
$ATTDIA
 70
     0
  9
$ATTREQ
 70
     1
  9
$HANDLING
 70
 22529
  9
$HANDSEED
  5
248B
  9
$SURFTAB1
 70
     6
  9
$SURFTAB2
 70
     6
  9
$SURFTYPE
 70
     6
  9
$SURFU
 70
     6
  9
$SURFV
 70
     6
  9
$UCSNAME
  2

  9
$UCSORG
 10
0.0
 20
0.0
 30
0.0
  9
$UCSXDIR
 10
1.0
 20
0.0
 30
0.0
  9
$UCSYDIR
 10
0.0
 20
1.0
 30
0.0
  9
$PUCSNAME
  2

  9
$PUCSORG
 10
0.0
 20
0.0
 30
0.0
  9
$PUCSXDIR
 10
1.0
 20
0.0
 30
0.0
  9
$PUCSYDIR
 10
0.0
 20
1.0
 30
0.0
  9
$USERI1
 70
     0
  9
$USERI2
 70
     0
  9
$USERI3
 70
     0
  9
$USERI4
 70
     0
  9
$USERI5
 70
     0
  9
$USERR1
 40
0.0
  9
$USERR2
 40
0.0
  9
$USERR3
 40
0.0
  9
$USERR4
 40
0.0
  9
$USERR5
 40
0.0
  9
$WORLDVIEW
 70
     1
  9
$SHADEDGE
 70
     3
  9
$SHADEDIF
 70
    70
  9
$TILEMODE
 70
     1
  9
$MAXACTVP
 70
    48
  9
$PINSBASE
 10
0.0
 20
0.0
 30
0.0
  9
$PLIMCHECK
 70
     0
  9
$PEXTMIN
 10
20.0
 20
10.0
 30
0.0
  9
$PEXTMAX
 10
423.6438818164979
 20
287.0
 30
0.0
  9
$PLIMMIN
 10
12.8835697009816
 20
0.3797461962582833
  9
$PLIMMAX
 10
431.7828610634419
 20
296.6073577403989
  9
$UNITMODE
 70
     0
  9
$VISRETAIN
 70
     1
  9
$PLINEGEN
 70
     0
  9
$PSLTSCALE
 70
     1
  9
$TREEDEPTH
 70
  3020
  9
$PICKSTYLE
 70
     1
  9
$CMLSTYLE
  2
STANDARD
  9
$CMLJUST
 70
     0
  9
$CMLSCALE
 40
1.0
  9
$PROXYGRAPHICS
 70
     1
  9
$MEASUREMENT
 70
     1
  0
ENDSEC
  0
SECTION
  2
CLASSES
  0
CLASS
  1
DICTIONARYVAR
  2
AcDbDictionaryVar
  3
AutoCAD 2000
 90
        0
280
     0
281
     0
  0
CLASS
  1
LWPOLYLINE
  2
AcDbPolyline
  3
AutoCAD 2000
 90
        0
280
     0
281
     1
  0
CLASS
  1
HATCH
  2
AcDbHatch
  3
AutoCAD 2000
 90
        0
280
     0
281
     1
  0
CLASS
  1
ACDBDICTIONARYWDFLT
  2
AcDbDictionaryWithDefault
  3
AutoCAD 2000
 90
        0
280
     0
281
     0
  0
CLASS
  1
ACDBPLACEHOLDER
  2
AcDbPlaceHolder
  3
AutoCAD 2000
 90
        0
280
     0
281
     0
  0
CLASS
  1
LAYOUT
  2
AcDbLayout
  3
AutoCAD 2000
 90
        0
280
     0
281
     0
  0
CLASS
  1
LONG_TRANSACTION
  2
AcDbLongTransaction
  3
AutoCAD 2000
 90
        0
280
     0
281
     0
  0
CLASS
  1
LWPOLYLINE
  2
AcDbPolyline
  3
AutoCAD 2000
 90
        0
280
     0
281
     1
  0
CLASS
  1
HATCH
  2
AcDbHatch
  3
AutoCAD 2000
 90
        0
280
     0
281
     1
  0
CLASS
  1
XRECORD
  2
AcDbXrecord
  3
AutoCAD 2000
 90
        0
280
     0
281
     0
  0
CLASS
  1
LONG_TRANSACTION
  2
AcDbLongTransaction
  3
AutoCAD 2000
 90
        0
280
     0
281
     0
  0
CLASS
  1
LWPOLYLINE
  2
AcDbPolyline
  3
AutoCAD 2000
 90
        0
280
     0
281
     1
  0
CLASS
  1
HATCH
  2
AcDbHatch
  3
AutoCAD 2000
 90
        0
280
     0
281
     1
  0
CLASS
  1
XRECORD
  2
AcDbXrecord
  3
AutoCAD 2000
 90
        0
280
     0
281
     0
  0
CLASS
  1
LONG_TRANSACTION
  2
AcDbLongTransaction
  3
AutoCAD 2000
 90
        0
280
     0
281
     0
  0
CLASS
  1
LWPOLYLINE
  2
AcDbPolyline
  3
AutoCAD 2000
 90
        0
280
     0
281
     1
  0
CLASS
  1
HATCH
  2
AcDbHatch
  3
AutoCAD 2000
 90
        0
280
     0
281
     1
  0
CLASS
  1
XRECORD
  2
AcDbXrecord
  3
AutoCAD 2000
 90
        0
280
     0
281
     0
  0
CLASS
  1
LONG_TRANSACTION
  2
AcDbLongTransaction
  3
AutoCAD 2000
 90
        0
280
     0
281
     0
  0
CLASS
  1
LWPOLYLINE
  2
AcDbPolyline
  3
AutoCAD 2000
 90
        0
280
     0
281
     1
  0
CLASS
  1
HATCH
  2
AcDbHatch
  3
AutoCAD 2000
 90
        0
280
     0
281
     1
  0
CLASS
  1
XRECORD
  2
AcDbXrecord
  3
AutoCAD 2000
 90
        0
280
     0
281
     0
  0
CLASS
  1
LONG_TRANSACTION
  2
AcDbLongTransaction
  3
AutoCAD 2000
 90
        0
280
     0
281
     0
  0
CLASS
  1
LWPOLYLINE
  2
AcDbPolyline
  3
AutoCAD 2000
 90
        0
280
     0
281
     1
  0
CLASS
  1
HATCH
  2
AcDbHatch
  3
AutoCAD 2000
 90
        0
280
     0
281
     1
  0
CLASS
  1
XRECORD
  2
AcDbXrecord
  3
AutoCAD 2000
 90
        0
280
     0
281
     0
  0
CLASS
  1
LONG_TRANSACTION
  2
AcDbLongTransaction
  3
AutoCAD 2000
 90
        0
280
     0
281
     0
  0
CLASS
  1
LWPOLYLINE
  2
AcDbPolyline
  3
AutoCAD 2000
 90
        0
280
     0
281
     1
  0
CLASS
  1
HATCH
  2
AcDbHatch
  3
AutoCAD 2000
 90
        0
280
     0
281
     1
  0
CLASS
  1
XRECORD
  2
AcDbXrecord
  3
AutoCAD 2000
 90
        0
280
     0
281
     0
  0
CLASS
  1
LONG_TRANSACTION
  2
AcDbLongTransaction
  3
AutoCAD 2000
 90
        0
280
     0
281
     0
  0
CLASS
  1
LWPOLYLINE
  2
AcDbPolyline
  3
AutoCAD 2000
 90
        0
280
     0
281
     1
  0
CLASS
  1
HATCH
  2
AcDbHatch
  3
AutoCAD 2000
 90
        0
280
     0
281
     1
  0
CLASS
  1
XRECORD
  2
AcDbXrecord
  3
AutoCAD 2000
 90
        0
280
     0
281
     0
  0
CLASS
  1
LONG_TRANSACTION
  2
AcDbLongTransaction
  3
AutoCAD 2000
 90
        0
280
     0
281
     0
  0
CLASS
  1
LWPOLYLINE
  2
AcDbPolyline
  3
AutoCAD 2000
 90
        0
280
     0
281
     1
  0
CLASS
  1
HATCH
  2
AcDbHatch
  3
AutoCAD 2000
 90
        0
280
     0
281
     1
  0
CLASS
  1
XRECORD
  2
AcDbXrecord
  3
AutoCAD 2000
 90
        0
280
     0
281
     0
  0
CLASS
  1
LONG_TRANSACTION
  2
AcDbLongTransaction
  3
AutoCAD 2000
 90
        0
280
     0
281
     0
  0
CLASS
  1
LWPOLYLINE
  2
AcDbPolyline
  3
AutoCAD 2000
 90
        0
280
     0
281
     1
  0
CLASS
  1
HATCH
  2
AcDbHatch
  3
AutoCAD 2000
 90
        0
280
     0
281
     1
  0
CLASS
  1
XRECORD
  2
AcDbXrecord
  3
AutoCAD 2000
 90
        0
280
     0
281
     0
  0
CLASS
  1
LONG_TRANSACTION
  2
AcDbLongTransaction
  3
AutoCAD 2000
 90
        0
280
     0
281
     0
  0
CLASS
  1
LWPOLYLINE
  2
AcDbPolyline
  3
AutoCAD 2000
 90
        0
280
     0
281
     1
  0
CLASS
  1
HATCH
  2
AcDbHatch
  3
AutoCAD 2000
 90
        0
280
     0
281
     1
  0
CLASS
  1
XRECORD
  2
AcDbXrecord
  3
AutoCAD 2000
 90
        0
280
     0
281
     0
  0
CLASS
  1
LONG_TRANSACTION
  2
AcDbLongTransaction
  3
AutoCAD 2000
 90
        0
280
     0
281
     0
  0
CLASS
  1
LWPOLYLINE
  2
AcDbPolyline
  3
AutoCAD 2000
 90
        0
280
     0
281
     1
  0
CLASS
  1
HATCH
  2
AcDbHatch
  3
AutoCAD 2000
 90
        0
280
     0
281
     1
  0
CLASS
  1
XRECORD
  2
AcDbXrecord
  3
AutoCAD 2000
 90
        0
280
     0
281
     0
  0
CLASS
  1
LONG_TRANSACTION
  2
AcDbLongTransaction
  3
AutoCAD 2000
 90
        0
280
     0
281
     0
  0
CLASS
  1
LWPOLYLINE
  2
AcDbPolyline
  3
AutoCAD 2000
 90
        0
280
     0
281
     1
  0
CLASS
  1
HATCH
  2
AcDbHatch
  3
AutoCAD 2000
 90
        0
280
     0
281
     1
  0
CLASS
  1
XRECORD
  2
AcDbXrecord
  3
AutoCAD 2000
 90
        0
280
     0
281
     0
  0
CLASS
  1
LONG_TRANSACTION
  2
AcDbLongTransaction
  3
AutoCAD 2000
 90
        0
280
     0
281
     0
  0
CLASS
  1
LWPOLYLINE
  2
AcDbPolyline
  3
AutoCAD 2000
 90
        0
280
     0
281
     1
  0
CLASS
  1
HATCH
  2
AcDbHatch
  3
AutoCAD 2000
 90
        0
280
     0
281
     1
  0
CLASS
  1
XRECORD
  2
AcDbXrecord
  3
AutoCAD 2000
 90
        0
280
     0
281
     0
  0
ENDSEC
  0
SECTION
  2
TABLES
  0
TABLE
  2
VPORT
  5
8
330
0
100
AcDbSymbolTable
 70
     2
  0
VPORT
  5
2466
330
8
100
AcDbSymbolTableRecord
100
AcDbViewportTableRecord
  2
*ACTIVE
 70
     0
 10
0.0
 20
0.0
 11
1.0
 21
1.0
 12
-326.2423487108526
 22
826.6501586242993
 13
0.0
 23
0.0
 14
1.0
 24
1.0
 15
10.0
 25
10.0
 16
0.0
 26
0.0
 36
1.0
 17
0.0
 27
0.0
 37
0.0
 40
1678.478111517454
 41
1.674961119751166
 42
50.0
 43
0.0
 44
0.0
 50
0.0
 51
0.0
 71
     0
 72
   100
 73
     1
 74
     1
 75
     0
 76
     0
 77
     0
 78
     0
  0
ENDTAB
  0
TABLE
  2
LTYPE
  5
5
330
0
100
AcDbSymbolTable
 70
     3
  0
LTYPE
  5
14
330
5
100
AcDbSymbolTableRecord
100
AcDbLinetypeTableRecord
  2
BYBLOCK
 70
     0
  3

 72
    65
 73
     0
 40
0.0
  0
LTYPE
  5
15
330
5
100
AcDbSymbolTableRecord
100
AcDbLinetypeTableRecord
  2
BYLAYER
 70
     0
  3

 72
    65
 73
     0
 40
0.0
  0
LTYPE
  5
16
330
5
100
AcDbSymbolTableRecord
100
AcDbLinetypeTableRecord
  2
CONTINUOUS
 70
     0
  3
Solid line
 72
    65
 73
     0
 40
0.0
  0
LTYPE
  5
D3
330
5
100
AcDbSymbolTableRecord
100
AcDbLinetypeTableRecord
  2
CENTER
 70
     0
  3
Center ____ _ ____ _ ____ _ ____ _ ____ _ ____
 72
    65
 73
     4
 40
50.8
 49
31.75
 74
     0
 49
-6.349999999999999
 74
     0
 49
6.349999999999999
 74
     0
 49
-6.349999999999999
 74
     0
  0
LTYPE
  5
1F37
330
5
100
AcDbSymbolTableRecord
100
AcDbLinetypeTableRecord
  2
ACAD_ISO10W100
 70
     0
  3
ISO dash dot __ . __ . __ . __ . __ . __ . __ .
 72
    65
 73
     4
 40
18.5
 49
12.0
 74
     0
 49
-3.0
 74
     0
 49
0.5
 74
     0
 49
-3.0
 74
     0
  0
ENDTAB
  0
TABLE
  2
LAYER
  5
2
330
0
100
AcDbSymbolTable
 70
     9
  0
LAYER
  5
F
330
2
100
AcDbSymbolTableRecord
100
AcDbLayerTableRecord
  2
0
 70
     0
 62
     7
  6
CONTINUOUS
  0
LAYER
  5
7D
330
2
100
AcDbSymbolTableRecord
100
AcDbLayerTableRecord
  2
PEN50
 70
     0
 62
     7
  6
CONTINUOUS
  0
LAYER
  5
7E
330
2
100
AcDbSymbolTableRecord
100
AcDbLayerTableRecord
  2
PEN35
 70
     0
 62
     2
  6
CONTINUOUS
  0
LAYER
  5
7F
330
2
100
AcDbSymbolTableRecord
100
AcDbLayerTableRecord
  2
PEN25
 70
     0
 62
     3
  6
CONTINUOUS
  0
LAYER
  5
80
330
2
100
AcDbSymbolTableRecord
100
AcDbLayerTableRecord
  2
MAATLIJN
 70
     0
 62
     3
  6
CONTINUOUS
  0
LAYER
  5
C3
330
2
100
AcDbSymbolTableRecord
100
AcDbLayerTableRecord
  2
KADER
 70
     0
 62
     5
  6
CONTINUOUS
  0
LAYER
  5
CB
330
2
100
AcDbSymbolTableRecord
100
AcDbLayerTableRecord
  2
VIEWPORT
 70
     0
 62
     7
  6
CONTINUOUS
  0
LAYER
  5
216
330
2
100
AcDbSymbolTableRecord
100
AcDbLayerTableRecord
  2
ONDERHOEK
 70
     0
 62
     7
  6
CONTINUOUS
  0
LAYER
  5
217
330
2
100
AcDbSymbolTableRecord
100
AcDbLayerTableRecord
  2
DEFPOINTS
 70
     0
 62
     7
  6
CONTINUOUS
  0
ENDTAB
  0
TABLE
  2
STYLE
  5
3
330
0
100
AcDbSymbolTable
 70
     5
  0
STYLE
  5
10
330
3
100
AcDbSymbolTableRecord
100
AcDbTextStyleTableRecord
  2
STANDARD
 70
     0
 40
3.5
 41
1.0
 50
0.0
 71
     0
 42
2.5
  3
isocp.shx
  4

  0
STYLE
  5
E7
330
3
100
AcDbSymbolTableRecord
100
AcDbTextStyleTableRecord
  2
ISO35
 70
     0
 40
35.0
 41
0.85
 50
0.0
 71
     0
 42
2.5
  3
romans.shx
  4

  0
STYLE
  5
E8
330
3
100
AcDbSymbolTableRecord
100
AcDbTextStyleTableRecord
  2
ISO50
 70
     0
 40
50.0
 41
0.85
 50
0.0
 71
     0
 42
2.5
  3
romans.shx
  4

  0
STYLE
  5
E9
330
3
100
AcDbSymbolTableRecord
100
AcDbTextStyleTableRecord
  2
ISO70
 70
     0
 40
70.0
 41
0.85
 50
0.0
 71
     0
 42
2.5
  3
romans.shx
  4

  0
STYLE
  5
4C9
330
3
100
AcDbSymbolTableRecord
100
AcDbTextStyleTableRecord
  2
ISO9
 70
     0
 40
0.0
 41
1.0
 50
0.0
 71
     0
 42
2.5
  3
simplex
  4

  0
ENDTAB
  0
TABLE
  2
VIEW
  5
6
330
0
100
AcDbSymbolTable
 70
     0
  0
ENDTAB
  0
TABLE
  2
UCS
  5
7
330
0
100
AcDbSymbolTable
 70
     0
  0
ENDTAB
  0
TABLE
  2
APPID
  5
9
330
0
100
AcDbSymbolTable
 70
     2
  0
APPID
  5
11
330
9
100
AcDbSymbolTableRecord
100
AcDbRegAppTableRecord
  2
ACAD
 70
     0
  0
APPID
  5
14BA
330
9
100
AcDbSymbolTableRecord
100
AcDbRegAppTableRecord
  2
CONTENTBLOCKICON
 70
     0
  0
ENDTAB
  0
TABLE
  2
DIMSTYLE
  5
A
330
0
100
AcDbSymbolTable
 70
     1
  0
DIMSTYLE
105
25
330
A
100
AcDbSymbolTableRecord
100
AcDbDimStyleTableRecord
  2
ISO-35
 70
     0
  3

  4

  5

  6

  7

 40
1.0
 41
3.5
 42
0.875
 43
5.25
 44
1.75
 45
0.0
 46
0.0
 47
0.0
 48
0.0
140
3.5
141
3.5
142
0.0
143
0.0394
144
1.0
145
0.0
146
1.0
147
0.875
 71
     0
 72
     0
 73
     0
 74
     0
 75
     0
 76
     0
 77
     1
 78
     8
170
     0
171
     4
172
     1
173
     0
174
     0
175
     0
176
     0
177
     0
178
     0
270
     8
271
     4
272
     4
273
     8
274
     4
340
10
275
     0
280
     0
281
     0
282
     0
283
     1
284
     0
285
     0
286
     0
287
     3
288
     0
  0
ENDTAB
  0
TABLE
  2
BLOCK_RECORD
  5
1
330
0
100
AcDbSymbolTable
 70
    17
  0
BLOCK_RECORD
  5
1A
102
{ACAD_XDICTIONARY
360
144D
102
}
330
1
100
AcDbSymbolTableRecord
100
AcDbBlockTableRecord
  2
*MODEL_SPACE
  0
BLOCK_RECORD
  5
17
102
{ACAD_XDICTIONARY
360
144B
102
}
330
1
100
AcDbSymbolTableRecord
100
AcDbBlockTableRecord
  2
*PAPER_SPACE
  0
BLOCK_RECORD
  5
20D
330
1
100
AcDbSymbolTableRecord
100
AcDbBlockTableRecord
  2
D
  0
BLOCK_RECORD
  5
211
330
1
100
AcDbSymbolTableRecord
100
AcDbBlockTableRecord
  2
BL
  0
BLOCK_RECORD
  5
856
330
1
100
AcDbSymbolTableRecord
100
AcDbBlockTableRecord
  2
M2
1001
CONTENTBLOCKICON
1071
        0
1004
2800000020000000200000000100080000000000000400000000000000000000000000000000000000000000000080000080000000808000800000008000800080800000C0C0C000C0DCC000F0CAA6000020400000206000002080000020A0000020C0000020E00000400000004020000040400000406000004080000040A0
1004
000040C0000040E00000600000006020000060400000606000006080000060A0000060C0000060E00000800000008020000080400000806000008080000080A0000080C0000080E00000A0000000A0200000A0400000A0600000A0800000A0A00000A0C00000A0E00000C0000000C0200000C0400000C0600000C0800000C0
1004
A00000C0C00000C0E00000E0000000E0200000E0400000E0600000E0800000E0A00000E0C00000E0E00040000000400020004000400040006000400080004000A0004000C0004000E00040200000402020004020400040206000402080004020A0004020C0004020E000404000004040200040404000404060004040800040
1004
40A0004040C0004040E00040600000406020004060400040606000406080004060A0004060C0004060E00040800000408020004080400040806000408080004080A0004080C0004080E00040A0000040A0200040A0400040A0600040A0800040A0A00040A0C00040A0E00040C0000040C0200040C0400040C0600040C08000
1004
40C0A00040C0C00040C0E00040E0000040E0200040E0400040E0600040E0800040E0A00040E0C00040E0E00080000000800020008000400080006000800080008000A0008000C0008000E00080200000802020008020400080206000802080008020A0008020C0008020E00080400000804020008040400080406000804080
1004
008040A0008040C0008040E00080600000806020008060400080606000806080008060A0008060C0008060E00080800000808020008080400080806000808080008080A0008080C0008080E00080A0000080A0200080A0400080A0600080A0800080A0A00080A0C00080A0E00080C0000080C0200080C0400080C0600080C0
1004
800080C0A00080C0C00080C0E00080E0000080E0200080E0400080E0600080E0800080E0A00080E0C00080E0E000C0000000C0002000C0004000C0006000C0008000C000A000C000C000C000E000C0200000C0202000C0204000C0206000C0208000C020A000C020C000C020E000C0400000C0402000C0404000C0406000C0
1004
408000C040A000C040C000C040E000C0600000C0602000C0604000C0606000C0608000C060A000C060C000C060E000C0800000C0802000C0804000C0806000C0808000C080A000C080C000C080E000C0A00000C0A02000C0A04000C0A06000C0A08000C0A0A000C0A0C000C0A0E000C0C00000C0C02000C0C04000C0C06000
1004
C0C08000C0C0A000F0FBFF00A56E3A00808080000000FF0000FF000000FFFF00FF000000FF00FF00FFFF0000FFFFFF000000000000000000000000000000000000000000000000000000000000000000000000000000000000000000000000000000000000000000000000000000000000000000000000000000000000FFFF
1004
FFFFFFFF000000000000000000000000000000000000000000000000FFFF000000000000FFFF000000000000000000000000000000000000000000FF00000000000000000000FF0000000000000000000000000000000000000000FF0000000000000000000000FF000000000000000000000000000000000000FF00000000
1004
0000000000000000FF000000000000000000000000000000000000FF00000000000000000000000000FF00000000000000000000000000000000FF0000000000000000000000000000FF00000000000000000000000000000000FF0000000000000000000000000000FF00000000000000000000000000000000FF00000000
1004
00000000000000000000FF00000000000000000000000000000000FF0000000000000000000000000000FF00000000000000000000000000000000FF000000FF0000FF000000FF000000FF00000000000000000000000000000000FF000000FF0000FFFF0000FF000000FF00000000000000000000000000000000FF000000
1004
FF00FF00FF0000FF000000FF00000000000000000000000000000000FF000000FF00FF0000FF00FF000000FF00000000000000000000000000000000FF000000FF00FF0000FF00FF000000FF00000000000000000000000000000000FF000000FFFF00000000FFFF000000FF00000000000000000000000000000000FF0000
1004
00FFFF00000000FFFF000000FF00000000000000000000000000000000FF000000FF000000000000FF000000FF00000000000000000000000000000000FF000000FF000000000000FF000000FF00000000000000000000000000000000FF0000000000000000000000000000FF00000000000000000000000000000000FF00
1004
00000000000000000000000000FF00000000000000000000000000000000FF0000000000000000000000000000FF0000000000000000000000000000000000FF00000000000000000000000000FF0000000000000000000000000000000000FF000000000000000000000000FF000000000000000000000000000000000000
1004
00FF0000000000000000000000FF00000000000000000000000000000000000000FF00000000000000000000FF000000000000000000000000000000000000000000FFFF000000000000FFFF000000000000000000000000000000000000000000000000FFFFFFFFFFFF000000000000000000000000000000000000000000
1004
0000000000000000000000000000000000000000000000000000000000000000000000000000000000000000000000000000000000000000
  0
BLOCK_RECORD
  5
1E94
330
1
100
AcDbSymbolTableRecord
100
AcDbBlockTableRecord
  2
HEADER
1001
CONTENTBLOCKICON
1071
        0
1004
2800000020000000200000000100080000000000000400000000000000000000000000000000000000000000000080000080000000808000800000008000800080800000C0C0C000C0DCC000F0CAA6000020400000206000002080000020A0000020C0000020E00000400000004020000040400000406000004080000040A0
1004
000040C0000040E00000600000006020000060400000606000006080000060A0000060C0000060E00000800000008020000080400000806000008080000080A0000080C0000080E00000A0000000A0200000A0400000A0600000A0800000A0A00000A0C00000A0E00000C0000000C0200000C0400000C0600000C0800000C0
1004
A00000C0C00000C0E00000E0000000E0200000E0400000E0600000E0800000E0A00000E0C00000E0E00040000000400020004000400040006000400080004000A0004000C0004000E00040200000402020004020400040206000402080004020A0004020C0004020E000404000004040200040404000404060004040800040
1004
40A0004040C0004040E00040600000406020004060400040606000406080004060A0004060C0004060E00040800000408020004080400040806000408080004080A0004080C0004080E00040A0000040A0200040A0400040A0600040A0800040A0A00040A0C00040A0E00040C0000040C0200040C0400040C0600040C08000
1004
40C0A00040C0C00040C0E00040E0000040E0200040E0400040E0600040E0800040E0A00040E0C00040E0E00080000000800020008000400080006000800080008000A0008000C0008000E00080200000802020008020400080206000802080008020A0008020C0008020E00080400000804020008040400080406000804080
1004
008040A0008040C0008040E00080600000806020008060400080606000806080008060A0008060C0008060E00080800000808020008080400080806000808080008080A0008080C0008080E00080A0000080A0200080A0400080A0600080A0800080A0A00080A0C00080A0E00080C0000080C0200080C0400080C0600080C0
1004
800080C0A00080C0C00080C0E00080E0000080E0200080E0400080E0600080E0800080E0A00080E0C00080E0E000C0000000C0002000C0004000C0006000C0008000C000A000C000C000C000E000C0200000C0202000C0204000C0206000C0208000C020A000C020C000C020E000C0400000C0402000C0404000C0406000C0
1004
408000C040A000C040C000C040E000C0600000C0602000C0604000C0606000C0608000C060A000C060C000C060E000C0800000C0802000C0804000C0806000C0808000C080A000C080C000C080E000C0A00000C0A02000C0A04000C0A06000C0A08000C0A0A000C0A0C000C0A0E000C0C00000C0C02000C0C04000C0C06000
1004
C0C08000C0C0A000F0FBFF00A4A0A000808080000000FF0000FF000000FFFF00FF000000FF00FF00FFFF0000FFFFFF0000000000000000000000000000000000000000000000000000000000000000000000000000000000000000000000000000000000000000000000000000000000000000000000000000000000000000
1004
00000000000000000000000000000000000000000000000000000000000000000000000000000000000000000000000000000000000000000000000000000000000000000000000000000000000000000000000000000000000000000000000000000000000000000000000000000000000000000000000000000000000000
1004
00000000000000000000000000000000000000000000000000000000000000000000000000000000000000000000000000000000000000000000000000000000000000000000000000000000000000000000000000000000000000000000000000000000000000000000000000000000000000000000000000000000000000
1004
0000000000000000000000000000000000000000FCFEFEFEFEFEFEFEFEFCFEFEFCFCFCFCFCFCFCFCFCFCFCFCFCFCFCFCFC000000FCFBFBFBFBFBFEFEFEFCFEFEFEFEFEFEFEFEFEFCFEFEFEFFFFFFFFFFFC000000FCFBFBFBFBFBFEFEFEFCFEFEFEFEFEFEFEFEFEFCFEFEFEFEFEFEFEFEFC000000FCFCFCFCFCFCFCFCFCFCFC
1004
FCFCFEFCFCFCFCFCFCFCFCFCFCFEFEFEFEFC000000FCFFFFFF00000000000000000000000000000000000000FEFEFCFCFCFC000000FCFEFEFF00000000000000000000000000000000000000FCFE00FCFCFC000000FCFEFEFCFCFEFEFCFCFEFEFCFEFEFEFEFCFEFEFCFCFCFEFCFEFEFCFCFCFE0000FCFEFEFEFEFEFEFCFEFE
1004
FEFEFEFEFCFEFEFEFEFEFEFCFEFEFEFEFEFEFC000000FCFEF0F0F0F0F0FEFEF0F0F0F0F0FEF0F0F0F0F0FEFEF0F0F0F0F0FEFC000000FCF0F0F0F0F0F0F0F0F0F0F0F0F0F0F0F0F0F0F0FCF0F0F0F0F0F0FCFC0000000000000000000000000000000000000000000000000000000000000000000000000000000000000000
1004
00000000000000000000000000000000000000000000000000000000000000000000000000000000000000000000000000000000000000000000000000000000000000000000000000000000000000000000000000000000000000000000000000000000000000000000000000000000000000000000000000000000000000
1004
00000000000000000000000000000000000000000000000000000000000000000000000000000000000000000000000000000000000000000000000000000000000000000000000000000000000000000000000000000000000000000000000000000000000000000000000000000000000000000000000000000000000000
1004
0000000000000000000000000000000000000000000000000000000000000000000000000000000000000000000000000000000000000000
  0
ENDTAB
  0
ENDSEC
  0
SECTION
  2
BLOCKS
  0
BLOCK
  5
1B
330
1A
100
AcDbEntity
  8
0
100
AcDbBlockBegin
  2
*MODEL_SPACE
 70
     0
 10
0.0
 20
0.0
 30
0.0
  3
*MODEL_SPACE
  1

  0
ENDBLK
  5
1C
330
1A
100
AcDbEntity
  8
0
100
AcDbBlockEnd
  0
BLOCK
  5
18
330
17
100
AcDbEntity
 67
     1
  8
0
100
AcDbBlockBegin
  2
*PAPER_SPACE
 70
     0
 10
0.0
 20
0.0
 30
0.0
  3
*PAPER_SPACE
  1

  0
ENDBLK
  5
19
330
17
100
AcDbEntity
 67
     1
  8
0
100
AcDbBlockEnd
  0
BLOCK
  5
20F
330
20D
100
AcDbEntity
  8
0
100
AcDbBlockBegin
  2
D
 70
     0
 10
0.0
 20
0.0
 30
0.0
  3
D
  1

  0
LWPOLYLINE
  5
20E
330
20D
100
AcDbEntity
  8
PEN50
100
AcDbPolyline
 90
        3
 70
     1
 43
0.0
 10
27.19713315167246
 20
-17.08571557199866
 10
-0.1002653825794368
 20
30.19476560378234
 10
-27.39766391683179
 20
-17.08571557199866
  0
ENDBLK
  5
210
330
20D
100
AcDbEntity
  8
0
100
AcDbBlockEnd
  0
BLOCK
  5
213
330
211
100
AcDbEntity
  8
0
100
AcDbBlockBegin
  2
BL
 70
     0
 10
0.0
 20
0.0
 30
0.0
  3
BL
  1

  0
INSERT
  5
212
330
211
100
AcDbEntity
  8
MAATLIJN
100
AcDbBlockReference
  2
D
 10
1.0
 20
-5.0
 30
0.0
  0
ENDBLK
  5
214
330
211
100
AcDbEntity
  8
0
100
AcDbBlockEnd
  0
BLOCK
  5
859
330
856
100
AcDbEntity
  8
0
100
AcDbBlockBegin
  2
M2
 70
     0
 10
0.0
 20
0.0
 30
0.0
  3
M2
  1

  0
TEXT
  5
857
330
856
100
AcDbEntity
  8
PEN50
100
AcDbText
 10
2574.247388172115
 20
-779.6725691775191
 30
0.0
 40
50.0
  1
M
  7
ISO50
100
AcDbText
  0
LWPOLYLINE
  5
858
330
856
100
AcDbEntity
  8
PEN50
100
AcDbPolyline
 90
        4
 70
     1
 43
0.0
 10
2561.461782492819
 20
-715.0927695359053
 42
-1.0
 10
2644.710391973007
 20
-715.0927695359053
 10
2644.710391973007
 20
-798.3413790160932
 42
-1.0
 10
2561.461782492819
 20
-798.3413790160932
  0
ENDBLK
  5
85A
330
856
100
AcDbEntity
  8
0
100
AcDbBlockEnd
  0
BLOCK
  5
1F35
330
1E94
100
AcDbEntity
  8
0
100
AcDbBlockBegin
  2
HEADER
 70
     2
 10
0.0
 20
0.0
 30
0.0
  3
HEADER
  1

  0
ATTDEF
  5
1E95
330
1E94
100
AcDbEntity
  8
0
 62
     7
 48
0.5
100
AcDbText
 10
243.6154074368352
 20
37.71268632739463
 30
0.0
 40
5.0
  1

 41
0.8
  7
ISO50
100
AcDbAttributeDefinition
  3
Name English:
  2
NAME1
 70
     0
  0
ATTDEF
  5
1E96
330
1E94
100
AcDbEntity
  8
0
 62
     7
 48
0.5
100
AcDbText
 10
243.6154074368352
 20
30.10728127791935
 30
0.0
 40
5.0
  1

 41
0.8
  7
ISO50
100
AcDbAttributeDefinition
  3
Name Czech:
  2
NAME2
 70
     0
  0
ATTDEF
  5
1E97
330
1E94
100
AcDbEntity
  8
0
 62
     7
 48
0.5
100
AcDbText
 10
419.7483186259855
 20
11.25
 30
0.0
 40
5.0
  1

  7
ISO50
 72
     2
 11
419.7483186259855
 21
11.25
 31
0.0
100
AcDbAttributeDefinition
  3
Drawing number:
  2
DRAWNR
 70
     0
  0
ATTDEF
  5
1E98
330
1E94
100
AcDbEntity
  8
0
 62
     4
 48
0.5
100
AcDbText
 10
313.09315647631
 20
23.25
 30
0.0
 40
2.5
  1

  7
ISO9
100
AcDbAttributeDefinition
  3
Drawn by:
  2
DRA
 70
     0
  0
ATTDEF
  5
1E99
330
1E94
100
AcDbEntity
  8
0
 62
     4
 48
0.5
100
AcDbText
 10
337.0656584299752
 20
23.25
 30
0.0
 40
2.5
  1

  7
ISO9
100
AcDbAttributeDefinition
  3
Date of drawn
  2
DATDR
 70
     0
  0
ATTDEF
  5
1E9A
330
1E94
100
AcDbEntity
  8
0
 62
     4
 48
0.5
100
AcDbText
 10
343.9187133353395
 20
17.25
 30
0.0
 40
2.5
  1

 41
0.9
  7
ISO9
100
AcDbAttributeDefinition
  3
Introduced by tech. change:
  2
INT.TECH.CH.
 70
     0
  0
ATTDEF
  5
1E9B
330
1E94
100
AcDbEntity
  8
0
 62
     4
 48
0.5
100
AcDbText
 10
316.7225933122413
 20
11.25
 30
0.0
 40
2.5
  1

 41
0.9
  7
ISO9
100
AcDbAttributeDefinition
  3
Article nrumber:
  2
ART.NR.
 70
     0
  0
ATTDEF
  5
1E9C
330
1E94
100
AcDbEntity
  8
0
 62
     4
100
AcDbText
 10
417.7554377077115
 20
49.26773680680295
 30
0.0
 40
2.5
  1
c
  7
ISO9
100
AcDbAttributeDefinition
  3
Tolerance class
  2
CLASS
 70
     0
  0
ATTDEF
  5
1E9D
330
1E94
100
AcDbEntity
  8
0
 62
     4
100
AcDbText
 10
370.5694732300185
 20
49.26773680680295
 30
0.0
 40
2.5
  1
NEN-ISO 2768-1 class
  7
ISO9
100
AcDbAttributeDefinition
  3
standard
  2
STANDARD
 70
     0
  0
ATTDEF
  5
1E9E
330
1E94
100
AcDbEntity
  8
0
 62
   140
 48
0.5
100
AcDbText
 10
262.8848538412587
 20
60.58691454345705
 30
0.0
 40
2.5
  1

 41
0.8
  7
ISO9
 72
     2
 11
262.8848538412587
 21
60.58691454345705
 31
0.0
100
AcDbAttributeDefinition
  3
Number of change A:
  2
NRA
 70
     0
  0
ATTDEF
  5
1E9F
330
1E94
100
AcDbEntity
  8
0
 62
   140
 48
0.5
100
AcDbText
 10
265.6220999185899
 20
60.58691454345705
 30
0.0
 40
2.5
  1

 41
0.7
  7
ISO9
100
AcDbAttributeDefinition
  3
Change A developed by:
  2
DEVB
 70
     0
  0
ATTDEF
  5
1EA0
330
1E94
100
AcDbEntity
  8
0
 62
   140
 48
0.5
100
AcDbText
 10
278.4508934246539
 20
60.58691454345705
 30
0.0
 40
2.5
  1

 41
0.8
  7
ISO9
 72
     1
 11
278.4508934246539
 21
60.58691454345705
 31
0.0
100
AcDbAttributeDefinition
  3
Date of change A:
  2
DATA
 70
     0
  0
ATTDEF
  5
1EA1
330
1E94
100
AcDbEntity
  8
0
 62
   140
 48
0.5
100
AcDbText
 10
262.8848538412587
 20
54.58691454345705
 30
0.0
 40
2.5
  1

 41
0.8
  7
ISO9
 72
     2
 11
262.8848538412587
 21
54.58691454345705
 31
0.0
100
AcDbAttributeDefinition
  3
Number of change B:
  2
NRB
 70
     0
  0
ATTDEF
  5
1EA2
330
1E94
100
AcDbEntity
  8
0
 62
   140
 48
0.5
100
AcDbText
 10
265.6220999185899
 20
54.58691454345705
 30
0.0
 40
2.5
  1

 41
0.7
  7
ISO9
100
AcDbAttributeDefinition
  3
Change B developed by:
  2
DEVA
 70
     0
  0
ATTDEF
  5
1EA3
330
1E94
100
AcDbEntity
  8
0
 62
   140
 48
0.5
100
AcDbText
 10
278.4508934246539
 20
54.58691454345705
 30
0.0
 40
2.5
  1

 41
0.8
  7
ISO9
 72
     1
 11
278.4508934246539
 21
54.58691454345705
 31
0.0
100
AcDbAttributeDefinition
  3
Date of change B:
  2
DATB
 70
     0
  0
ATTDEF
  5
1EA4
330
1E94
100
AcDbEntity
  8
0
 62
   140
 48
0.5
100
AcDbText
 10
307.8848538412588
 20
60.58691454345705
 30
0.0
 40
2.5
  1

 41
0.8
  7
ISO9
 72
     2
 11
307.8848538412588
 21
60.58691454345705
 31
0.0
100
AcDbAttributeDefinition
  3
Number of change C:
  2
NRC
 70
     0
  0
ATTDEF
  5
1EA5
330
1E94
100
AcDbEntity
  8
0
 62
   140
 48
0.5
100
AcDbText
 10
310.6220999185899
 20
60.58691454345705
 30
0.0
 40
2.5
  1

 41
0.7
  7
ISO9
100
AcDbAttributeDefinition
  3
Change C developed by:
  2
DEVC
 70
     0
  0
ATTDEF
  5
1EA6
330
1E94
100
AcDbEntity
  8
0
 62
   140
 48
0.5
100
AcDbText
 10
323.4508934246539
 20
60.58691454345705
 30
0.0
 40
2.5
  1

 41
0.8
  7
ISO9
 72
     1
 11
323.4508934246539
 21
60.58691454345705
 31
0.0
100
AcDbAttributeDefinition
  3
Date of change C:
  2
DATC
 70
     0
  0
ATTDEF
  5
1EA7
330
1E94
100
AcDbEntity
  8
0
 62
   140
 48
0.5
100
AcDbText
 10
307.8848538412588
 20
54.58691454345705
 30
0.0
 40
2.5
  1

 41
0.8
  7
ISO9
 72
     2
 11
307.8848538412588
 21
54.58691454345705
 31
0.0
100
AcDbAttributeDefinition
  3
Number of change D:
  2
NRD
 70
     0
  0
ATTDEF
  5
1EA8
330
1E94
100
AcDbEntity
  8
0
 62
   140
 48
0.5
100
AcDbText
 10
310.6220999185899
 20
54.58691454345705
 30
0.0
 40
2.5
  1

 41
0.7
  7
ISO9
100
AcDbAttributeDefinition
  3
Change D developed by:
  2
DEVD
 70
     0
  0
ATTDEF
  5
1EA9
330
1E94
100
AcDbEntity
  8
0
 62
   140
 48
0.5
100
AcDbText
 10
323.4508934246539
 20
54.58691454345705
 30
0.0
 40
2.5
  1

 41
0.8
  7
ISO9
 72
     1
 11
323.4508934246539
 21
54.58691454345705
 31
0.0
100
AcDbAttributeDefinition
  3
Date of change D:
  2
DATD
 70
     0
  0
ATTDEF
  5
1EAA
330
1E94
100
AcDbEntity
  8
0
 62
   140
 48
0.5
100
AcDbText
 10
352.8848538412588
 20
60.58691454345705
 30
0.0
 40
2.5
  1

 41
0.8
  7
ISO9
 72
     2
 11
352.8848538412588
 21
60.58691454345705
 31
0.0
100
AcDbAttributeDefinition
  3
Number of change E:
  2
NRE
 70
     0
  0
ATTDEF
  5
1EAB
330
1E94
100
AcDbEntity
  8
0
 62
   140
 48
0.5
100
AcDbText
 10
355.6220999185899
 20
60.58691454345705
 30
0.0
 40
2.5
  1

 41
0.7
  7
ISO9
100
AcDbAttributeDefinition
  3
Change E developed by:
  2
DEVE
 70
     0
  0
ATTDEF
  5
1EAC
330
1E94
100
AcDbEntity
  8
0
 62
   140
 48
0.5
100
AcDbText
 10
368.4508934246539
 20
60.58691454345705
 30
0.0
 40
2.5
  1

 41
0.8
  7
ISO9
 72
     1
 11
368.4508934246539
 21
60.58691454345705
 31
0.0
100
AcDbAttributeDefinition
  3
Date of change E:
  2
DATE
 70
     0
  0
ATTDEF
  5
1EAD
330
1E94
100
AcDbEntity
  8
0
 62
   140
 48
0.5
100
AcDbText
 10
352.8848538412588
 20
54.58691454345705
 30
0.0
 40
2.5
  1

 41
0.8
  7
ISO9
 72
     2
 11
352.8848538412588
 21
54.58691454345705
 31
0.0
100
AcDbAttributeDefinition
  3
Number of change F:
  2
NRF
 70
     0
  0
ATTDEF
  5
1EAE
330
1E94
100
AcDbEntity
  8
0
 62
   140
 48
0.5
100
AcDbText
 10
355.6220999185899
 20
54.58691454345705
 30
0.0
 40
2.5
  1

 41
0.7
  7
ISO9
100
AcDbAttributeDefinition
  3
Change F developed by:
  2
DEVF
 70
     0
  0
ATTDEF
  5
1EAF
330
1E94
100
AcDbEntity
  8
0
 62
   140
 48
0.5
100
AcDbText
 10
368.4508934246539
 20
54.58691454345705
 30
0.0
 40
2.5
  1

 41
0.8
  7
ISO9
 72
     1
 11
368.4508934246539
 21
54.58691454345705
 31
0.0
100
AcDbAttributeDefinition
  3
Date of change F:
  2
DATF
 70
     0
  0
ATTDEF
  5
1EB0
330
1E94
100
AcDbEntity
  8
0
 62
   140
 48
0.5
100
AcDbText
 10
397.8848538412588
 20
60.58691454345705
 30
0.0
 40
2.5
  1

 41
0.8
  7
ISO9
 72
     2
 11
397.8848538412588
 21
60.58691454345705
 31
0.0
100
AcDbAttributeDefinition
  3
Number of change G:
  2
NRG
 70
     0
  0
ATTDEF
  5
1EB1
330
1E94
100
AcDbEntity
  8
0
 62
   140
 48
0.5
100
AcDbText
 10
400.6220999185899
 20
60.58691454345705
 30
0.0
 40
2.5
  1

 41
0.7
  7
ISO9
100
AcDbAttributeDefinition
  3
Change G developed by:
  2
DEVG
 70
     0
  0
ATTDEF
  5
1EB2
330
1E94
100
AcDbEntity
  8
0
 62
   140
 48
0.5
100
AcDbText
 10
413.4508934246539
 20
60.58691454345705
 30
0.0
 40
2.5
  1

 41
0.8
  7
ISO9
 72
     1
 11
413.4508934246539
 21
60.58691454345705
 31
0.0
100
AcDbAttributeDefinition
  3
Date of change G:
  2
DATG
 70
     0
  0
ATTDEF
  5
1EB3
330
1E94
100
AcDbEntity
  8
0
 62
   140
 48
0.5
100
AcDbText
 10
397.8848538412588
 20
54.58691454345705
 30
0.0
 40
2.5
  1

 41
0.8
  7
ISO9
 72
     2
 11
397.8848538412588
 21
54.58691454345705
 31
0.0
100
AcDbAttributeDefinition
  3
Number of change H:
  2
NRH
 70
     0
  0
ATTDEF
  5
1EB4
330
1E94
100
AcDbEntity
  8
0
 62
   140
 48
0.5
100
AcDbText
 10
400.6220999185899
 20
54.58691454345705
 30
0.0
 40
2.5
  1

 41
0.7
  7
ISO9
100
AcDbAttributeDefinition
  3
Change H developed by:
  2
DEVH
 70
     0
  0
ATTDEF
  5
1EB5
330
1E94
100
AcDbEntity
  8
0
 62
   140
 48
0.5
100
AcDbText
 10
413.4508934246539
 20
54.58691454345705
 30
0.0
 40
2.5
  1

 41
0.8
  7
ISO9
 72
     1
 11
413.4508934246539
 21
54.58691454345705
 31
0.0
100
AcDbAttributeDefinition
  3
Date of change H:
  2
DATH
 70
     0
  0
ATTDEF
  5
1EB6
330
1E94
100
AcDbEntity
  8
0
 62
     4
 48
0.5
100
AcDbText
 10
259.9577075612861
 20
49.25
 30
0.0
 40
2.5
  1

  7
ISO9
 72
     1
 11
259.9577075612861
 21
49.25
 31
0.0
100
AcDbAttributeDefinition
  3
Scale:
  2
X:X
 70
     0
  0
ATTDEF
  5
1EB7
330
1E94
100
AcDbEntity
  8
0
 62
     4
 48
0.5
100
AcDbText
 10
283.8848100564074
 20
49.25
 30
0.0
 40
2.5
  1
A3
  7
ISO9
 72
     1
 11
286.0276671992646
 21
49.25
 31
0.0
100
AcDbAttributeDefinition
  3
Format:
  2
AX
 70
     0
  0
ATTDEF
  5
1EB8
330
1E94
100
AcDbEntity
  8
0
 62
     4
 48
0.5
100
AcDbText
 10
305.2428207789048
 20
49.25
 30
0.0
 40
2.5
  1
mm
  7
ISO9
100
AcDbAttributeDefinition
  3
Units:
  2
MM
 70
     0
  0
ATTDEF
  5
1EB9
330
1E94
100
AcDbEntity
  8
0
 62
     4
 48
0.5
100
AcDbText
 10
330.4880181699735
 20
49.26255915315789
 30
0.0
 40
2.5
  1
1
  7
ISO9
 72
     1
 11
330.7856372175925
 21
49.26255915315789
 31
0.0
100
AcDbAttributeDefinition
  3
Sheet:
  2
X
 70
     0
  0
ATTDEF
  5
1EBA
330
1E94
100
AcDbEntity
  8
0
 62
     4
 48
0.5
100
AcDbText
 10
341.4985379998499
 20
49.26255915315789
 30
0.0
 40
2.5
  1
1
  7
ISO9
 72
     1
 11
341.796157047469
 21
49.26255915315789
 31
0.0
100
AcDbAttributeDefinition
  3
sheet of
  2
X
 70
     0
  0
ATTDEF
  5
1EBB
330
1E94
100
AcDbEntity
  8
0
 62
     4
 48
0.5
100
AcDbText
 10
381.6136993842344
 20
23.25
 30
0.0
 40
2.5
  1

  7
ISO9
100
AcDbAttributeDefinition
  3
Project:
  2
PROJECT
 70
     0
  0
LINE
  5
1EBC
330
1E94
100
AcDbEntity
  8
0
 62
     5
100
AcDbLine
 10
242.0
 20
71.0
 30
0.0
 11
422.0
 21
71.0
 31
0.0
  0
LINE
  5
1EBD
330
1E94
100
AcDbEntity
  8
0
 62
     4
100
AcDbLine
 10
242.0
 20
65.0
 30
0.0
 11
422.0
 21
65.0
 31
0.0
  0
TEXT
  5
1EBE
330
1E94
100
AcDbEntity
  8
0
 62
     4
100
AcDbText
 10
348.4996503293694
 20
49.25
 30
0.0
 40
2.5
  1
Tolerance: 
  7
ISO9
100
AcDbText
  0
LINE
  5
1EBF
330
1E94
100
AcDbEntity
  8
0
 62
     4
100
AcDbLine
 10
297.3138445259373
 20
22.0
 30
0.0
 11
422.0
 21
22.0
 31
0.0
  0
LINE
  5
1EC0
330
1E94
100
AcDbEntity
  8
0
 62
     5
100
AcDbLine
 10
242.0
 20
28.0
 30
0.0
 11
422.0
 21
28.0
 31
0.0
  0
LINE
  5
1EC1
330
1E94
100
AcDbEntity
  8
0
 62
     5
100
AcDbLine
 10
242.0
 20
48.0
 30
0.0
 11
422.0
 21
48.0
 31
0.0
  0
LINE
  5
1EC2
330
1E94
100
AcDbEntity
  8
0
 62
     5
100
AcDbLine
 10
242.0
 20
53.0
 30
0.0
 11
422.0
 21
53.0
 31
0.0
  0
LINE
  5
1EC3
330
1E94
100
AcDbEntity
  8
0
 62
     4
100
AcDbLine
 10
242.0
 20
59.0
 30
0.0
 11
422.0
 21
59.0
 31
0.0
  0
LINE
  5
1EC4
330
1E94
100
AcDbEntity
  8
0
 62
     5
100
AcDbLine
 10
242.0
 20
10.0
 30
0.0
 11
422.0
 21
10.0
 31
0.0
  0
LINE
  5
1EC5
330
1E94
100
AcDbEntity
  8
0
 62
     4
100
AcDbLine
 10
297.3138445259373
 20
16.0
 30
0.0
 11
362.6248152864627
 21
16.0
 31
0.0
  0
TEXT
  5
1EC6
330
1E94
100
AcDbEntity
  8
0
 62
     4
100
AcDbText
 10
334.1456754991394
 20
54.6034388914145
 30
0.0
 40
2.5
  1
F
  7
ISO9
100
AcDbText
  0
TEXT
  5
1EC7
330
1E94
100
AcDbEntity
  8
0
 62
     4
100
AcDbText
 10
289.171456861054
 20
54.6034388914145
 30
0.0
 40
2.5
  1
D
  7
ISO9
100
AcDbText
  0
TEXT
  5
1EC8
330
1E94
100
AcDbEntity
  8
0
 62
     4
100
AcDbText
 10
243.9363933035618
 20
54.6034388914145
 30
0.0
 40
2.5
  1
B
  7
ISO9
100
AcDbText
  0
LINE
  5
1EC9
330
1E94
100
AcDbEntity
  8
0
 62
     5
100
AcDbLine
 10
287.0
 20
53.0
 30
0.0
 11
287.0
 21
71.0
 31
0.0
  0
LINE
  5
1ECA
330
1E94
100
AcDbEntity
  8
0
 62
     4
100
AcDbLine
 10
263.8901325885494
 20
53.0
 30
0.0
 11
263.8901325885494
 21
71.0
 31
0.0
  0
LINE
  5
1ECB
330
1E94
100
AcDbEntity
  8
0
 62
     4
100
AcDbLine
 10
270.1161342717459
 20
53.0
 30
0.0
 11
270.1161342717459
 21
71.0
 31
0.0
  0
LINE
  5
1ECC
330
1E94
100
AcDbEntity
  8
0
 62
     4
100
AcDbLine
 10
292.7498626144426
 20
53.0
 30
0.0
 11
292.7498626144426
 21
71.0
 31
0.0
  0
LINE
  5
1ECD
330
1E94
100
AcDbEntity
  8
0
 62
     4
100
AcDbLine
 10
315.1161342717459
 20
53.0
 30
0.0
 11
315.1161342717459
 21
71.0
 31
0.0
  0
LINE
  5
1ECE
330
1E94
100
AcDbEntity
  8
0
 62
     4
100
AcDbLine
 10
308.8901325885494
 20
53.0
 30
0.0
 11
308.8901325885494
 21
71.0
 31
0.0
  0
LINE
  5
1ECF
330
1E94
100
AcDbEntity
  8
0
 62
     5
100
AcDbLine
 10
332.0
 20
53.0
 30
0.0
 11
332.0
 21
71.0
 31
0.0
  0
LINE
  5
1ED0
330
1E94
100
AcDbEntity
  8
0
 62
     4
100
AcDbLine
 10
337.7498626144427
 20
53.0
 30
0.0
 11
337.7498626144427
 21
71.0
 31
0.0
  0
LINE
  5
1ED1
330
1E94
100
AcDbEntity
  8
0
 62
     4
100
AcDbLine
 10
247.7498626144427
 20
53.0
 30
0.0
 11
247.7498626144427
 21
71.0
 31
0.0
  0
LINE
  5
1ED2
330
1E94
100
AcDbEntity
  8
0
 62
     5
100
AcDbLine
 10
242.0
 20
10.0
 30
0.0
 11
242.0
 21
71.0
 31
0.0
  0
TEXT
  5
1ED3
330
1E94
100
AcDbEntity
  8
0
 62
     4
 48
0.5
100
AcDbText
 10
278.6643588715437
 20
22.62341190252254
 30
0.0
 40
2.5
  1
TILBURG
  7
ISO9
100
AcDbText
  0
TEXT
  5
1ED4
330
1E94
100
AcDbEntity
  8
0
 62
     4
 48
0.5
100
AcDbText
 10
244.5456562054948
 20
12.26563261904891
 30
0.0
 40
2.0
  1
TEL:(0)13 5728728  FAX:(0)13 5720262
 41
0.8
  7
ISO9
100
AcDbText
  0
TEXT
  5
1ED5
330
1E94
100
AcDbEntity
  8
0
 62
     4
 48
0.5
100
AcDbText
 10
278.6643588715437
 20
17.39967509420245
 30
0.0
 40
2.5
  1
HOLLAND
  7
ISO9
100
AcDbText
  0
SPLINE
  5
1ED6
330
1E94
100
AcDbEntity
  8
PEN35
100
AcDbSpline
210
0.0
220
0.0
230
1.0
 70
     8
 71
     3
 72
    26
 73
    22
 74
    20
 42
0.0000000001
 43
0.0000000001
 44
0.0000000001
 40
0.0
 40
0.0
 40
0.0
 40
0.0
 40
0.2412057664780446
 40
0.4737939967877271
 40
0.6730687846776428
 40
0.862034509416118
 40
1.008509182053734
 40
1.217159815214572
 40
1.497330989731712
 40
1.740372567378073
 40
1.920138760802542
 40
2.111153035972267
 40
2.281975293378462
 40
2.451604000970492
 40
2.591615980575805
 40
2.861214440725423
 40
2.985425102525789
 40
3.14864044582005
 40
3.309084885379319
 40
3.510505298293357
 40
3.591365561904432
 40
3.591365561904432
 40
3.591365561904432
 40
3.591365561904432
 10
254.2267380422257
 20
22.842932495161
 30
0.0
 10
254.3022338319649
 20
22.8715410837874
 30
0.0
 10
254.4505281803274
 20
22.92773616463342
 30
0.0
 10
254.6378914388403
 20
23.05106909241745
 30
0.0
 10
254.8138593491849
 20
23.1658671792692
 30
0.0
 10
254.9110016885396
 20
23.31856800996276
 30
0.0
 10
255.0154159724947
 20
23.46625647766685
 30
0.0
 10
255.0972374493085
 20
23.66612047071677
 30
0.0
 10
255.1090675728993
 20
23.91081491062335
 30
0.0
 10
255.1045341262033
 20
24.15002192981613
 30
0.0
 10
255.0070951177355
 20
24.33462005754126
 30
0.0
 10
254.8955627007885
 20
24.47708401172287
 30
0.0
 10
254.7647692210163
 20
24.59697651413912
 30
0.0
 10
254.653038710831
 20
24.71224721457711
 30
0.0
 10
254.4932794584239
 20
24.82252737663193
 30
0.0
 10
254.3299205323865
 20
24.89509318405739
 30
0.0
 10
254.1555006026315
 20
24.95934961861039
 30
0.0
 10
254.0091322783272
 20
24.99036904388256
 30
0.0
 10
253.839261281681
 20
25.03208063172426
 30
0.0
 10
253.6947642268944
 20
25.06289667593833
 30
0.0
 10
253.6016157759103
 20
25.07626296970002
 30
0.0
 10
253.5749330840794
 20
25.080091790186
 30
0.0
 11
254.2267380422257
 21
22.842932495161
 31
0.0
 11
254.4489739934385
 21
22.9366949811072
 31
0.0
 11
254.6477998871938
 21
23.05738279677642
 31
0.0
 11
254.8063720890047
 21
23.178069572777
 31
0.0
 11
254.9198105876229
 21
23.32919783670265
 31
0.0
 11
254.9996710585129
 21
23.45198682201297
 31
0.0
 11
255.0779953243928
 21
23.64537864214192
 31
0.0
 11
255.1062751517316
 21
23.9241189126376
 31
0.0
 11
255.0828497322242
 21
24.16602893348365
 31
0.0
 11
255.0047678453572
 21
24.32795207340382
 31
0.0
 11
254.8873539895518
 21
24.47861872460286
 31
0.0
 11
254.7656370528239
 21
24.59847376596083
 31
0.0
 11
254.642131290707
 21
24.71475026901832
 31
0.0
 11
254.52757477622
 21
24.79524970641746
 31
0.0
 11
254.2841170062421
 21
24.91105835873856
 31
0.0
 11
254.1669796673385
 21
24.95237581678574
 31
0.0
 11
254.0084979309338
 21
24.99139872688746
 31
0.0
 11
253.8523136744661
 21
25.02812604937487
 31
0.0
 11
253.6548976755312
 21
25.06808985929108
 31
0.0
 11
253.5749330840794
 21
25.080091790186
 31
0.0
  0
HATCH
  5
1ED7
330
1E94
100
AcDbEntity
  8
PEN35
100
AcDbHatch
 10
0.0
 20
0.0
 30
0.0
210
0.0
220
0.0
230
1.0
  2
SOLID
 70
     1
 71
     0
 91
        3
 92
        5
 93
       11
 72
     4
 94
        3
 73
     0
 74
     0
 95
       26
 96
       22
 40
0.0
 40
0.0
 40
0.0
 40
0.0
 40
0.1938858320758119
 40
0.3808447229145805
 40
0.5410256283131356
 40
0.6929199105673298
 40
0.8106590682875525
 40
0.9783764583576555
 40
1.203583434493034
 40
1.398944926878016
 40
1.543444449008662
 40
1.696985395481067
 40
1.834295609900397
 40
1.970646426034204
 40
2.083190746855137
 40
2.299899171930242
 40
2.399742089732415
 40
2.530937720351988
 40
2.659906045281029
 40
2.821811645321787
 40
2.88680867968381
 40
2.88680867968381
 40
2.88680867968381
 40
2.88680867968381
 10
254.2267380422257
 20
22.842932495161
 10
254.3022338319648
 20
22.87154108378743
 10
254.4505281803273
 20
22.9277361646335
 10
254.6378914388404
 20
23.05106909241732
 10
254.8138593491848
 20
23.16586717926937
 10
254.9110016885397
 20
23.31856800996266
 10
255.0154159724948
 20
23.46625647766684
 10
255.0972374493084
 20
23.66612047071677
 10
255.1090675728995
 20
23.91081491062345
 10
255.1045341262031
 20
24.15002192981605
 10
255.0070951177355
 20
24.33462005754132
 10
254.8955627007884
 20
24.47708401172274
 10
254.7647692210163
 20
24.59697651413907
 10
254.6530387108309
 20
24.71224721457698
 10
254.4932794584239
 20
24.82252737663211
 10
254.3299205323866
 20
24.89509318405733
 10
254.1555006026314
 20
24.95934961861041
 10
254.0091322783271
 20
24.9903690438825
 10
253.8392612816811
 20
25.03208063172447
 10
253.6947642268945
 20
25.06289667593845
 10
253.6016157759103
 20
25.07626296970002
 10
253.5749330840794
 20
25.080091790186
 72
     1
 10
253.5749330840794
 20
25.080091790186
 11
251.1967716598449
 21
25.080091790186
 72
     1
 10
251.196771659845
 20
25.080091790186
 11
251.196771659845
 21
24.06804331488852
 72
     1
 10
251.196771659845
 20
24.06804331488859
 11
252.4220470688908
 21
24.06804331488859
 72
     4
 94
        3
 73
     0
 74
     0
 95
       17
 96
       13
 40
0.0
 40
0.0
 40
0.0
 40
0.0
 40
0.2266844843515757
 40
0.3608373816137016
 40
0.4776769526420208
 40
0.5591233380659153
 40
0.6937514571801274
 40
0.8251323099119172
 40
0.9650419317026424
 40
1.10589420842586
 40
1.209051676877905
 40
1.38624037934858
 40
1.38624037934858
 40
1.38624037934858
 40
1.38624037934858
 10
252.4220470688909
 20
24.06804331488859
 10
252.5154275745584
 20
24.05772580992513
 10
252.6640710834215
 20
24.04130235912559
 10
252.8594513082921
 20
24.00325242803485
 10
252.9837444356112
 20
23.93605180978875
 10
253.0739436740845
 20
23.82768646983024
 10
253.1080214524257
 20
23.68210757417781
 10
253.0754305867735
 20
23.50748156266374
 10
252.9367930191755
 20
23.39160818256167
 10
252.7902187540996
 20
23.33075237837842
 10
252.6225453606626
 20
23.27932583911208
 10
252.5065493477308
 20
23.26748084863685
 10
252.4332357620468
 20
23.25999439542021
 72
     1
 10
252.4332357620468
 20
23.25999439542021
 11
251.1967716598451
 21
23.25999439542021
 72
     1
 10
251.196771659845
 20
23.25999439542021
 11
251.196771659845
 21
22.32530971791895
 72
     1
 10
251.196771659845
 20
22.32530971791882
 11
252.519324690805
 21
22.32530971791882
 72
     4
 94
        3
 73
     0
 74
     0
 95
       19
 96
       15
 40
0.0
 40
0.0
 40
0.0
 40
0.0
 40
0.158618849274651
 40
0.3459841496530026
 40
0.4372620030801704
 40
0.5079392178300328
 40
0.607119678207745
 40
0.738191411212824
 40
0.871263002924628
 40
0.9648971512225308
 40
1.155490082906284
 40
1.288713066136926
 40
1.357406042198837
 40
1.430135876000647
 40
1.430135876000647
 40
1.430135876000647
 40
1.430135876000647
 10
252.519324690805
 20
22.32530971791882
 10
252.5817295040251
 20
22.30439383453635
 10
252.7178487378675
 20
22.25877148788892
 10
252.8793351683083
 20
22.17308465710627
 10
252.9862590149633
 20
22.06984932557127
 10
253.0245488914549
 20
21.96707563862299
 10
253.0684332054921
 20
21.85067128893444
 10
253.1051338273088
 20
21.7041311334238
 10
253.1327825196398
 20
21.55805407254683
 10
253.1395936646177
 20
21.38470763267744
 10
253.164836472058
 20
21.21430326903922
 10
253.1938775375603
 20
21.05119638014947
 10
253.2538549490677
 20
20.9534011812961
 10
253.2842766335347
 20
20.90336579744002
 10
253.2999216631971
 20
20.87763398546738
 72
     1
 10
253.2999216631971
 20
20.87763398546738
 11
255.3053656141275
 21
20.87763398546738
 72
     4
 94
        3
 73
     0
 74
     0
 95
       20
 96
       16
 40
0.0
 40
0.0
 40
0.0
 40
0.0
 40
0.0469049217502482
 40
0.1219333004632281
 40
0.2213124562900435
 40
0.3192935830992569
 40
0.5256185683591833
 40
0.8327943559560377
 40
0.9682235330084186
 40
1.132433074443565
 40
1.362097369212377
 40
1.538463283123843
 40
1.651212171273838
 40
1.768560402874024
 40
1.921254275977956
 40
1.921254275977956
 40
1.921254275977956
 40
1.921254275977956
 10
255.3053656141275
 20
20.87763398546738
 10
255.2974785036803
 20
20.89542479215329
 10
255.2769752948047
 20
20.94167349476617
 10
255.2276227993989
 20
21.01969909004526
 10
255.1946532070449
 20
21.12863745467542
 10
255.1520571837306
 20
21.29052837771381
 10
255.1299980186339
 20
21.5439562622268
 10
255.1001515182537
 20
21.81221112272071
 10
255.0337742194777
 20
22.05497919419232
 10
254.960996931139
 20
22.26384200698748
 10
254.8166782187895
 20
22.45445591283985
 10
254.6699829268756
 20
22.61366469402541
 10
254.5293357633932
 20
22.70692886487504
 10
254.3984043857234
 20
22.79926007175433
 10
254.2887445906302
 20
22.8271578466147
 10
254.2267380422257
 20
22.842932495161
 97
        0
 92
        7
 72
     0
 73
     1
 93
        6
 10
251.196771659845
 20
24.06804331488859
 10
251.196771659845
 20
25.080091790186
 10
249.2081662227182
 20
25.080091790186
 10
249.2081662227182
 20
20.87763398546738
 10
251.196771659845
 20
20.87763398546738
 10
251.196771659845
 20
23.25999439542021
 97
        0
 92
        7
 72
     0
 73
     1
 93
        4
 10
257.8691893620762
 20
25.080091790186
 10
255.8753266900266
 20
25.080091790186
 10
255.8753266900266
 20
20.87763398546738
 10
257.8691893620762
 20
20.87763398546738
 97
        0
 75
     0
 76
     1
 47
0.0115667720308571
 98
        3
 10
251.9842216818302
 20
24.5008625898308
 10
250.1556318138132
 20
23.75259460618755
 10
256.9372484697785
 20
23.59430711771179
  0
HATCH
  5
1ED8
330
1E94
100
AcDbEntity
  8
PEN35
100
AcDbHatch
 10
0.0
 20
0.0
 30
0.0
210
0.0
220
0.0
230
1.0
  2
SOLID
 70
     1
 71
     0
 91
        1
 92
        5
 93
        2
 72
     4
 94
        3
 73
     0
 74
     0
 95
       25
 96
       21
 40
0.0
 40
0.0
 40
0.0
 40
0.0
 40
0.6529109961347608
 40
1.571400093878789
 40
3.203822538040835
 40
4.456624764600618
 40
5.691968870458598
 40
6.980323077715679
 40
7.875124842755404
 40
8.512522688750966
 40
9.629059501056406
 40
10.74972643752601
 40
11.48434211279488
 40
13.23127011861056
 40
14.5729858373916
 40
15.50871200392493
 40
17.1996974433155
 40
18.78994631075672
 40
20.68971758680043
 40
22.64959087395385
 40
22.64959087395385
 40
22.64959087395385
 40
22.64959087395385
 10
244.6746835660987
 20
17.32212329825638
 10
244.9639766383717
 20
17.39414882661136
 10
245.6602356439937
 20
17.56749698997312
 10
247.0587842869321
 20
17.9969008935622
 10
248.7080361441828
 20
18.54487600445974
 10
250.5510306889169
 20
18.93887390429299
 10
252.2607128812358
 20
19.1636812367203
 10
253.8228536080992
 20
19.26220826085982
 10
255.1082340134435
 20
19.1721430295798
 10
256.3160822491332
 20
19.09422049985528
 10
257.6020313530245
 20
18.80611939351283
 10
258.9001965525247
 20
18.4102741897249
 10
260.4353052792453
 20
17.81820210249252
 10
262.1539621318239
 20
17.44242232065283
 10
263.9916634941869
 20
17.3354404531336
 10
265.8042192615596
 20
17.39781832594514
 10
267.7126287189012
 20
17.69935823347685
 10
269.998451692777
 20
18.31264547291612
 10
272.3672195822452
 20
19.07762620725944
 10
274.0151862742903
 20
19.70192525782111
 10
274.852000609127
 20
20.01893554526001
 72
     4
 94
        3
 73
     0
 74
     0
 95
       19
 96
       15
 40
0.0
 40
0.0
 40
0.0
 40
0.0
 40
1.139659436900618
 40
2.381813883169972
 40
3.953589654245281
 40
5.710454586349147
 40
7.540043347830071
 40
9.247182148077564
 40
11.172800113874
 40
13.25976633366425
 40
14.75854606203192
 40
17.34137855740968
 40
20.55525703400639
 40
22.50002304168947
 40
22.50002304168947
 40
22.50002304168947
 40
22.50002304168947
 10
274.852000609127
 20
20.01893554526001
 10
274.3515162768095
 20
19.87705928964453
 10
273.3055366688444
 20
19.5805471699922
 10
271.5635310734922
 20
19.10184217932786
 10
269.4941819634215
 20
18.79550524466645
 10
267.1411739274982
 20
18.65727128433351
 10
264.7230182692005
 20
18.7022798261435
 10
262.2353035803965
 20
18.92606401244001
 10
259.6736620704234
 20
19.43971669812751
 10
257.2088866407363
 20
19.96554167795072
 10
254.3814271789025
 20
20.09106400515564
 10
251.0776000414428
 20
19.53548819619859
 10
247.6678287642195
 20
18.57531625176268
 10
245.4941444495646
 20
17.66522145650086
 10
244.6746835660987
 20
17.32212329825638
 97
        0
 75
     0
 76
     1
 47
0.0264000128407926
 98
        1
 10
261.3602702517455
 20
18.38996892730283
  0
SPLINE
  5
1ED9
330
1E94
100
AcDbEntity
  8
PEN35
100
AcDbSpline
210
0.0
220
0.0
230
1.0
 70
     8
 71
     3
 72
    25
 73
    21
 74
    19
 42
0.0000000001
 43
0.0000000001
 44
0.0000000001
 40
0.0
 40
0.0
 40
0.0
 40
0.0
 40
2.684240494212122
 40
5.286165334110262
 40
7.464168592708896
 40
9.780140559512737
 40
11.06171018147066
 40
12.8993226881974
 40
15.29191353803456
 40
16.29804243226708
 40
17.83290674778899
 40
19.36211444938567
 40
20.23509390186336
 40
21.46061350445998
 40
23.22514213836514
 40
24.9170681904042
 40
26.63290486709819
 40
28.86866901420012
 40
30.12663076398125
 40
31.02085701137632
 40
31.02085701137632
 40
31.02085701137632
 40
31.02085701137632
 10
274.852000609127
 20
20.01893554526001
 30
0.0
 10
274.0151862742903
 20
19.70192525782111
 30
0.0
 10
272.3672195822451
 20
19.07762620725943
 30
0.0
 10
269.9984516927772
 20
18.31264547291594
 30
0.0
 10
267.7126287189012
 20
17.69935823347698
 30
0.0
 10
265.8042192615596
 20
17.39781832594498
 30
0.0
 10
263.9916634941869
 20
17.33544045313376
 30
0.0
 10
262.153962131824
 20
17.44242232065292
 30
0.0
 10
260.4353052792452
 20
17.81820210249248
 30
0.0
 10
258.9001965525249
 20
18.4102741897249
 30
0.0
 10
257.6020313530245
 20
18.80611939351273
 30
0.0
 10
256.3160822491333
 20
19.09422049985553
 30
0.0
 10
255.1082340134435
 20
19.17214302957968
 30
0.0
 10
253.8228536080992
 20
19.26220826085985
 30
0.0
 10
252.2607128812358
 20
19.16368123672027
 30
0.0
 10
250.5510306889168
 20
18.93887390429302
 30
0.0
 10
248.7080361441828
 20
18.54487600445978
 30
0.0
 10
247.058784286932
 20
17.99690089356224
 30
0.0
 10
245.6602356439938
 20
17.56749698997304
 30
0.0
 10
244.9639766383718
 20
17.39414882661132
 30
0.0
 10
244.6746835660987
 20
17.32212329825638
 30
0.0
 11
274.852000609127
 21
20.01893554526001
 31
0.0
 11
272.33392333948
 21
19.08918617319516
 31
0.0
 11
269.857147794973
 21
18.29194356607279
 31
0.0
 11
267.7483155399783
 21
17.7474027367863
 31
0.0
 11
265.45786288734
 21
17.4045430030121
 31
0.0
 11
264.1771355981177
 21
17.35808542487265
 31
0.0
 11
262.3431474883487
 21
17.47344286114994
 31
0.0
 11
260.0089829755991
 21
17.99895880015162
 31
0.0
 11
259.0616121735373
 21
18.3377565498642
 31
0.0
 11
257.5943196134337
 21
18.78815749361024
 31
0.0
 11
256.095584350565
 21
19.09191530249172
 31
0.0
 11
255.2256894878388
 21
19.16523686992393
 31
0.0
 11
254.0017454564677
 21
19.22736017005983
 31
0.0
 11
252.2392847588565
 21
19.14195765694143
 31
0.0
 11
250.5622763183716
 21
18.91777813934241
 31
0.0
 11
248.8852678778865
 21
18.55482057759451
 31
0.0
 11
246.7461638497232
 21
17.90453196615948
 31
0.0
 11
245.5407840024506
 21
17.54463310856004
 31
0.0
 11
244.6746835660987
 21
17.32212329825638
 31
0.0
  0
SPLINE
  5
1EDA
330
1E94
100
AcDbEntity
  8
PEN35
100
AcDbSpline
210
0.0
220
0.0
230
1.0
 70
     8
 71
     3
 72
    19
 73
    15
 74
    13
 42
0.0000000001
 43
0.0000000001
 44
0.0000000001
 40
0.0
 40
0.0
 40
0.0
 40
0.0
 40
2.663549579356726
 40
7.06527432702507
 40
10.60271912986196
 40
12.65544634705453
 40
15.51375319471313
 40
18.15107763505002
 40
20.48917322873013
 40
22.99497616686555
 40
25.40117662101013
 40
27.55387914529904
 40
29.25513263275524
 40
30.81600905787486
 40
30.81600905787486
 40
30.81600905787486
 40
30.81600905787486
 10
244.6746835660987
 20
17.32212329825638
 30
0.0
 10
245.4941444495646
 20
17.66522145650082
 30
0.0
 10
247.6678287642195
 20
18.57531625176249
 30
0.0
 10
251.0776000414429
 20
19.53548819619862
 30
0.0
 10
254.3814271789024
 20
20.09106400515571
 30
0.0
 10
257.2088866407362
 20
19.96554167795063
 30
0.0
 10
259.6736620704235
 20
19.43971669812762
 30
0.0
 10
262.2353035803964
 20
18.92606401243978
 30
0.0
 10
264.7230182692005
 20
18.70227982614365
 30
0.0
 10
267.1411739274982
 20
18.65727128433349
 30
0.0
 10
269.4941819634215
 20
18.7955052446664
 30
0.0
 10
271.563531073492
 20
19.10184217932783
 30
0.0
 10
273.3055366688445
 20
19.58054716999232
 30
0.0
 10
274.3515162768094
 20
19.87705928964455
 30
0.0
 10
274.852000609127
 20
20.01893554526001
 30
0.0
 11
244.6746835660987
 21
17.32212329825638
 31
0.0
 11
247.1470604435939
 21
18.31300620623226
 31
0.0
 11
251.3776495584003
 21
19.5284470710697
 31
0.0
 11
254.8813491348571
 21
20.01589451547252
 31
0.0
 11
256.9322988919708
 21
19.93048888334921
 31
0.0
 11
259.7465189358594
 21
19.43040531038636
 31
0.0
 11
262.3408773187229
 21
18.95629057230685
 31
0.0
 11
264.6683866499902
 21
18.7340489964257
 31
0.0
 11
267.1737953489882
 21
18.6896010971167
 31
0.0
 11
269.5754299857751
 21
18.83776214770422
 31
0.0
 11
271.7021214774575
 21
19.17139586495359
 31
0.0
 11
273.3497508505746
 21
19.59516570510687
 31
0.0
 11
274.852000609127
 21
20.01893554526001
 31
0.0
  0
SPLINE
  5
1EDB
330
1E94
100
AcDbEntity
  8
PEN35
100
AcDbSpline
210
0.0
220
0.0
230
1.0
 70
     8
 71
     3
 72
    20
 73
    16
 74
    14
 42
0.0000000001
 43
0.0000000001
 44
0.0000000001
 40
0.0
 40
0.0
 40
0.0
 40
0.0
 40
0.1899604643836716
 40
0.3359488011532772
 40
0.4762152749568854
 40
0.6956251977456498
 40
0.981341547719394
 40
1.185628203844825
 40
1.354110336369165
 40
1.736255697365844
 40
1.992936526905229
 40
2.114831007483604
 40
2.238464721182503
 40
2.331804587233082
 40
2.390157162463743
 40
2.390157162463743
 40
2.390157162463743
 40
2.390157162463743
 10
254.2267380422257
 20
22.842932495161
 30
0.0
 10
254.2887445906302
 20
22.82715784661472
 30
0.0
 10
254.3984043857234
 20
22.7992600717544
 30
0.0
 10
254.5293357633933
 20
22.70692886487509
 30
0.0
 10
254.6699829268754
 20
22.61366469402536
 30
0.0
 10
254.8166782187895
 20
22.45445591283995
 30
0.0
 10
254.9609969311388
 20
22.26384200698741
 30
0.0
 10
255.0337742194777
 20
22.05497919419227
 30
0.0
 10
255.1001515182539
 20
21.81221112272065
 30
0.0
 10
255.1299980186338
 20
21.54395626222688
 30
0.0
 10
255.1520571837307
 20
21.29052837771383
 30
0.0
 10
255.1946532070451
 20
21.12863745467545
 30
0.0
 10
255.2276227993987
 20
21.01969909004521
 30
0.0
 10
255.2769752948046
 20
20.94167349476612
 30
0.0
 10
255.2974785036803
 20
20.89542479215323
 30
0.0
 10
255.3053656141275
 20
20.87763398546738
 30
0.0
 11
254.2267380422257
 21
22.842932495161
 31
0.0
 11
254.40722847574
 21
22.78370259191358
 31
0.0
 11
254.5311473063154
 21
22.70652281540717
 31
0.0
 11
254.6451883386767
 21
22.62485687017137
 31
0.0
 11
254.7993328562701
 21
22.46871532568661
 31
0.0
 11
254.9620835357081
 21
22.23388336665038
 31
0.0
 11
255.0352017734988
 21
22.04313022467549
 31
0.0
 11
255.078737823481
 21
21.88037015177094
 31
0.0
 11
255.1328139467258
 21
21.50207020486889
 31
0.0
 11
255.1656801994667
 21
21.24750222242845
 31
0.0
 11
255.1952606803805
 21
21.12925138926275
 31
0.0
 11
255.2363439230298
 21
21.01264323201636
 31
0.0
 11
255.2807146444009
 21
20.93052399140035
 31
0.0
 11
255.3053656141275
 21
20.87763398546738
 31
0.0
  0
LINE
  5
1EDC
330
1E94
100
AcDbEntity
  8
PEN35
 48
0.3
100
AcDbLine
 10
253.299921663197
 20
20.87763398546751
 30
0.0
 11
255.3053656141275
 21
20.87763398546751
 31
0.0
  0
LINE
  5
1EDD
330
1E94
100
AcDbEntity
  8
PEN35
 48
0.3
100
AcDbLine
 10
251.1967716598451
 20
22.32530971791895
 30
0.0
 11
251.1967716598451
 21
20.87763398546751
 31
0.0
  0
SPLINE
  5
1EDE
330
1E94
100
AcDbEntity
  8
PEN35
 48
0.3
100
AcDbSpline
210
0.0
220
0.0
230
1.0
 70
     8
 71
     3
 72
    19
 73
    15
 74
    13
 42
0.0000000001
 43
0.0000000001
 44
0.0000000001
 40
0.0
 40
0.0
 40
0.0
 40
0.0
 40
0.1973314950737153
 40
0.4304253235667317
 40
0.5439805243913077
 40
0.631907277850837
 40
0.7552938023271637
 40
0.9183550094540571
 40
1.08390416243569
 40
1.200390737379734
 40
1.437499935508737
 40
1.60323742874683
 40
1.688695668605151
 40
1.779176004997705
 40
1.779176004997705
 40
1.779176004997705
 40
1.779176004997705
 10
252.519324690805
 20
22.32530971791882
 30
0.0
 10
252.5817295040251
 20
22.30439383453617
 30
0.0
 10
252.7178487378674
 20
22.25877148788899
 30
0.0
 10
252.8793351683082
 20
22.17308465710627
 30
0.0
 10
252.9862590149634
 20
22.06984932557133
 30
0.0
 10
253.024548891455
 20
21.96707563862304
 30
0.0
 10
253.0684332054921
 20
21.85067128893453
 30
0.0
 10
253.105133827309
 20
21.7041311334239
 30
0.0
 10
253.1327825196396
 20
21.55805407254689
 30
0.0
 10
253.1395936646177
 20
21.38470763267755
 30
0.0
 10
253.164836472058
 20
21.21430326903923
 30
0.0
 10
253.1938775375606
 20
21.05119638014947
 30
0.0
 10
253.2538549490676
 20
20.95340118129603
 30
0.0
 10
253.2842766335347
 20
20.90336579744002
 30
0.0
 10
253.2999216631971
 20
20.87763398546738
 30
0.0
 11
252.519324690805
 21
22.32530971791882
 31
0.0
 11
252.7047856009735
 21
22.25790074412824
 31
0.0
 11
252.9068563010886
 21
22.14171053354004
 31
0.0
 11
252.9843612576299
 21
22.05871797154898
 31
0.0
 11
253.0203460065408
 21
21.97849196691364
 31
0.0
 11
253.0618679210656
 21
21.86230175632537
 31
0.0
 11
253.1033881286956
 21
21.70461526474147
 31
0.0
 11
253.1310688360807
 21
21.541396698115
 31
0.0
 11
253.1393728776067
 21
21.42520648752681
 31
0.0
 11
253.1698221677986
 21
21.1900605486629
 31
0.0
 11
253.2113440823231
 21
21.02960853939203
 31
0.0
 11
253.2528642899533
 21
20.95491460979914
 31
0.0
 11
253.2999216631971
 21
20.87763398546738
 31
0.0
  0
LINE
  5
1EDF
330
1E94
100
AcDbEntity
  8
PEN35
100
AcDbLine
 10
249.2081662227182
 20
25.08009179018614
 30
0.0
 11
249.2081662227182
 21
20.87763398546751
 31
0.0
  0
LINE
  5
1EE0
330
1E94
100
AcDbEntity
  8
PEN35
 48
0.3
100
AcDbLine
 10
249.2081662227182
 20
20.87763398546751
 30
0.0
 11
251.1967716598451
 21
20.87763398546751
 31
0.0
  0
LINE
  5
1EE1
330
1E94
100
AcDbEntity
  8
PEN35
100
AcDbLine
 10
251.1967716598451
 20
24.06804331488858
 30
0.0
 11
252.4220470688973
 21
24.06804331488858
 31
0.0
  0
LINE
  5
1EE2
330
1E94
100
AcDbEntity
  8
PEN35
100
AcDbLine
 10
251.1967716598451
 20
23.25999439542021
 30
0.0
 11
252.4332357620468
 21
23.25999439542021
 31
0.0
  0
LINE
  5
1EE3
330
1E94
100
AcDbEntity
  8
PEN35
100
AcDbLine
 10
251.1967716598451
 20
24.06804331488858
 30
0.0
 11
251.1967716598451
 21
23.25999439542021
 31
0.0
  0
SPLINE
  5
1EE4
330
1E94
100
AcDbEntity
  8
PEN35
100
AcDbSpline
210
0.0
220
0.0
230
1.0
 70
     8
 71
     3
 72
    17
 73
    13
 74
    11
 42
0.0000000001
 43
0.0000000001
 44
0.0000000001
 40
0.0
 40
0.0
 40
0.0
 40
0.0
 40
0.2820092845942867
 40
0.4489036474411316
 40
0.5942591795246609
 40
0.6955834362416553
 40
0.863069003973718
 40
1.026514774840031
 40
1.200570853101994
 40
1.375799651428572
 40
1.504133815815445
 40
1.724567337610523
 40
1.724567337610523
 40
1.724567337610523
 40
1.724567337610523
 10
252.4220470688909
 20
24.06804331488859
 30
0.0
 10
252.5154275745584
 20
24.05772580992519
 30
0.0
 10
252.6640710834215
 20
24.0413023591256
 30
0.0
 10
252.8594513082921
 20
24.00325242803477
 30
0.0
 10
252.9837444356112
 20
23.93605180978876
 30
0.0
 10
253.0739436740847
 20
23.82768646983037
 30
0.0
 10
253.1080214524256
 20
23.68210757417772
 30
0.0
 10
253.0754305867734
 20
23.50748156266373
 30
0.0
 10
252.9367930191757
 20
23.39160818256158
 30
0.0
 10
252.7902187540994
 20
23.33075237837838
 30
0.0
 10
252.6225453606626
 20
23.27932583911217
 30
0.0
 10
252.5065493477308
 20
23.2674808486369
 30
0.0
 10
252.4332357620468
 20
23.25999439542021
 30
0.0
 11
252.4220470688909
 21
24.06804331488859
 31
0.0
 11
252.7017729322593
 21
24.03222882117153
 31
0.0
 11
252.8640132502551
 21
23.9930905078882
 31
0.0
 11
252.989889888771
 21
23.92040417778942
 31
0.0
 11
253.0542278614823
 21
23.84212755122285
 31
0.0
 11
253.0961867409875
 21
23.67998296195389
 31
0.0
 11
253.059821354613
 21
23.52063404075292
 31
0.0
 11
252.9339447160974
 21
23.40042343283519
 31
0.0
 11
252.7745019981139
 21
23.3277381424045
 31
0.0
 11
252.6514212527162
 21
23.29139549718936
 31
0.0
 11
252.4332357620468
 21
23.25999439542021
 31
0.0
  0
LINE
  5
1EE5
330
1E94
100
AcDbEntity
  8
PEN35
100
AcDbLine
 10
249.2081662227182
 20
25.08009179018614
 30
0.0
 11
253.5749330840795
 21
25.08009179018614
 31
0.0
  0
LINE
  5
1EE6
330
1E94
100
AcDbEntity
  8
PEN35
 48
0.3
100
AcDbLine
 10
251.1967716598451
 20
22.32530971791895
 30
0.0
 11
252.5193246908052
 21
22.32530971791895
 31
0.0
  0
TEXT
  5
1EE7
330
1E94
100
AcDbEntity
  8
0
 62
     4
100
AcDbText
 10
243.8434887073094
 20
44.25000000000003
 30
0.0
 40
2.5
  1
Name:
  7
ISO9
100
AcDbText
  0
TEXT
  5
1EE8
330
1E94
100
AcDbEntity
  8
0
 62
     4
100
AcDbText
 10
243.8525786099686
 20
49.25
 30
0.0
 40
2.5
  1
Scale:
  7
ISO9
100
AcDbText
  0
HATCH
  5
1EE9
330
1E94
100
AcDbEntity
  8
PEN35
100
AcDbHatch
 10
0.0
 20
0.0
 30
0.0
210
0.0
220
0.0
230
1.0
  2
SOLID
 70
     1
 71
     1
 91
        2
 92
        5
 93
        1
 72
     3
 10
268.7740455992566
 20
22.95806959168539
 11
-3.256600147158214
 21
0.0
 40
0.651606615062177
 50
0.0
 51
360.0
 73
     1
 97
        1
330
1EEA
 92
       20
 93
        1
 72
     3
 10
268.7740455992566
 20
22.95806959168539
 11
-1.242368270651791
 21
0.0
 40
0.8858773942186537
 50
0.0
 51
360.0
 73
     1
 97
        1
330
1EFC
 75
     0
 76
     1
 47
0.0771951366810536
 98
        2
 10
266.4802044209736
 20
23.12935966299576
 10
266.4802044209736
 20
23.12935966299576
  0
ELLIPSE
  5
1EEA
102
{ACAD_REACTORS
330
1EE9
102
}
330
1E94
100
AcDbEntity
  8
PEN35
100
AcDbEllipse
 10
268.7740455992566
 20
22.95806959168539
 30
0.0
 11
-3.256600147158214
 21
0.0
 31
0.0
210
0.0
220
0.0
230
1.0
 40
0.651606615062177
 41
-3.141592653589793
 42
3.141592653589793
  0
HATCH
  5
1EEB
330
1E94
100
AcDbEntity
  8
PEN35
100
AcDbHatch
 10
0.0
 20
0.0
 30
0.0
210
0.0
220
0.0
230
1.0
  2
SOLID
 70
     1
 71
     1
 91
        1
 92
        7
 72
     0
 73
     1
 93
       12
 10
258.8787696394636
 20
20.87763398546751
 10
260.8611329635663
 20
20.87763398546751
 10
260.8611329635663
 20
22.53499002135798
 10
262.7225781775468
 20
22.534990021358
 10
262.7225781775468
 20
20.87763398546751
 10
264.7049415016496
 20
20.87763398546751
 10
264.7049415016496
 20
25.08009179018614
 10
262.7225781775468
 20
25.08009179018614
 10
262.7225781775468
 20
23.6354123817852
 10
260.8611329635663
 20
23.6354123817852
 10
260.8611329635663
 20
25.08009179018614
 10
258.8787696394636
 20
25.08009179018614
 97
       12
330
1EF5
330
1EFA
330
1EF6
330
1EF9
330
1EF8
330
1EEE
330
1EF3
330
1EED
330
1EF7
330
1EEF
330
1EF2
330
1EEC
 75
     0
 76
     1
 47
0.0260242575940313
 98
        1
 10
259.4297631229902
 20
23.45922926994695
  0
LINE
  5
1EEC
102
{ACAD_REACTORS
330
1EEB
102
}
330
1E94
100
AcDbEntity
  8
PEN35
100
AcDbLine
 10
264.7049415016496
 20
25.08009179018614
 30
0.0
 11
264.7049415016496
 21
20.87763398546751
 31
0.0
  0
LINE
  5
1EED
102
{ACAD_REACTORS
330
1EEB
102
}
330
1E94
100
AcDbEntity
  8
PEN35
100
AcDbLine
 10
260.8611329635663
 20
22.53499002135799
 30
0.0
 11
260.8611329635663
 21
20.87763398546751
 31
0.0
  0
LINE
  5
1EEE
102
{ACAD_REACTORS
330
1EEB
102
}
330
1E94
100
AcDbEntity
  8
PEN35
100
AcDbLine
 10
258.8787696394636
 20
25.08009179018614
 30
0.0
 11
258.8787696394636
 21
20.87763398546751
 31
0.0
  0
LINE
  5
1EEF
102
{ACAD_REACTORS
330
1EEB
102
}
330
1E94
100
AcDbEntity
  8
PEN35
100
AcDbLine
 10
262.7225781775468
 20
22.53499002135799
 30
0.0
 11
262.7225781775468
 21
20.87763398546751
 31
0.0
  0
LINE
  5
1EF0
330
1E94
100
AcDbEntity
  8
PEN35
100
AcDbLine
 10
255.8753266900266
 20
25.08009179018614
 30
0.0
 11
255.8753266900266
 21
20.87763398546751
 31
0.0
  0
LINE
  5
1EF1
330
1E94
100
AcDbEntity
  8
PEN35
100
AcDbLine
 10
257.8691893620762
 20
25.08009179018614
 30
0.0
 11
257.8691893620762
 21
20.87763398546751
 31
0.0
  0
LINE
  5
1EF2
102
{ACAD_REACTORS
330
1EEB
102
}
330
1E94
100
AcDbEntity
  8
PEN35
 48
0.3
100
AcDbLine
 10
262.7225781775468
 20
20.87763398546751
 30
0.0
 11
264.7049415016496
 21
20.87763398546751
 31
0.0
  0
LINE
  5
1EF3
102
{ACAD_REACTORS
330
1EEB
102
}
330
1E94
100
AcDbEntity
  8
PEN35
 48
0.3
100
AcDbLine
 10
258.8787696394636
 20
20.87763398546751
 30
0.0
 11
260.8611329635663
 21
20.87763398546751
 31
0.0
  0
LINE
  5
1EF4
330
1E94
100
AcDbEntity
  8
PEN35
 48
0.3
100
AcDbLine
 10
255.8753266900266
 20
20.87763398546751
 30
0.0
 11
257.8691893620762
 21
20.87763398546751
 31
0.0
  0
LINE
  5
1EF5
102
{ACAD_REACTORS
330
1EEB
102
}
330
1E94
100
AcDbEntity
  8
PEN35
100
AcDbLine
 10
262.7225781775468
 20
25.08009179018614
 30
0.0
 11
264.7049415016496
 21
25.08009179018614
 31
0.0
  0
LINE
  5
1EF6
102
{ACAD_REACTORS
330
1EEB
102
}
330
1E94
100
AcDbEntity
  8
PEN35
100
AcDbLine
 10
260.8611329635663
 20
23.6354123817852
 30
0.0
 11
262.7225781775468
 21
23.6354123817852
 31
0.0
  0
LINE
  5
1EF7
102
{ACAD_REACTORS
330
1EEB
102
}
330
1E94
100
AcDbEntity
  8
PEN35
100
AcDbLine
 10
260.8611329635663
 20
22.53499002135799
 30
0.0
 11
262.7225781775468
 21
22.53499002135799
 31
0.0
  0
LINE
  5
1EF8
102
{ACAD_REACTORS
330
1EEB
102
}
330
1E94
100
AcDbEntity
  8
PEN35
100
AcDbLine
 10
258.8787696394636
 20
25.08009179018614
 30
0.0
 11
260.8611329635663
 21
25.08009179018614
 31
0.0
  0
LINE
  5
1EF9
102
{ACAD_REACTORS
330
1EEB
102
}
330
1E94
100
AcDbEntity
  8
PEN35
100
AcDbLine
 10
260.8611329635663
 20
25.08009179018614
 30
0.0
 11
260.8611329635663
 21
23.6354123817852
 31
0.0
  0
LINE
  5
1EFA
102
{ACAD_REACTORS
330
1EEB
102
}
330
1E94
100
AcDbEntity
  8
PEN35
100
AcDbLine
 10
262.7225781775468
 20
25.08009179018614
 30
0.0
 11
262.7225781775468
 21
23.6354123817852
 31
0.0
  0
LINE
  5
1EFB
330
1E94
100
AcDbEntity
  8
PEN35
100
AcDbLine
 10
255.8753266900266
 20
25.08009179018614
 30
0.0
 11
257.8691893620762
 21
25.08009179018614
 31
0.0
  0
ELLIPSE
  5
1EFC
102
{ACAD_REACTORS
330
1EE9
102
}
330
1E94
100
AcDbEntity
  8
PEN35
100
AcDbEllipse
 10
268.7740455992566
 20
22.95806959168539
 30
0.0
 11
-1.242368270651791
 21
0.0
 31
0.0
210
0.0
220
0.0
230
1.0
 40
0.8858773942186537
 41
0.0
 42
6.283185307179586
  0
TEXT
  5
1EFD
330
1E94
100
AcDbEntity
  8
0
 62
     4
100
AcDbText
 10
267.743136472787
 20
49.25
 30
0.0
 40
2.5
  1
Format:
  7
ISO9
100
AcDbText
  0
LINE
  5
1EFE
330
1E94
100
AcDbEntity
  8
0
 62
     5
100
AcDbLine
 10
265.5573768934225
 20
48.0
 30
0.0
 11
265.5573768934225
 21
53.0
 31
0.0
  0
TEXT
  5
1EFF
330
1E94
100
AcDbEntity
  8
0
 62
     4
100
AcDbText
 10
315.5831474583583
 20
49.26255915315789
 30
0.0
 40
2.5
  1
Sheet:
  7
ISO9
100
AcDbText
  0
TEXT
  5
1F00
330
1E94
100
AcDbEntity
  8
0
 62
     4
100
AcDbText
 10
298.844920486817
 20
17.25
 30
0.0
 40
2.5
  1
Introduced by tech. change:
 41
0.8
  7
ISO9
100
AcDbText
  0
TEXT
  5
1F01
330
1E94
100
AcDbEntity
  8
0
 62
     4
100
AcDbText
 10
298.844920486817
 20
23.25
 30
0.0
 40
2.5
  1
Drawn:
 41
0.8
  7
ISO9
100
AcDbText
  0
TEXT
  5
1F02
330
1E94
100
AcDbEntity
  8
0
 62
     4
100
AcDbText
 10
298.5128927524797
 20
11.25
 30
0.0
 40
2.5
  1
Article nr.:
 41
0.8
  7
ISO9
100
AcDbText
  0
LINE
  5
1F03
330
1E94
100
AcDbEntity
  8
0
 62
     5
100
AcDbLine
 10
297.3138445259373
 20
10.0
 30
0.0
 11
297.3138445259373
 21
28.0
 31
0.0
  0
TEXT
  5
1F04
330
1E94
100
AcDbEntity
  8
0
 62
     4
100
AcDbText
 10
292.9984326203699
 20
49.25
 30
0.0
 40
2.5
  1
Unit:
  7
ISO9
100
AcDbText
  0
LINE
  5
1F05
330
1E94
100
AcDbEntity
  8
0
 62
     5
100
AcDbLine
 10
291.0
 20
48.0
 30
0.0
 11
291.0
 21
53.0
 31
0.0
  0
LINE
  5
1F06
330
1E94
100
AcDbEntity
  8
0
 62
     5
100
AcDbLine
 10
314.0
 20
48.0
 30
0.0
 11
314.0
 21
53.0
 31
0.0
  0
TEXT
  5
1F07
330
1E94
100
AcDbEntity
  8
0
 62
     4
100
AcDbText
 10
326.7127184495491
 20
23.25
 30
0.0
 40
2.5
  1
Date:
  7
ISO9
100
AcDbText
  0
LINE
  5
1F08
330
1E94
100
AcDbEntity
  8
0
 62
     4
100
AcDbLine
 10
324.7808055744895
 20
22.0
 30
0.0
 11
324.7808055744895
 21
28.0
 31
0.0
  0
TEXT
  5
1F09
330
1E94
100
AcDbEntity
  8
0
 62
     4
100
AcDbText
 10
334.8737715011883
 20
49.26255915315789
 30
0.0
 40
2.5
  1
of
  7
ISO9
100
AcDbText
  0
LINE
  5
1F0A
330
1E94
100
AcDbEntity
  8
0
 62
     5
100
AcDbLine
 10
346.4539403318433
 20
48.0
 30
0.0
 11
346.4539403318433
 21
53.0
 31
0.0
  0
TEXT
  5
1F0B
330
1E94
100
AcDbEntity
  8
0
 62
   140
100
AcDbText
 10
248.6293999959098
 20
66.25
 30
0.0
 40
2.5
  1
Change nr.
 41
0.7
  7
ISO9
100
AcDbText
  0
TEXT
  5
1F0C
330
1E94
100
AcDbEntity
  8
0
 62
   140
100
AcDbText
 10
242.7945813507393
 20
66.25
 30
0.0
 40
2.5
  1
Rev.
 41
0.65
  7
ISO9
100
AcDbText
  0
TEXT
  5
1F0D
330
1E94
100
AcDbEntity
  8
0
 62
     4
100
AcDbText
 10
243.9363933035618
 20
60.60343889141449
 30
0.0
 40
2.5
  1
A
  7
ISO9
100
AcDbText
  0
TEXT
  5
1F0E
330
1E94
100
AcDbEntity
  8
0
 62
   140
100
AcDbText
 10
271.3906260692112
 20
66.25
 30
0.0
 40
2.5
  1
Date
 41
0.8
  7
ISO9
100
AcDbText
  0
TEXT
  5
1F0F
330
1E94
100
AcDbEntity
  8
0
 62
   140
 48
0.5
100
AcDbText
 10
264.7829494911162
 20
66.25
 30
0.0
 40
2.5
  1
Dev.
 41
0.7
  7
ISO9
100
AcDbText
  0
TEXT
  5
1F10
330
1E94
100
AcDbEntity
  8
0
 62
   140
100
AcDbText
 10
316.3906260692113
 20
66.25
 30
0.0
 40
2.5
  1
Date
 41
0.8
  7
ISO9
100
AcDbText
  0
TEXT
  5
1F11
330
1E94
100
AcDbEntity
  8
0
 62
   140
100
AcDbText
 10
293.6293999959098
 20
66.25
 30
0.0
 40
2.5
  1
Change nr.
 41
0.7
  7
ISO9
100
AcDbText
  0
TEXT
  5
1F12
330
1E94
100
AcDbEntity
  8
0
 62
   140
100
AcDbText
 10
287.7945813507393
 20
66.25
 30
0.0
 40
2.5
  1
Rev.
 41
0.65
  7
ISO9
100
AcDbText
  0
TEXT
  5
1F13
330
1E94
100
AcDbEntity
  8
0
 62
     4
100
AcDbText
 10
288.9591382620036
 20
60.60343889141449
 30
0.0
 40
2.5
  1
C
  7
ISO9
100
AcDbText
  0
TEXT
  5
1F14
330
1E94
100
AcDbEntity
  8
0
 62
   140
 48
0.5
100
AcDbText
 10
309.7829494911162
 20
66.25
 30
0.0
 40
2.5
  1
Dev.
 41
0.7
  7
ISO9
100
AcDbText
  0
TEXT
  5
1F15
330
1E94
100
AcDbEntity
  8
0
 62
   140
100
AcDbText
 10
332.7945813507393
 20
66.25
 30
0.0
 40
2.5
  1
Rev.
 41
0.65
  7
ISO9
100
AcDbText
  0
TEXT
  5
1F16
330
1E94
100
AcDbEntity
  8
0
 62
     4
100
AcDbText
 10
334.1456754991394
 20
60.60343889141449
 30
0.0
 40
2.5
  1
E
  7
ISO9
100
AcDbText
  0
TEXT
  5
1F17
330
1E94
100
AcDbEntity
  8
0
 62
   140
100
AcDbText
 10
338.6293999959097
 20
66.25
 30
0.0
 40
2.5
  1
Change nr.
 41
0.7
  7
ISO9
100
AcDbText
  0
TEXT
  5
1F18
330
1E94
100
AcDbEntity
  8
0
 62
     4
100
AcDbText
 10
378.9837867137137
 20
54.6034388914145
 30
0.0
 40
2.5
  1
H
  7
ISO9
100
AcDbText
  0
LINE
  5
1F19
330
1E94
100
AcDbEntity
  8
0
 62
     4
100
AcDbLine
 10
353.8901325885494
 20
53.0
 30
0.0
 11
353.8901325885494
 21
71.0
 31
0.0
  0
LINE
  5
1F1A
330
1E94
100
AcDbEntity
  8
0
 62
     4
100
AcDbLine
 10
398.8901325885494
 20
53.0
 30
0.0
 11
398.8901325885494
 21
71.0
 31
0.0
  0
LINE
  5
1F1B
330
1E94
100
AcDbEntity
  8
0
 62
     4
100
AcDbLine
 10
405.116134271746
 20
53.0
 30
0.0
 11
405.116134271746
 21
71.0
 31
0.0
  0
LINE
  5
1F1C
330
1E94
100
AcDbEntity
  8
0
 62
     4
100
AcDbLine
 10
382.7498626144426
 20
53.0
 30
0.0
 11
382.7498626144426
 21
71.0
 31
0.0
  0
LINE
  5
1F1D
330
1E94
100
AcDbEntity
  8
0
 62
     5
100
AcDbLine
 10
377.0
 20
53.0
 30
0.0
 11
377.0
 21
71.0
 31
0.0
  0
LINE
  5
1F1E
330
1E94
100
AcDbEntity
  8
0
 62
     4
100
AcDbLine
 10
360.116134271746
 20
53.0
 30
0.0
 11
360.116134271746
 21
71.0
 31
0.0
  0
LINE
  5
1F1F
330
1E94
100
AcDbEntity
  8
0
 62
     5
100
AcDbLine
 10
422.0
 20
10.0
 30
0.0
 11
422.0
 21
71.0
 31
0.0
  0
LINE
  5
1F20
330
1E94
100
AcDbEntity
  8
0
 62
     5
100
AcDbLine
 10
419.1254806335947
 20
45.29236062620043
 30
0.0
 11
409.1254806335946
 21
43.29236062620043
 31
0.0
  0
LINE
  5
1F21
330
1E94
100
AcDbEntity
  8
0
  6
CENTER
 62
     4
 48
0.2
100
AcDbLine
 10
407.6254806335946
 20
40.29236062620043
 30
0.0
 11
420.6254806335946
 21
40.29236062620043
 31
0.0
  0
LINE
  5
1F22
330
1E94
100
AcDbEntity
  8
0
 62
     5
100
AcDbLine
 10
409.1254806335946
 20
37.29236062620043
 30
0.0
 11
419.1254806335947
 21
35.29236062620043
 31
0.0
  0
TEXT
  5
1F23
330
1E94
100
AcDbEntity
  8
0
 62
     4
100
AcDbText
 10
393.8245046175075
 20
29.25
 30
0.0
 40
2.5
  1
AM. PROJECTION
 41
0.85
  7
ISO9
100
AcDbText
  0
TEXT
  5
1F24
330
1E94
100
AcDbEntity
  8
0
 62
     4
100
AcDbText
 10
364.4683039937722
 20
17.81983424709062
 30
0.0
 40
2.5
  1
Drawing nr.:
  7
ISO9
100
AcDbText
  0
TEXT
  5
1F25
330
1E94
100
AcDbEntity
  8
0
 62
     4
100
AcDbText
 10
364.4683039937722
 20
23.25
 30
0.0
 40
2.5
  1
Project:
  7
ISO9
100
AcDbText
  0
LINE
  5
1F26
330
1E94
100
AcDbEntity
  8
0
 62
     5
100
AcDbLine
 10
362.6248152864627
 20
10.0
 30
0.0
 11
362.6248152864627
 21
28.0
 31
0.0
  0
LINE
  5
1F27
330
1E94
100
AcDbEntity
  8
0
 62
     5
100
AcDbLine
 10
391.9971288779731
 20
28.0
 30
0.0
 11
391.9971288779731
 21
48.0
 31
0.0
  0
CIRCLE
  5
1F28
330
1E94
100
AcDbEntity
  8
0
 62
     5
100
AcDbCircle
 10
399.906505883541
 20
40.29236062620043
 30
0.0
 40
2.5
  0
LINE
  5
1F29
330
1E94
100
AcDbEntity
  8
0
  6
CENTER
 62
     4
 48
0.2
100
AcDbLine
 10
393.406505883541
 20
40.29236062620043
 30
0.0
 11
406.406505883541
 21
40.29236062620043
 31
0.0
  0
CIRCLE
  5
1F2A
330
1E94
100
AcDbEntity
  8
0
 62
     5
100
AcDbCircle
 10
399.906505883541
 20
40.29236062620043
 30
0.0
 40
5.0
  0
LINE
  5
1F2B
330
1E94
100
AcDbEntity
  8
0
  6
CENTER
 62
     4
 48
0.2
100
AcDbLine
 10
399.906505883541
 20
46.79236062620043
 30
0.0
 11
399.906505883541
 21
33.79236062620043
 31
0.0
  0
LINE
  5
1F2C
330
1E94
100
AcDbEntity
  8
0
 62
     5
100
AcDbLine
 10
409.1254806335946
 20
43.29236062620043
 30
0.0
 11
409.1254806335946
 21
37.29236062620043
 31
0.0
  0
LINE
  5
1F2D
330
1E94
100
AcDbEntity
  8
0
 62
     5
100
AcDbLine
 10
419.1254806335947
 20
45.29236062620043
 30
0.0
 11
419.1254806335947
 21
35.29236062620043
 31
0.0
  0
TEXT
  5
1F2E
330
1E94
100
AcDbEntity
  8
0
 62
   140
100
AcDbText
 10
383.6293999959098
 20
66.25
 30
0.0
 40
2.5
  1
Change nr.
 41
0.7
  7
ISO9
100
AcDbText
  0
TEXT
  5
1F2F
330
1E94
100
AcDbEntity
  8
0
 62
   140
100
AcDbText
 10
361.3906260692112
 20
66.25
 30
0.0
 40
2.5
  1
Date
 41
0.8
  7
ISO9
100
AcDbText
  0
TEXT
  5
1F30
330
1E94
100
AcDbEntity
  8
0
 62
   140
 48
0.5
100
AcDbText
 10
354.7829494911162
 20
66.25
 30
0.0
 40
2.5
  1
Dev.
 41
0.7
  7
ISO9
100
AcDbText
  0
TEXT
  5
1F31
330
1E94
100
AcDbEntity
  8
0
 62
   140
100
AcDbText
 10
377.7945813507393
 20
66.25
 30
0.0
 40
2.5
  1
Rev.
 41
0.65
  7
ISO9
100
AcDbText
  0
TEXT
  5
1F32
330
1E94
100
AcDbEntity
  8
0
 62
     4
100
AcDbText
 10
378.9837867137137
 20
60.60343889141449
 30
0.0
 40
2.5
  1
G
  7
ISO9
100
AcDbText
  0
TEXT
  5
1F33
330
1E94
100
AcDbEntity
  8
0
 62
   140
 48
0.5
100
AcDbText
 10
399.7829494911162
 20
66.25
 30
0.0
 40
2.5
  1
Dev.
 41
0.7
  7
ISO9
100
AcDbText
  0
TEXT
  5
1F34
330
1E94
100
AcDbEntity
  8
0
 62
   140
100
AcDbText
 10
406.3906260692112
 20
66.25
 30
0.0
 40
2.5
  1
Date
 41
0.8
  7
ISO9
100
AcDbText
  0
ENDBLK
  5
1F36
330
1E94
100
AcDbEntity
  8
0
100
AcDbBlockEnd
  0
ENDSEC
  0
SECTION
  2
ENTITIES
  0
LINE
  5
302
330
1A
100
AcDbEntity
  8
PEN50
100
AcDbLine
 10
-841.3063342642086
 20
1527.926609432848
 30
0.0
 11
-353.7214053098509
 21
1527.926609432849
 31
0.0
  0
LINE
  5
303
330
1A
100
AcDbEntity
  8
PEN50
100
AcDbLine
 10
168.6936657357914
 20
1597.926609432848
 30
0.0
 11
-841.3063342642086
 21
1597.926609432848
 31
0.0
  0
LINE
  5
304
330
1A
100
AcDbEntity
  8
PEN50
100
AcDbLine
 10
-775.4905573529245
 20
1480.519170492699
 30
0.0
 11
-57.20448647005833
 21
1480.519170492699
 31
0.0
  0
LINE
  5
305
330
1A
100
AcDbEntity
  8
PEN50
100
AcDbLine
 10
-841.3063342642086
 20
1597.926609432849
 30
0.0
 11
168.6936657357914
 21
1597.926609432849
 31
0.0
  0
LINE
  5
306
330
1A
100
AcDbEntity
  8
PEN50
100
AcDbLine
 10
-841.3063342642086
 20
1037.926609432848
 30
0.0
 11
-353.7214053098509
 21
1037.926609432847
 31
0.0
  0
LINE
  5
307
330
1A
100
AcDbEntity
  8
PEN50
100
AcDbLine
 10
-841.3063342642086
 20
967.9266094328477
 30
0.0
 11
168.6936657357914
 21
967.9266094328477
 31
0.0
  0
LINE
  5
308
330
1A
100
AcDbEntity
  8
PEN50
100
AcDbLine
 10
-423.747449192766
 20
277.9963549678259
 30
0.0
 11
-841.3063342642086
 21
277.9963549678259
 31
0.0
  0
LINE
  5
309
330
1A
100
AcDbEntity
  8
PEN50
100
AcDbLine
 10
-775.4905573529245
 20
1085.334048372997
 30
0.0
 11
-57.20448647005833
 21
1085.334048372997
 31
0.0
  0
LINE
  5
30A
330
1A
100
AcDbEntity
  8
PEN50
100
AcDbLine
 10
-866.3063342642086
 20
12.67228111418535
 30
0.0
 11
85.70385570927646
 21
32.1539512988802
 31
0.0
  0
LINE
  5
30B
330
1A
100
AcDbEntity
  8
PEN50
100
AcDbLine
 10
-848.6674691841631
 20
-2.003645032174063
 30
0.0
 11
51.33253081583643
 21
16.51487348634418
 31
0.0
  0
LINE
  5
30C
330
1A
100
AcDbEntity
  8
PEN50
100
AcDbLine
 10
523.6936657357914
 20
468.5956352441212
 30
0.0
 11
-1176.306334264208
 21
468.5956352441212
 31
0.0
  0
LINE
  5
30D
330
1A
100
AcDbEntity
  8
PEN50
100
AcDbLine
 10
523.6936657357914
 20
433.5956352441212
 30
0.0
 11
-1176.306334264208
 21
433.5956352441212
 31
0.0
  0
LINE
  5
30E
330
1A
100
AcDbEntity
  8
PEN50
100
AcDbLine
 10
168.6936657357914
 20
967.9266094328486
 30
0.0
 11
-841.3063342642086
 21
967.9266094328486
 31
0.0
  0
LINE
  5
30F
330
1A
100
AcDbEntity
  8
PEN50
100
AcDbLine
 10
523.6936657357914
 20
907.9266094328486
 30
0.0
 11
-1176.306334264208
 21
907.9266094328486
 31
0.0
  0
LINE
  5
310
330
1A
100
AcDbEntity
  8
PEN50
100
AcDbLine
 10
-1176.306334264208
 20
1657.926609432848
 30
0.0
 11
523.6936657357914
 21
1657.926609432848
 31
0.0
  0
LINE
  5
313
330
1A
100
AcDbEntity
  8
PEN50
100
AcDbLine
 10
-1007.892723935676
 20
92.27356966073102
 30
0.0
 11
-1079.013441785942
 21
433.5956352441212
 31
0.0
  0
ARC
  5
330
330
1A
100
AcDbEntity
  8
PEN50
100
AcDbCircle
 10
-909.9953666115958
 20
112.6722811141853
 30
0.0
 40
100.0
100
AcDbArc
 50
191.7702121268774
 51
270.0
  0
LINE
  5
357
330
1A
100
AcDbEntity
  8
PEN50
100
AcDbLine
 10
-908.5811530492224
 20
11.25806755181201
 30
0.0
 11
-859.016430943619
 21
11.25806755181201
 31
0.0
  0
LINE
  5
358
330
1A
100
AcDbEntity
  8
PEN50
100
AcDbLine
 10
-866.3063342642086
 20
12.67228111418535
 30
0.0
 11
-909.9953666115958
 21
12.67228111418535
 31
0.0
  0
LINE
  5
359
330
1A
100
AcDbEntity
  8
PEN50
100
AcDbLine
 10
-909.9953666115958
 20
12.67228111418535
 30
0.0
 11
-908.5811530492224
 21
11.25806755181201
 31
0.0
  0
ARC
  5
35A
330
1A
100
AcDbEntity
  8
PEN50
100
AcDbCircle
 10
-848.8063342642085
 20
5.495069290264382
 30
0.0
 40
7.5
100
AcDbArc
 50
180.0
 51
271.0609116902642
  0
ARC
  5
35B
330
1A
100
AcDbEntity
  8
PEN50
100
AcDbCircle
 10
-863.3063342642085
 20
5.726636498278821
 30
0.0
 40
7.0
100
AcDbArc
 50
0.0
 51
91.06091169026424
  0
LINE
  5
35C
330
1A
100
AcDbEntity
  8
PEN50
100
AcDbLine
 10
-856.3063342642085
 20
5.495069290264382
 30
0.0
 11
-856.3063342642085
 21
5.726636498278821
 31
0.0
  0
ARC
  5
361
330
1A
100
AcDbEntity
  8
PEN50
100
AcDbCircle
 10
-775.4905573529245
 20
1282.926609432848
 30
0.0
 40
197.5925610598508
100
AcDbArc
 50
90.0
 51
270.0
  0
LWPOLYLINE
  5
362
330
1A
100
AcDbEntity
  8
PEN50
100
AcDbPolyline
 90
        9
 70
     0
 43
0.0
 10
-841.3063342642086
 20
1597.926609432848
 42
0.1229528374611685
 10
-931.7448050039406
 20
1575.345914848934
 42
0.1054881580666466
 10
-1014.547495654912
 20
1505.665245506611
 42
0.0875669367914106
 10
-1066.855898008748
 20
1406.730286157489
 42
0.0780747127454447
 10
-1086.306334264208
 20
1282.926609432848
 42
0.0780747127454449
 10
-1066.855898008748
 20
1159.122932708207
 42
0.0875669367914116
 10
-1014.547495654912
 20
1060.187973359085
 42
0.1054881580666467
 10
-931.7448050039407
 20
990.5073040167627
 42
0.1229528374611682
 10
-841.3063342642086
 20
967.9266094328486
 42
0.1229528374611692
  0
LINE
  5
363
330
1A
100
AcDbEntity
  8
PEN50
100
AcDbLine
 10
-1176.306334264208
 20
907.9266094328486
 30
0.0
 11
-1176.306334264208
 21
1657.926609432848
 31
0.0
  0
LINE
  5
365
330
1A
100
AcDbEntity
  8
PEN50
100
AcDbLine
 10
-1176.306334264208
 20
433.5956352441212
 30
0.0
 11
-1176.306334264208
 21
468.5956352441212
 31
0.0
  0
LWPOLYLINE
  5
367
330
1A
100
AcDbEntity
  8
PEN50
100
AcDbPolyline
 90
       16
 70
     1
 43
0.0
 10
-1075.68045396483
 20
1282.926609432848
 42
0.0201988987042274
 10
-1075.263581384602
 20
1272.611628794796
 42
0.0280670113687404
 10
-1074.249255574286
 20
1265.248939903185
 42
0.062047355819446
 10
-1072.123906939689
 20
1258.769571121638
 42
0.2902362924798527
 10
-1070.794037009388
 20
1257.926609432848
 42
0.2902362924798305
 10
-1069.464167079087
 20
1258.769571121638
 42
0.06204735581943
 10
-1067.33881844449
 20
1265.248939903185
 42
0.0280670113687488
 10
-1066.324492634174
 20
1272.611628794797
 42
0.0201988987042236
 10
-1065.907620053946
 20
1282.926609432848
 42
0.0201988987042199
 10
-1066.324492634174
 20
1293.241590070898
 42
0.0280670113687496
 10
-1067.33881844449
 20
1300.604278962512
 42
0.062047355819446
 10
-1069.464167079087
 20
1307.083647744058
 42
0.2902362924798724
 10
-1070.794037009388
 20
1307.926609432848
 42
0.2902362924798318
 10
-1072.123906939689
 20
1307.083647744058
 42
0.062047355819438
 10
-1074.249255574286
 20
1300.604278962512
 42
0.028067011368753
 10
-1075.263581384602
 20
1293.241590070898
 42
0.02019889870423
  0
CIRCLE
  5
368
330
1A
100
AcDbEntity
  8
PEN50
100
AcDbCircle
 10
-866.3063342642086
 20
1282.926609432848
 30
0.0
 40
45.0
  0
CIRCLE
  5
369
330
1A
100
AcDbEntity
  8
PEN50
100
AcDbCircle
 10
-866.3063342642086
 20
1282.926609432848
 30
0.0
 40
25.0
  0
LINE
  5
36A
330
1A
100
AcDbEntity
  8
PEN50
100
AcDbLine
 10
176.4349830459896
 20
94.34195814939176
 30
0.0
 11
253.693665735791
 21
283.5956352441212
 31
0.0
  0
ARC
  5
3A7
330
1A
100
AcDbEntity
  8
PEN50
100
AcDbCircle
 10
83.85232130867416
 20
132.1368089313937
 30
0.0
 40
100.0
100
AcDbArc
 50
271.0609116902642
 51
337.7933337278475
  0
ARC
  5
3A8
330
1A
100
AcDbEntity
  8
PEN50
100
AcDbCircle
 10
65.69366573579145
 20
24.78219205383538
 30
0.0
 40
7.0
100
AcDbArc
 50
91.06091169026425
 51
180.0
  0
ARC
  5
3A9
330
1A
100
AcDbEntity
  8
PEN50
100
AcDbCircle
 10
51.19366573579146
 20
24.01358780878263
 30
0.0
 40
7.5
100
AcDbArc
 50
271.0609116902642
 51
0.0
  0
LINE
  5
3AA
330
1A
100
AcDbEntity
  8
PEN50
100
AcDbLine
 10
58.69366573579146
 20
24.01358780878263
 30
0.0
 11
58.69366573579146
 21
24.78219205383538
 31
0.0
  0
LINE
  5
3B3
330
1A
100
AcDbEntity
  8
PEN50
100
AcDbLine
 10
437.1431776543199
 20
493.5956352441216
 30
0.0
 11
168.6936657357914
 21
468.5956352441212
 31
0.0
  0
LINE
  5
3B4
330
1A
100
AcDbEntity
  8
PEN50
100
AcDbLine
 10
253.693665735791
 20
283.5956352441212
 30
0.0
 11
382.2650943072198
 21
433.5956352441212
 31
0.0
  0
ARC
  5
3B5
330
1A
100
AcDbEntity
  8
PEN50
100
AcDbCircle
 10
168.6936657357914
 20
1282.926609432848
 30
0.0
 40
315.0
100
AcDbArc
 50
270.0
 51
90.0
  0
ARC
  5
3B6
330
1A
100
AcDbEntity
  8
PEN50
100
AcDbCircle
 10
118.6936657357914
 20
1282.926609432848
 30
0.0
 40
315.0
100
AcDbArc
 50
270.0
 51
90.0
  0
ARC
  5
3B7
330
1A
100
AcDbEntity
  8
PEN50
100
AcDbCircle
 10
-57.20448647005833
 20
1282.926609432848
 30
0.0
 40
197.5925610598508
100
AcDbArc
 50
270.0
 51
90.0
  0
LINE
  5
3B8
330
1A
100
AcDbEntity
  8
PEN50
100
AcDbLine
 10
-21.30633426420854
 20
990.9266094328486
 30
0.0
 11
-255.057893840611
 21
976.739031454028
 31
0.0
  0
LINE
  5
3B9
330
1A
100
AcDbEntity
  8
PEN50
100
AcDbLine
 10
-21.30633426420854
 20
1040.926609432847
 30
0.0
 11
-281.3063342642081
 21
1030.593276099514
 31
0.0
  0
ARC
  5
3BA
330
1A
100
AcDbEntity
  8
PEN50
100
AcDbCircle
 10
-287.4818539991652
 20
-744.537595384324
 30
0.0
 40
1116.684721372221
100
AcDbArc
 50
66.81892667208095
 51
88.55778266372418
  0
ARC
  5
3BB
330
1A
100
AcDbEntity
  8
PEN50
100
AcDbCircle
 10
-423.747449192766
 20
357.9963549678259
 30
0.0
 40
80.0
100
AcDbArc
 50
270.0
 51
350.5376777919743
  0
LINE
  5
3BC
330
1A
100
AcDbEntity
  8
PEN50
100
AcDbLine
 10
-328.3774020760738
 20
433.5956352441212
 30
0.0
 11
-344.8359352861948
 21
344.8444359833974
 31
0.0
  0
LINE
  5
3BD
330
1A
100
AcDbEntity
  8
PEN50
100
AcDbLine
 10
-328.3774020760738
 20
433.5956352441212
 30
0.0
 11
-284.2352664523427
 21
433.5956352441212
 31
0.0
  0
LINE
  5
3BE
330
1A
100
AcDbEntity
  8
PEN50
100
AcDbLine
 10
-284.2352664523427
 20
433.5956352441212
 30
0.0
 11
-276.6959752422185
 21
388.3598879833771
 31
0.0
  0
ARC
  5
3BF
330
1A
100
AcDbEntity
  8
PEN50
100
AcDbCircle
 10
-256.9680967655758
 20
391.6478677294844
 30
0.0
 40
20.0
100
AcDbArc
 50
189.4623222080256
 51
263.0843448737981
  0
LINE
  5
3C0
330
1A
100
AcDbEntity
  8
PEN50
100
AcDbLine
 10
-363.7214053098509
 20
1027.926609432847
 30
0.0
 11
-363.7214053098509
 21
967.9266094328486
 31
0.0
  0
ARC
  5
3C1
330
1A
100
AcDbEntity
  8
PEN50
100
AcDbCircle
 10
-353.7214053098509
 20
1027.926609432847
 30
0.0
 40
10.0
100
AcDbArc
 50
90.0
 51
180.0
  0
ARC
  5
3C2
330
1A
100
AcDbEntity
  8
PEN50
100
AcDbCircle
 10
-280.7924731217167
 20
1020.593276099514
 30
0.0
 40
10.0
100
AcDbArc
 50
0.0
 51
90.0
  0
ARC
  5
3C3
330
1A
100
AcDbEntity
  8
PEN50
100
AcDbCircle
 10
-291.3063342642085
 20
1012.185868692107
 30
0.0
 40
10.0
100
AcDbArc
 50
0.0
 51
90.0
  0
LINE
  5
3C4
330
1A
100
AcDbEntity
  8
PEN50
100
AcDbLine
 10
-321.3063342642085
 20
1022.185868692106
 30
0.0
 11
-291.3063342642085
 21
1022.185868692106
 31
0.0
  0
LINE
  5
3C5
330
1A
100
AcDbEntity
  8
PEN50
100
AcDbLine
 10
-331.3063342642085
 20
1012.185868692107
 30
0.0
 11
-331.3063342642085
 21
982.1858686921068
 31
0.0
  0
ARC
  5
3C6
330
1A
100
AcDbEntity
  8
PEN50
100
AcDbCircle
 10
-321.3063342642085
 20
1012.185868692107
 30
0.0
 40
10.0
100
AcDbArc
 50
90.0
 51
180.0
  0
ARC
  5
3C7
330
1A
100
AcDbEntity
  8
PEN50
100
AcDbCircle
 10
-245.7924731217167
 20
1002.091309212927
 30
0.0
 40
25.0
100
AcDbArc
 50
179.9999999999996
 51
272.8624052261118
  0
ARC
  5
3C8
330
1A
100
AcDbEntity
  8
PEN50
100
AcDbCircle
 10
-256.3063342642085
 20
1001.707839925973
 30
0.0
 40
25.0
100
AcDbArc
 50
179.9999999999996
 51
272.8624052261118
  0
LINE
  5
3C9
330
1A
100
AcDbEntity
  8
PEN50
100
AcDbLine
 10
-270.7924731217163
 20
1002.091309212927
 30
0.0
 11
-270.7924731217163
 21
1020.593276099514
 31
0.0
  0
LINE
  5
3CA
330
1A
100
AcDbEntity
  8
PEN50
100
AcDbLine
 10
-281.3063342642085
 20
1012.185868692107
 30
0.0
 11
-281.3063342642085
 21
1001.707839925973
 31
0.0
  0
ARC
  5
3CB
330
1A
100
AcDbEntity
  8
PEN50
100
AcDbCircle
 10
-21.42440655336577
 20
1274.923597384655
 30
0.0
 40
233.9970177407905
100
AcDbArc
 50
270.0289108134733
 51
317.8606647118951
  0
ARC
  5
3CC
330
1A
100
AcDbEntity
  8
PEN50
100
AcDbCircle
 10
-15.27401756012659
 20
1164.559094145277
 30
0.0
 40
173.7372400846463
100
AcDbArc
 50
268.010237932426
 51
344.4304377823062
  0
LINE
  5
3CD
330
1A
100
AcDbEntity
  8
PEN50
100
AcDbLine
 10
-21.30633426420854
 20
1524.926609432849
 30
0.0
 11
-281.3063342642081
 21
1535.259942766182
 31
0.0
  0
LINE
  5
3CE
330
1A
100
AcDbEntity
  8
PEN50
100
AcDbLine
 10
-21.30633426420854
 20
1574.926609432848
 30
0.0
 11
-255.057893840611
 21
1589.114187411668
 31
0.0
  0
LINE
  5
3CF
330
1A
100
AcDbEntity
  8
PEN50
100
AcDbLine
 10
-363.7214053098509
 20
1537.926609432849
 30
0.0
 11
-363.7214053098509
 21
1597.926609432848
 31
0.0
  0
ARC
  5
3D0
330
1A
100
AcDbEntity
  8
PEN50
100
AcDbCircle
 10
-353.7214053098509
 20
1537.926609432849
 30
0.0
 40
10.0
100
AcDbArc
 50
180.0
 51
270.0
  0
ARC
  5
3D1
330
1A
100
AcDbEntity
  8
PEN50
100
AcDbCircle
 10
-291.3063342642085
 20
1553.66735017359
 30
0.0
 40
10.0
100
AcDbArc
 50
270.0
 51
0.0
  0
LINE
  5
3D2
330
1A
100
AcDbEntity
  8
PEN50
100
AcDbLine
 10
-331.3063342642085
 20
1553.667350173589
 30
0.0
 11
-331.3063342642085
 21
1583.66735017359
 31
0.0
  0
LINE
  5
3D3
330
1A
100
AcDbEntity
  8
PEN50
100
AcDbLine
 10
-321.3063342642085
 20
1543.667350173589
 30
0.0
 11
-291.3063342642085
 21
1543.667350173589
 31
0.0
  0
ARC
  5
3D4
330
1A
100
AcDbEntity
  8
PEN50
100
AcDbCircle
 10
-321.3063342642085
 20
1553.66735017359
 30
0.0
 40
10.0
100
AcDbArc
 50
180.0
 51
270.0
  0
ARC
  5
3D5
330
1A
100
AcDbEntity
  8
PEN50
100
AcDbCircle
 10
-256.3063342642085
 20
1564.145378939723
 30
0.0
 40
25.0
100
AcDbArc
 50
87.13759477388817
 51
180.0000000000004
  0
ARC
  5
3D6
330
1A
100
AcDbEntity
  8
PEN50
100
AcDbCircle
 10
-245.7924731217167
 20
1563.761909652768
 30
0.0
 40
25.0
100
AcDbArc
 50
87.13759477388817
 51
180.0000000000004
  0
LINE
  5
3D7
330
1A
100
AcDbEntity
  8
PEN50
100
AcDbLine
 10
-281.3063342642085
 20
1553.66735017359
 30
0.0
 11
-281.3063342642085
 21
1564.145378939723
 31
0.0
  0
ARC
  5
3D8
330
1A
100
AcDbEntity
  8
PEN50
100
AcDbCircle
 10
-280.7924731217167
 20
1545.259942766182
 30
0.0
 40
10.0
100
AcDbArc
 50
270.0
 51
0.0
  0
LINE
  5
3D9
330
1A
100
AcDbEntity
  8
PEN50
100
AcDbLine
 10
-270.7924731217163
 20
1563.761909652768
 30
0.0
 11
-270.7924731217163
 21
1545.259942766182
 31
0.0
  0
ARC
  5
3DA
330
1A
100
AcDbEntity
  8
PEN50
100
AcDbCircle
 10
-21.42440655336577
 20
1290.929621481041
 30
0.0
 40
233.9970177407905
100
AcDbArc
 50
42.13933528810483
 51
89.97108918652662
  0
ARC
  5
3DB
330
1A
100
AcDbEntity
  8
PEN50
100
AcDbCircle
 10
-15.27401756012659
 20
1401.29412472042
 30
0.0
 40
173.7372400846463
100
AcDbArc
 50
15.56956221769374
 51
91.98976206757397
  0
LINE
  5
3DC
330
1A
100
AcDbEntity
  8
PEN50
100
AcDbLine
 10
523.6936657357914
 20
1657.926609432848
 30
0.0
 11
523.6936657357914
 21
907.9266094328486
 31
0.0
  0
ARC
  5
3DD
330
1A
100
AcDbEntity
  8
PEN50
100
AcDbCircle
 10
483.6936657357914
 20
488.5956352441212
 30
0.0
 40
20.0
100
AcDbArc
 50
235.4701089131841
 51
270.0
  0
LINE
  5
3DE
330
1A
100
AcDbEntity
  8
PEN50
100
AcDbLine
 10
443.06349137398
 20
492.2743646207513
 30
0.0
 11
472.3569436415241
 21
472.1190235731087
 31
0.0
  0
ARC
  5
3DF
330
1A
100
AcDbEntity
  8
PEN50
100
AcDbCircle
 10
438.8122205886297
 20
486.0956352441217
 30
0.0
 40
7.5
100
AcDbArc
 50
55.47010891318466
 51
89.9999999999998
  0
LINE
  5
3E0
330
1A
100
AcDbEntity
  8
PEN50
100
AcDbLine
 10
437.1431776543199
 20
493.5956352441216
 30
0.0
 11
438.8122205886297
 21
493.5956352441216
 31
0.0
  0
LINE
  5
3E1
330
1A
100
AcDbEntity
  8
PEN50
100
AcDbLine
 10
523.6936657357914
 20
468.5956352441212
 30
0.0
 11
523.6936657357914
 21
433.5956352441212
 31
0.0
  0
ARC
  5
E68
330
1A
100
AcDbEntity
  8
PEN50
100
AcDbCircle
 10
-1093.205759663594
 20
408.1795342295444
 30
0.0
 40
24.80102900400737
100
AcDbArc
 50
332.057774453116
 51
51.48264980063854
  0
VIEWPORT
  5
22
330
17
100
AcDbEntity
 67
     1
  8
0
100
AcDbViewport
 10
260.0916871301274
 20
157.3475831372462
 30
0.0
 40
655.3166290165939
 41
391.2428899328411
 68
     1
 69
     1
1001
ACAD
1000
MVIEW
1002
{
1070
    16
1010
0.0
1020
0.0
1030
0.0
1010
0.0
1020
0.0
1030
1.0
1040
0.0
1040
391.2428899328411
1040
260.0916871301274
1040
157.3475831372462
1040
50.0
1040
0.0
1040
0.0
1070
     0
1070
   100
1070
     1
1070
     1
1070
     0
1070
     0
1070
     0
1070
     0
1040
0.0
1040
0.0
1040
0.0
1040
1.0
1040
1.0
1040
10.0
1040
10.0
1070
     0
1002
{
1002
}
1002
}
  0
VIEWPORT
  5
DC
330
17
100
AcDbEntity
 67
     1
  8
VIEWPORT
100
AcDbViewport
 10
221.8219409082489
 20
148.5
 30
0.0
 40
403.6438818164979
 41
277.0
 68
     2
 69
     2
1001
ACAD
1000
MVIEW
1002
{
1070
    16
1010
0.0
1020
0.0
1030
0.0
1010
0.0
1020
0.0
1030
1.0
1040
0.0
1040
2770.000003566677
1040
402.9215964270298
1040
767.7313219024882
1040
50.0
1040
0.0
1040
0.0
1070
     0
1070
   100
1070
     1
1070
     1
1070
     0
1070
     0
1070
     0
1070
     0
1040
0.0
1040
0.0
1040
0.0
1040
1.0
1040
1.0
1040
10.0
1040
10.0
1070
     0
1002
{
1002
}
1002
}
  0
LWPOLYLINE
  5
DD
330
17
100
AcDbEntity
 67
     1
  8
KADER
100
AcDbPolyline
 90
        4
 70
     1
 43
0.0
 10
20.0
 20
10.0
 10
423.6438818164979
 20
10.0
 10
423.6438818164979
 20
287.0
 10
20.0
 20
287.0
  0
ENDSEC
  0
SECTION
  2
OBJECTS
  0
DICTIONARY
  5
C
330
0
100
AcDbDictionary
  3
ACAD_GROUP
350
D
  3
ACAD_LAYOUT
350
60F
  3
ACAD_MLINESTYLE
350
E
  3
ACAD_PLOTSETTINGS
350
610
  3
ACAD_PLOTSTYLENAME
350
60D
  3
ACDBHEADERROUNDTRIPXREC
350
2467
  3
ACDBVARIABLEDICTIONARY
350
5D
  0
DICTIONARY
  5
144D
330
1A
100
AcDbDictionary
280
     1
  3
ACAD_LAYOUTSELFREF
360
2488
  0
DICTIONARY
  5
144B
330
17
100
AcDbDictionary
280
     1
  3
ACAD_LAYOUTSELFREF
360
2487
  0
DICTIONARY
  5
D
102
{ACAD_REACTORS
330
C
102
}
330
C
100
AcDbDictionary
  0
DICTIONARY
  5
60F
102
{ACAD_REACTORS
330
C
102
}
330
C
100
AcDbDictionary
  0
DICTIONARY
  5
E
102
{ACAD_REACTORS
330
C
102
}
330
C
100
AcDbDictionary
  3
STANDARD
350
13
  0
DICTIONARY
  5
610
102
{ACAD_REACTORS
330
C
102
}
330
C
100
AcDbDictionary
  0
ACDBDICTIONARYWDFLT
  5
60D
102
{ACAD_REACTORS
330
C
102
}
330
C
100
AcDbDictionary
281
     1
  3
Normal
350
60E
100
AcDbDictionaryWithDefault
340
60E
  0
DICTIONARY
  5
2467
102
{ACAD_REACTORS
330
C
102
}
330
C
100
AcDbDictionary
  3
CEPSNTYPE
350
2471
  3
FINGERPRINTGUID
350
2472
  3
HYPERLINKBASE
350
246A
  3
INSUNITS
350
2470
  3
LAYOUTDICT
350
246C
  3
LWETCUNION
350
246F
  3
PLOTSETDICT
350
246D
  3
PLOTSTYLNAMDICT
350
246E
  3
PSVPSCALE
350
2474
  3
PUCSBASE
350
2477
  3
PUCSORGBACK
350
247D
  3
PUCSORGBOTTOM
350
2479
  3
PUCSORGFRONT
350
247C
  3
PUCSORGLEFT
350
247A
  3
PUCSORGRIGHT
350
247B
  3
PUCSORGTOP
350
2478
  3
PUCSORTHOREF
350
2475
  3
PUCSORTHOVIEW
350
2476
  3
STYLESHEET
350
246B
  3
TSTACKALIGN
350
2468
  3
TSTACKSIZE
350
2469
  3
UCSBASE
350
2480
  3
UCSORGBACK
350
2486
  3
UCSORGBOTTOM
350
2482
  3
UCSORGFRONT
350
2485
  3
UCSORGLEFT
350
2483
  3
UCSORGRIGHT
350
2484
  3
UCSORGTOP
350
2481
  3
UCSORTHOREF
350
247E
  3
UCSORTHOVIEW
350
247F
  3
VERSIONGUID
350
2473
  0
DICTIONARY
  5
5D
102
{ACAD_REACTORS
330
C
102
}
330
C
100
AcDbDictionary
  3
DIMADEC
350
5E
  3
DIMASSOC
350
157C
  0
XRECORD
  5
2488
102
{ACAD_REACTORS
330
144D
102
}
330
144D
100
AcDbXrecord
340
1A
  0
XRECORD
  5
2487
102
{ACAD_REACTORS
330
144B
102
}
330
144B
100
AcDbXrecord
340
17
  0
MLINESTYLE
  5
13
102
{ACAD_REACTORS
330
E
102
}
330
E
100
AcDbMlineStyle
  2
STANDARD
 70
     0
  3

 62
     0
 51
90.0
 52
90.0
 71
     2
 49
0.5
 62
   256
  6
BYLAYER
 49
-0.5
 62
   256
  6
BYLAYER
  0
ACDBPLACEHOLDER
  5
60E
102
{ACAD_REACTORS
330
60D
102
}
330
60D
100
AcDbPlaceHolder
280
     0
  0
XRECORD
  5
2471
102
{ACAD_REACTORS
330
2467
102
}
330
2467
100
AcDbXrecord
 90
        0
  0
XRECORD
  5
2472
102
{ACAD_REACTORS
330
2467
102
}
330
2467
100
AcDbXrecord
  1
{DD11F0D2-C230-4557-BDB4-1C78018ACD07}
  0
XRECORD
  5
246A
102
{ACAD_REACTORS
330
2467
102
}
330
2467
100
AcDbXrecord
  1

  0
XRECORD
  5
2470
102
{ACAD_REACTORS
330
2467
102
}
330
2467
100
AcDbXrecord
 90
        0
  0
XRECORD
  5
246C
102
{ACAD_REACTORS
330
2467
102
}
330
2467
100
AcDbXrecord
340
60F
  0
XRECORD
  5
246F
102
{ACAD_REACTORS
330
2467
102
}
330
2467
100
AcDbXrecord
 90
    14877
  0
XRECORD
  5
246D
102
{ACAD_REACTORS
330
2467
102
}
330
2467
100
AcDbXrecord
340
610
  0
XRECORD
  5
246E
102
{ACAD_REACTORS
330
2467
102
}
330
2467
100
AcDbXrecord
340
60D
  0
XRECORD
  5
2474
102
{ACAD_REACTORS
330
2467
102
}
330
2467
100
AcDbXrecord
 40
0.0
  0
XRECORD
  5
2477
102
{ACAD_REACTORS
330
2467
102
}
330
2467
100
AcDbXrecord
340
0
  0
XRECORD
  5
247D
102
{ACAD_REACTORS
330
2467
102
}
330
2467
100
AcDbXrecord
 10
0.0
 20
0.0
 30
0.0
  0
XRECORD
  5
2479
102
{ACAD_REACTORS
330
2467
102
}
330
2467
100
AcDbXrecord
 10
0.0
 20
0.0
 30
0.0
  0
XRECORD
  5
247C
102
{ACAD_REACTORS
330
2467
102
}
330
2467
100
AcDbXrecord
 10
0.0
 20
0.0
 30
0.0
  0
XRECORD
  5
247A
102
{ACAD_REACTORS
330
2467
102
}
330
2467
100
AcDbXrecord
 10
0.0
 20
0.0
 30
0.0
  0
XRECORD
  5
247B
102
{ACAD_REACTORS
330
2467
102
}
330
2467
100
AcDbXrecord
 10
0.0
 20
0.0
 30
0.0
  0
XRECORD
  5
2478
102
{ACAD_REACTORS
330
2467
102
}
330
2467
100
AcDbXrecord
 10
0.0
 20
0.0
 30
0.0
  0
XRECORD
  5
2475
102
{ACAD_REACTORS
330
2467
102
}
330
2467
100
AcDbXrecord
340
0
  0
XRECORD
  5
2476
102
{ACAD_REACTORS
330
2467
102
}
330
2467
100
AcDbXrecord
 70
     0
  0
XRECORD
  5
246B
102
{ACAD_REACTORS
330
2467
102
}
330
2467
100
AcDbXrecord
  1

  0
XRECORD
  5
2468
102
{ACAD_REACTORS
330
2467
102
}
330
2467
100
AcDbXrecord
 90
        1
  0
XRECORD
  5
2469
102
{ACAD_REACTORS
330
2467
102
}
330
2467
100
AcDbXrecord
 90
       70
  0
XRECORD
  5
2480
102
{ACAD_REACTORS
330
2467
102
}
330
2467
100
AcDbXrecord
340
0
  0
XRECORD
  5
2486
102
{ACAD_REACTORS
330
2467
102
}
330
2467
100
AcDbXrecord
 10
0.0
 20
0.0
 30
0.0
  0
XRECORD
  5
2482
102
{ACAD_REACTORS
330
2467
102
}
330
2467
100
AcDbXrecord
 10
0.0
 20
0.0
 30
0.0
  0
XRECORD
  5
2485
102
{ACAD_REACTORS
330
2467
102
}
330
2467
100
AcDbXrecord
 10
0.0
 20
0.0
 30
0.0
  0
XRECORD
  5
2483
102
{ACAD_REACTORS
330
2467
102
}
330
2467
100
AcDbXrecord
 10
0.0
 20
0.0
 30
0.0
  0
XRECORD
  5
2484
102
{ACAD_REACTORS
330
2467
102
}
330
2467
100
AcDbXrecord
 10
0.0
 20
0.0
 30
0.0
  0
XRECORD
  5
2481
102
{ACAD_REACTORS
330
2467
102
}
330
2467
100
AcDbXrecord
 10
0.0
 20
0.0
 30
0.0
  0
XRECORD
  5
247E
102
{ACAD_REACTORS
330
2467
102
}
330
2467
100
AcDbXrecord
340
0
  0
XRECORD
  5
247F
102
{ACAD_REACTORS
330
2467
102
}
330
2467
100
AcDbXrecord
 70
     0
  0
XRECORD
  5
2473
102
{ACAD_REACTORS
330
2467
102
}
330
2467
100
AcDbXrecord
  1
{B0F97479-604D-4A2D-A0E2-453A10DCC9FB}
  0
DICTIONARYVAR
  5
5E
102
{ACAD_REACTORS
330
5D
102
}
330
5D
100
DictionaryVariables
280
     0
  1
0
  0
DICTIONARYVAR
  5
157C
102
{ACAD_REACTORS
330
5D
102
}
330
5D
100
DictionaryVariables
280
     0
  1
1
  0
ENDSEC
  0
EOF
