  0
SECTION
  2
HEADER
  9
$ACADVER
  1
AC1014
  9
$ACADMAINTVER
 70
     9
  9
$DWGCODEPAGE
  3
ANSI_1250
  9
$INSBASE
 10
0.0
 20
0.0
 30
0.0
  9
$EXTMIN
 10
3.948609998063901
 20
3.754852348187533
 30
-0.0015258207003583
  9
$EXTMAX
 10
14.61887517366428
 20
16.24058537050219
 30
0.0000000349246037
  9
$LIMMIN
 10
0.0
 20
0.0
  9
$LIMMAX
 10
0.0
 20
0.0
  9
$ORTHOMODE
 70
     0
  9
$REGENMODE
 70
     1
  9
$FILLMODE
 70
     1
  9
$QTEXTMODE
 70
     0
  9
$MIRRTEXT
 70
     1
  9
$DRAGMODE
 70
     2
  9
$LTSCALE
 40
1.0
  9
$OSMODE
 70
  1007
  9
$ATTMODE
 70
     1
  9
$TEXTSIZE
 40
2.5
  9
$TRACEWID
 40
1.0
  9
$TEXTSTYLE
  7
STANDARD
  9
$CLAYER
  8
0
  9
$CELTYPE
  6
BYLAYER
  9
$CECOLOR
 62
   256
  9
$CELTSCALE
 40
1.0
  9
$DELOBJ
 70
     1
  9
$DISPSILH
 70
     0
  9
$DIMSCALE
 40
1.0
  9
$DIMASZ
 40
0.3
  9
$DIMEXO
 40
0.1
  9
$DIMDLI
 40
3.75
  9
$DIMRND
 40
0.0
  9
$DIMDLE
 40
0.0
  9
$DIMEXE
 40
0.1
  9
$DIMTP
 40
0.0
  9
$DIMTM
 40
0.0
  9
$DIMTXT
 40
0.2822222222222222
  9
$DIMCEN
 40
2.5
  9
$DIMTSZ
 40
0.0
  9
$DIMTOL
 70
     0
  9
$DIMLIM
 70
     0
  9
$DIMTIH
 70
     1
  9
$DIMTOH
 70
     1
  9
$DIMSE1
 70
     0
  9
$DIMSE2
 70
     0
  9
$DIMTAD
 70
     1
  9
$DIMZIN
 70
     0
  9
$DIMBLK
  1

  9
$DIMASO
 70
     1
  9
$DIMSHO
 70
     1
  9
$DIMPOST
  1

  9
$DIMAPOST
  1

  9
$DIMALT
 70
     0
  9
$DIMALTD
 70
     3
  9
$DIMALTF
 40
0.3937007874015748
  9
$DIMLFAC
 40
15.0
  9
$DIMTOFL
 70
     1
  9
$DIMTVP
 40
0.0
  9
$DIMTIX
 70
     0
  9
$DIMSOXD
 70
     0
  9
$DIMSAH
 70
     0
  9
$DIMBLK1
  1

  9
$DIMBLK2
  1

  9
$DIMSTYLE
  2
ISO-25
  9
$DIMCLRD
 70
     0
  9
$DIMCLRE
 70
     0
  9
$DIMCLRT
 70
     0
  9
$DIMTFAC
 40
1.0
  9
$DIMGAP
 40
0.1524
  9
$DIMJUST
 70
     0
  9
$DIMSD1
 70
     0
  9
$DIMSD2
 70
     0
  9
$DIMTOLJ
 70
     0
  9
$DIMTZIN
 70
     0
  9
$DIMALTZ
 70
     0
  9
$DIMALTTZ
 70
     0
  9
$DIMFIT
 70
     3
  9
$DIMUPT
 70
     0
  9
$DIMUNIT
 70
     2
  9
$DIMDEC
 70
     2
  9
$DIMTDEC
 70
     2
  9
$DIMALTU
 70
     2
  9
$DIMALTTD
 70
     3
  9
$DIMTXSTY
  7
STANDARD
  9
$DIMAUNIT
 70
     0
  9
$LUNITS
 70
     2
  9
$LUPREC
 70
     2
  9
$SKETCHINC
 40
1.0
  9
$FILLETRAD
 40
10.0
  9
$AUNITS
 70
     0
  9
$AUPREC
 70
     0
  9
$MENU
  1
.
  9
$ELEVATION
 40
0.0
  9
$PELEVATION
 40
0.0
  9
$THICKNESS
 40
0.0
  9
$LIMCHECK
 70
     0
  9
$BLIPMODE
 70
     0
  9
$CHAMFERA
 40
10.0
  9
$CHAMFERB
 40
10.0
  9
$CHAMFERC
 40
20.0
  9
$CHAMFERD
 40
0.0
  9
$SKPOLY
 70
     0
  9
$TDCREATE
 40
2454418.387253321
  9
$TDUPDATE
 40
2454420.425027488
  9
$TDINDWG
 40
0.0005743750
  9
$TDUSRTIMER
 40
0.0005743750
  9
$USRTIMER
 70
     1
  9
$ANGBASE
 50
0.0
  9
$ANGDIR
 70
     0
  9
$PDMODE
 70
     0
  9
$PDSIZE
 40
-1.0
  9
$PLINEWID
 40
0.0
  9
$COORDS
 70
     1
  9
$SPLFRAME
 70
     0
  9
$SPLINETYPE
 70
     6
  9
$SPLINESEGS
 70
     8
  9
$ATTDIA
 70
     0
  9
$ATTREQ
 70
     1
  9
$HANDLING
 70
 22529
  9
$HANDSEED
  5
2C8
  9
$SURFTAB1
 70
     6
  9
$SURFTAB2
 70
     6
  9
$SURFTYPE
 70
     6
  9
$SURFU
 70
     6
  9
$SURFV
 70
     6
  9
$UCSNAME
  2

  9
$UCSORG
 10
0.0
 20
0.0
 30
0.0
  9
$UCSXDIR
 10
1.0
 20
0.0
 30
0.0
  9
$UCSYDIR
 10
0.0
 20
1.0
 30
0.0
  9
$PUCSNAME
  2

  9
$PUCSORG
 10
0.0
 20
0.0
 30
0.0
  9
$PUCSXDIR
 10
1.0
 20
0.0
 30
0.0
  9
$PUCSYDIR
 10
0.0
 20
1.0
 30
0.0
  9
$USERI1
 70
     0
  9
$USERI2
 70
     0
  9
$USERI3
 70
     0
  9
$USERI4
 70
     0
  9
$USERI5
 70
     0
  9
$USERR1
 40
0.0
  9
$USERR2
 40
0.0
  9
$USERR3
 40
0.0
  9
$USERR4
 40
0.0
  9
$USERR5
 40
0.0
  9
$WORLDVIEW
 70
     1
  9
$SHADEDGE
 70
     3
  9
$SHADEDIF
 70
    70
  9
$TILEMODE
 70
     1
  9
$MAXACTVP
 70
    64
  9
$PINSBASE
 10
0.0
 20
0.0
 30
0.0
  9
$PLIMCHECK
 70
     0
  9
$PEXTMIN
 10
1.000000000000000E+20
 20
1.000000000000000E+20
 30
1.000000000000000E+20
  9
$PEXTMAX
 10
-1.000000000000000E+20
 20
-1.000000000000000E+20
 30
-1.000000000000000E+20
  9
$PLIMMIN
 10
0.0
 20
0.0
  9
$PLIMMAX
 10
420.0
 20
297.0
  9
$UNITMODE
 70
     0
  9
$VISRETAIN
 70
     1
  9
$PLINEGEN
 70
     0
  9
$PSLTSCALE
 70
     1
  9
$TREEDEPTH
 70
  3020
  9
$PICKSTYLE
 70
     1
  9
$CMLSTYLE
  2
STANDARD
  9
$CMLJUST
 70
     0
  9
$CMLSCALE
 40
20.0
  9
$PROXYGRAPHICS
 70
     1
  9
$MEASUREMENT
 70
     1
  0
ENDSEC
  0
SECTION
  2
CLASSES
  0
CLASS
  1
ACDBDICTIONARYWDFLT
  2
AcDbDictionaryWithDefault
  3
AutoCAD 2000
 90
        0
280
     0
281
     0
  0
CLASS
  1
ACDBPLACEHOLDER
  2
AcDbPlaceHolder
  3
AutoCAD 2000
 90
        0
280
     0
281
     0
  0
CLASS
  1
LAYOUT
  2
AcDbLayout
  3
AutoCAD 2000
 90
        0
280
     0
281
     0
  0
CLASS
  1
DICTIONARYVAR
  2
AcDbDictionaryVar
  3
AutoCAD 2000
 90
        0
280
     0
281
     0
  0
CLASS
  1
LONG_TRANSACTION
  2
AcDbLongTransaction
  3
AutoCAD 2000
 90
        0
280
     0
281
     0
  0
CLASS
  1
LWPOLYLINE
  2
AcDbPolyline
  3
AutoCAD 2000
 90
        0
280
     0
281
     1
  0
CLASS
  1
HATCH
  2
AcDbHatch
  3
AutoCAD 2000
 90
        0
280
     0
281
     1
  0
CLASS
  1
XRECORD
  2
AcDbXrecord
  3
AutoCAD 2000
 90
        0
280
     0
281
     0
  0
ENDSEC
  0
SECTION
  2
TABLES
  0
TABLE
  2
VPORT
  5
8
330
0
100
AcDbSymbolTable
 70
     3
  0
VPORT
  5
2A0
330
8
100
AcDbSymbolTableRecord
100
AcDbViewportTableRecord
  2
*ACTIVE
 70
     0
 10
0.0
 20
0.0
 11
1.0
 21
1.0
 12
9.283742585864093
 22
9.99771885934486
 13
0.0
 23
0.0
 14
10.0
 24
10.0
 15
10.0
 25
10.0
 16
0.0
 26
0.0
 36
1.0
 17
0.0
 27
0.0
 37
0.0
 40
12.60874517031775
 41
1.981907894736842
 42
50.0
 43
0.0
 44
0.0
 50
0.0
 51
0.0
 71
     0
 72
  2000
 73
     1
 74
     3
 75
     0
 76
     0
 77
     0
 78
     0
  0
ENDTAB
  0
TABLE
  2
LTYPE
  5
5
330
0
100
AcDbSymbolTable
 70
     6
  0
LTYPE
  5
14
330
5
100
AcDbSymbolTableRecord
100
AcDbLinetypeTableRecord
  2
BYBLOCK
 70
     0
  3

 72
    65
 73
     0
 40
0.0
  0
LTYPE
  5
15
330
5
100
AcDbSymbolTableRecord
100
AcDbLinetypeTableRecord
  2
BYLAYER
 70
     0
  3

 72
    65
 73
     0
 40
0.0
  0
LTYPE
  5
16
330
5
100
AcDbSymbolTableRecord
100
AcDbLinetypeTableRecord
  2
CONTINUOUS
 70
     0
  3
Solid line
 72
    65
 73
     0
 40
0.0
  0
ENDTAB
  0
TABLE
  2
LAYER
  5
2
330
0
100
AcDbSymbolTable
 70
     3
  0
LAYER
  5
10
330
2
100
AcDbSymbolTableRecord
100
AcDbLayerTableRecord
  2
0
 70
     0
 62
     7
  6
CONTINUOUS
  0
ENDTAB
  0
TABLE
  2
STYLE
  5
3
330
0
100
AcDbSymbolTable
 70
     4
  0
STYLE
  5
11
330
3
100
AcDbSymbolTableRecord
100
AcDbTextStyleTableRecord
  2
STANDARD
 70
     0
 40
0.0
 41
1.0
 50
0.0
 71
     0
 42
2.5
  3
ARIAL.TTF
  4

1001
ACAD
1000
Arial
1071
       34
  0
ENDTAB
  0
TABLE
  2
VIEW
  5
6
330
0
100
AcDbSymbolTable
 70
     0
  0
ENDTAB
  0
TABLE
  2
UCS
  5
7
330
0
100
AcDbSymbolTable
 70
     0
  0
ENDTAB
  0
TABLE
  2
APPID
  5
9
330
0
100
AcDbSymbolTable
 70
     1
  0
APPID
  5
12
330
9
100
AcDbSymbolTableRecord
100
AcDbRegAppTableRecord
  2
ACAD
 70
     0
  0
ENDTAB
  0
TABLE
  2
DIMSTYLE
  5
A
330
0
100
AcDbSymbolTable
 70
     7
  0
DIMSTYLE
105
27
330
A
100
AcDbSymbolTableRecord
100
AcDbDimStyleTableRecord
  2
ISO-25
 70
     0
  3

  4

  5

  6

  7

 40
1.0
 41
2.5
 42
0.625
 43
3.75
 44
1.25
 45
0.0
 46
0.0
 47
0.0
 48
0.0
140
2.5
141
2.5
142
0.0
143
0.03937007874016
144
1.0
145
0.0
146
1.0
147
0.625
 71
     0
 72
     0
 73
     0
 74
     0
 75
     0
 76
     0
 77
     1
 78
     8
170
     0
171
     3
172
     1
173
     0
174
     0
175
     0
176
     0
177
     0
178
     0
270
     2
271
     2
272
     2
273
     2
274
     3
340
11
275
     0
280
     0
281
     0
282
     0
283
     0
284
     8
285
     0
286
     0
287
     3
288
     0
  0
ENDTAB
  0
TABLE
  2
BLOCK_RECORD
  5
1
330
0
100
AcDbSymbolTable
 70
    27
  0
BLOCK_RECORD
  5
1F
102
{ACAD_XDICTIONARY
360
2C4
102
}
330
1
100
AcDbSymbolTableRecord
100
AcDbBlockTableRecord
  2
*MODEL_SPACE
  0
BLOCK_RECORD
  5
1B
102
{ACAD_XDICTIONARY
360
2C2
102
}
330
1
100
AcDbSymbolTableRecord
100
AcDbBlockTableRecord
  2
*PAPER_SPACE
  0
ENDTAB
  0
ENDSEC
  0
SECTION
  2
BLOCKS
  0
BLOCK
  5
20
330
1F
100
AcDbEntity
  8
0
100
AcDbBlockBegin
  2
*MODEL_SPACE
 70
     0
 10
0.0
 20
0.0
 30
0.0
  3
*MODEL_SPACE
  1

  0
ENDBLK
  5
21
330
1F
100
AcDbEntity
  8
0
100
AcDbBlockEnd
  0
BLOCK
  5
1C
330
1B
100
AcDbEntity
 67
     1
  8
0
100
AcDbBlockBegin
  2
*PAPER_SPACE
 70
     0
 10
0.0
 20
0.0
 30
0.0
  3
*PAPER_SPACE
  1

  0
ENDBLK
  5
1D
330
1B
100
AcDbEntity
 67
     1
  8
0
100
AcDbBlockEnd
  0
ENDSEC
  0
SECTION
  2
ENTITIES
  0
POINT
  5
D6
330
1F
100
AcDbEntity
  8
0
100
AcDbPoint
 10
3.950108127040649
 20
14.60191991447651
 30
0.0
  0
LINE
  5
D7
330
1F
100
AcDbEntity
  8
0
100
AcDbLine
 10
3.950108127040649
 20
12.90676498738261
 30
0.0
 11
11.4681347054269
 21
10.90676498738261
 31
0.0
  0
LWPOLYLINE
  5
D8
330
1F
100
AcDbEntity
  8
0
100
AcDbPolyline
 90
       20
 70
   128
 43
0.0
 10
11.43796773053933
 20
11.37410549987388
 10
11.38560329427228
 20
11.38386235916236
 10
11.3335062414342
 20
11.39499465058934
 10
11.28162869480667
 20
11.40720841425914
 10
11.22992277717131
 20
11.4202096902761
 10
11.17834061130973
 20
11.43370451874454
 10
11.12683432000352
 20
11.44739893976877
 10
9.448355136028929
 20
11.89392015553571
 10
7.578505731829629
 20
12.39135106634813
 10
6.348326155291267
 20
12.71861236656088
 10
5.538987292421651
 20
12.93391856544993
 10
5.340217285640624
 20
12.98679680542649
 10
5.290563897158728
 20
13.00057163494217
 10
5.241251666429837
 20
13.0156023243834
 10
5.192452345563173
 20
13.03216608468103
 10
5.144337686667957
 20
13.05054012676587
 10
5.096079178081383
 20
13.07118078029767
 10
5.048582456884795
 20
13.09360219996801
 10
5.001942654922536
 20
13.11775549743444
 10
4.956254904038954
 20
13.14359178435446
  0
ARC
  5
D9
330
1F
100
AcDbEntity
  8
0
100
AcDbCircle
 10
5.686285419069592
 20
14.38012426000551
 30
0.0
 40
1.435951641322094
100
AcDbArc
 50
204.8580982902423
 51
239.4430250271341
  0
ARC
  5
DA
330
1F
100
AcDbEntity
  8
0
100
AcDbCircle
 10
5.67606878706486
 20
14.37553374340863
 30
0.0
 40
1.424751842661718
100
AcDbArc
 50
151.1211484450371
 51
204.8633091623278
  0
LINE
  5
DB
330
1F
100
AcDbEntity
  8
0
100
AcDbLine
 10
3.950108127040649
 20
16.24009832071594
 30
0.0
 11
3.950108127040649
 21
12.90676498738261
 31
0.0
  0
ARC
  5
DC
330
1F
100
AcDbEntity
  8
0
100
AcDbCircle
 10
11.83219914876143
 20
13.57401984017973
 30
0.0
 40
2.212685536518116
100
AcDbArc
 50
330.1043272165669
 51
29.87336150627758
  0
LINE
  5
DD
330
1F
100
AcDbEntity
  8
0
100
AcDbLine
 10
14.61677479370731
 20
10.90676498738261
 30
0.0
 11
14.61677479370731
 21
16.24009832071594
 31
0.0
  0
LWPOLYLINE
  5
DE
330
1F
100
AcDbEntity
  8
0
100
AcDbPolyline
 90
       57
 70
   128
 43
0.0
 10
5.333975411358711
 20
13.02671572897418
 10
5.346788396309768
 20
13.02125242457877
 10
5.361049373161315
 20
13.01565047036935
 10
5.376490148935535
 20
13.01001521710812
 10
5.39297935434003
 20
13.00440018844302
 10
5.41034667466675
 20
12.99885815675049
 10
5.428265498814391
 20
12.99349334588547
 10
5.446571891846114
 20
12.98835964483842
 10
5.465087522025484
 20
12.9835023576956
 10
5.483464183051788
 20
12.97901283095566
 10
5.501523856764308
 20
12.9749392433767
 10
5.519100299948722
 20
12.97131432306272
 10
5.535862968723905
 20
12.96820624053133
 10
5.551639831902474
 20
12.96565203251872
 10
5.566295477453556
 20
12.96366816130121
 10
5.579554290230788
 20
12.96229193570661
 10
5.591269621231513
 20
12.96154507483817
 10
5.601352156287584
 20
12.96142591914774
 10
5.609612282504399
 20
12.961936709486
 10
5.61594526662663
 20
12.96308139865914
 10
5.620317961843803
 20
12.964840392396
 10
5.622648134928583
 20
12.96718061093121
 10
5.622884776253036
 20
12.970087795125
 10
5.621054643415787
 20
12.97352662508862
 10
5.617192154029357
 20
12.97743242993329
 10
5.611305773041799
 20
12.98177434618307
 10
5.603479145744581
 20
12.98650531038119
 10
5.593859460265345
 20
12.99153635166755
 10
5.582513701769457
 20
12.9968234818529
 10
5.569572972869122
 20
13.00231319996014
 10
5.555280637862245
 20
13.00790226594744
 10
5.53975465006224
 20
13.01353852624686
 10
5.523158788577041
 20
13.0191680741903
 10
5.505805156396332
 20
13.02468504008578
 10
5.487849376640254
 20
13.03003498490582
 10
5.469469440060436
 20
13.03516967385924
 10
5.451011001093791
 20
13.03999254360856
 10
5.43264980734091
 20
13.04445300725416
 10
5.414557994090068
 20
13.04851393998858
 10
5.397075797309696
 20
13.05209897161264
 10
5.380377720438638
 20
13.05516124460272
 10
5.364612420864328
 20
13.05768562046484
 10
5.350081365347748
 20
13.05964330756966
 10
5.336954131972125
 20
13.06105585017812
 10
5.32533776044027
 20
13.06192677800768
 10
5.315440065089606
 20
13.06220025891599
 10
5.307372135940348
 20
13.06182722840514
 10
5.301174176510265
 20
13.06079504091229
 10
5.296957293385446
 20
13.05910253974331
 10
5.294785234760781
 20
13.05673977276671
 10
5.294651674830759
 20
13.05374046597164
 10
5.296560881804913
 20
13.05016788413539
 10
5.300524403474248
 20
13.04606198762289
 10
5.306483998207855
 20
13.04149503152886
 10
5.314335895608823
 20
13.03658311387528
 10
5.323395763060107
 20
13.03172240144458
 10
5.333975411358713
 20
13.02671572897418
  0
LINE
  5
DF
330
1F
100
AcDbEntity
  8
0
100
AcDbLine
 10
11.18286448826861
 20
15.41789748501269
 30
0.0
 11
10.28701215141316
 21
15.41517097790094
 31
0.0
  0
ARC
  5
E0
330
1F
100
AcDbEntity
  8
0
100
AcDbCircle
 10
10.3077570464447
 20
6.77636508376827
 30
0.0
 40
8.638830802091872
100
AcDbArc
 50
90.13758760893937
 51
91.51174419165656
  0
ARC
  5
E1
330
1F
100
AcDbEntity
  8
0
100
AcDbCircle
 10
9.442131534319328
 20
37.81326668095479
 30
0.0
 40
22.41015311489485
100
AcDbArc
 50
270.2471573923598
 51
271.630664207766
  0
LWPOLYLINE
  5
E2
330
1F
100
AcDbEntity
  8
0
100
AcDbPolyline
 90
        9
 70
   128
 43
0.0
 10
9.538802142092988
 20
15.40332207087991
 10
8.4028078889646
 20
15.39993556164193
 10
7.266800165638469
 20
15.39665068618284
 10
6.90043168716777
 20
15.39565409995789
 10
6.534052727296992
 20
15.39475130264266
 10
6.289776063757032
 20
15.3942467126149
 10
6.045487227521554
 20
15.393894804776
 10
5.80119199344415
 20
15.39377250168421
 10
5.801191593444198
 20
15.39377250171391
  0
ARC
  5
E3
330
1F
100
AcDbEntity
  8
0
100
AcDbCircle
 10
5.804330897599268
 20
14.35949876806934
 30
0.0
 40
1.034278497957709
100
AcDbArc
 50
90.17390785483062
 51
254.9288835727569
  0
LWPOLYLINE
  5
E4
330
1F
100
AcDbEntity
  8
0
100
AcDbPolyline
 90
       11
 70
   128
 43
0.0
 10
5.53540011124693
 20
13.36079548706463
 10
5.535400497754372
 20
13.36079538427385
 10
5.711566182207663
 20
13.31386159926174
 10
5.887693220726316
 20
13.26679440474114
 10
6.063785942254646
 20
13.21962587104787
 10
6.571433399984326
 20
13.08337611483564
 10
7.079000878516832
 20
12.94691518906766
 10
7.586515387612391
 20
12.81031573559782
 10
8.094003937031233
 20
12.67365039628002
 10
8.601493536533592
 20
12.53699181296816
 10
9.18417115860819
 20
12.3801150577689
  0
ARC
  5
E5
330
1F
100
AcDbEntity
  8
0
100
AcDbCircle
 10
2.722341623216431
 20
-11.48380080568077
 30
0.0
 40
24.72330320329924
100
AcDbArc
 50
73.6068439167072
 51
74.84887199795465
  0
ARC
  5
E6
330
1F
100
AcDbEntity
  8
0
100
AcDbCircle
 10
12.2709995604391
 20
21.03720083416172
 30
0.0
 40
9.170549807475742
100
AcDbArc
 50
253.7181635937321
 51
254.9687908277066
  0
LINE
  5
E7
330
1F
100
AcDbEntity
  8
0
100
AcDbLine
 10
9.892661952413446
 20
12.18042410706488
 30
0.0
 11
10.72857049353052
 21
11.95541709625387
 31
0.0
  0
LWPOLYLINE
  5
E8
330
1F
100
AcDbEntity
  8
0
100
AcDbPolyline
 90
      105
 70
   128
 43
0.0
 10
10.72857049353052
 20
11.95541709625387
 10
10.72857087969359
 20
11.9554169960536
 10
10.77862113244743
 20
11.94322670041261
 10
10.82903588024553
 20
11.93253113816774
 10
10.87974744457276
 20
11.92334213756116
 10
10.93068814691399
 20
11.91567152683502
 10
10.98258228057437
 20
11.90944634799089
 10
11.03466528870793
 20
11.90479123014938
 10
11.08686578460287
 20
11.90171260179291
 10
11.13911238154741
 20
11.90021689140388
 10
11.19736594677774
 20
11.90041846298381
 10
11.25563035560639
 20
11.9025826342098
 10
11.313807218732
 20
11.90670159997347
 10
11.37179814685318
 20
11.9127675551665
 10
11.42950475066856
 20
11.92077269468052
 10
11.48860612988948
 20
11.93104529668897
 10
11.54737057358013
 20
11.94336827097522
 10
11.60569495060467
 20
11.9577129004476
 10
11.66347612982726
 20
11.9740504680144
 10
11.72061098011204
 20
11.99235225658393
 10
11.77514860657037
 20
12.01188894769496
 10
11.82905165203471
 20
12.03324812846955
 10
11.88223344380719
 20
12.05638922057698
 10
11.93460730918992
 20
12.08127164568653
 10
11.98608657548504
 20
12.1078548254675
 10
12.03810002188491
 20
12.1369751543786
 10
12.08913710236306
 20
12.16787755211261
 10
12.13911162397482
 20
12.20050482517424
 10
12.18793739377556
 20
12.23479978006823
 10
12.23552821882061
 20
12.27070522329928
 10
12.28034793939965
 20
12.30693833194721
 10
12.3239924777307
 20
12.34465164273684
 10
12.36639316326841
 20
12.38378267354908
 10
12.40748132546745
 20
12.42426894226489
 10
12.44718829378247
 20
12.46604796676521
 10
12.48655790736848
 20
12.51033892274698
 10
12.52444901727414
 20
12.55596767028128
 10
12.56080080329964
 20
12.60285448249253
 10
12.59555244524515
 20
12.65091963250514
 10
12.62864312291085
 20
12.70008339344352
 10
12.65922184097306
 20
12.74894804969286
 10
12.6882101618825
 20
12.79882657009267
 10
12.71556629483024
 20
12.84963692081297
 10
12.74124844900736
 20
12.90129706802377
 10
12.76521483360493
 20
12.95372497789508
 10
12.78804908931318
 20
13.00840379646147
 10
12.80905396715624
 20
13.06386487521657
 10
12.82819800888546
 20
13.12001346480002
 10
12.84544975625222
 20
13.17675481585143
 10
12.86077775100787
 20
13.23399417901042
 10
12.87383018066892
 20
13.29011641626115
 10
12.88505737620798
 20
13.3466789439506
 10
12.89444320369043
 20
13.40359144613608
 10
12.90197152918158
 20
13.46076360687493
 10
12.90762621874678
 20
13.51810511022447
 10
12.91148129744479
 20
13.57720269313312
 10
12.9133585986034
 20
13.63644577520346
 10
12.91325671109088
 20
13.69573475575285
 10
12.91117422377551
 20
13.75497003409864
 10
12.90710972552554
 20
13.81405200955819
 10
12.90123676384854
 20
13.87147116561882
 10
12.89348402774818
 20
13.92871301745791
 10
12.883867252164
 20
13.98568653340743
 10
12.87240217203557
 20
14.04230068179937
 10
12.85910452230243
 20
14.09846443096569
 10
12.84351914810559
 20
14.15571582897782
 10
12.82599905601127
 20
14.21245709427232
 10
12.80657782990145
 20
14.26859313680109
 10
12.78528905365813
 20
14.32402886651604
 10
12.76216631116329
 20
14.37866919336909
 10
12.73783203557869
 20
14.43121057532646
 10
12.71176047401216
 20
14.48296357827777
 10
12.68399571029226
 20
14.53384493976069
 10
12.65458182824751
 20
14.58377139731286
 10
12.62356291170646
 20
14.63265968847196
 10
12.58999022879733
 20
14.68184286458785
 10
12.55473899554677
 20
14.72989963711856
 10
12.51787058425984
 20
14.77674714709164
 10
12.47944636724161
 20
14.82230253553467
 10
12.43952771679716
 20
14.86648294347519
 10
12.39917574575531
 20
14.90821989144895
 10
12.35742717593425
 20
14.94862710049252
 10
12.31435195002759
 20
14.98763858925319
 10
12.27002001072895
 20
15.02518837637826
 10
12.22450130073197
 20
15.06121048051504
 10
12.17642716064445
 20
15.09666775707722
 10
12.127120609437
 20
15.13048135875159
 10
12.07667088409943
 20
15.16259480345108
 10
12.02516722162152
 20
15.19295160908864
 10
11.97269885899309
 20
15.2214952935772
 10
11.92060701767911
 20
15.24757168988019
 10
11.86762380006297
 20
15.27190116239999
 10
11.81384014890827
 20
15.2944456726297
 10
11.75934700697859
 20
15.31516718206244
 10
11.70423531703751
 20
15.33402765219132
 10
11.6468524461033
 20
15.35149162805629
 10
11.58884669760694
 20
15.36696730744967
 10
11.53032315599094
 20
15.38042919256326
 10
11.47138690569781
 20
15.39185178558888
 10
11.41214303117007
 20
15.40120958871832
 10
11.35507862022096
 20
15.40823744316034
 10
11.29778075777156
 20
15.4133670677763
 10
11.24034449621558
 20
15.41658992633345
 10
11.18286488794675
 20
15.41789748259908
 10
11.18286448826861
 20
15.41789748501269
  0
ARC
  5
E9
330
1F
100
AcDbEntity
  8
0
100
AcDbCircle
 10
5.68611323745836
 20
14.37009412723023
 30
0.0
 40
1.436174309257407
100
AcDbArc
 50
110.8153818521311
 51
151.1246551427367
  0
LWPOLYLINE
  5
EA
330
1F
100
AcDbEntity
  8
0
100
AcDbPolyline
 90
       43
 70
   128
 43
0.0
 10
5.175757327023574
 20
15.71252978351148
 10
5.22387189074414
 20
15.72982090719212
 10
5.272641108603437
 20
15.7453880901316
 10
5.321969163718119
 20
15.75920649008067
 10
5.371760239204837
 20
15.77125126479011
 10
5.421918518180246
 20
15.7814975720107
 10
5.472348183760999
 20
15.7899205694932
 10
5.519262887769162
 20
15.79597381389133
 10
5.566392050625401
 20
15.80036326681533
 10
5.613661111157773
 20
15.80327196876335
 10
5.660995508194332
 20
15.80488296023353
 10
5.70832068056314
 20
15.805379281724
 10
5.946589451141104
 20
15.805379281724
 10
6.417957295125765
 20
15.805379281724
 10
6.889325139110424
 20
15.805379281724
 10
7.376202074608889
 20
15.805379281724
 10
9.261673450547529
 20
15.805379281724
 10
10.39654712709465
 20
15.805379281724
 10
10.9639839653682
 20
15.805379281724
 10
11.53142080364176
 20
15.805379281724
 10
11.81513922277855
 20
15.8053791943153
 10
11.88623347983525
 20
15.80422021774364
 10
11.95729070236037
 20
15.80078689756583
 10
12.02820178987877
 20
15.79508484655966
 10
12.09885764191533
 20
15.78711967750295
 10
12.15663895442063
 20
15.77888908368937
 10
12.21421354753042
 20
15.76913607270232
 10
12.27152177927487
 20
15.75787166283487
 10
12.32850400768418
 20
15.7451068723801
 10
12.38510059078852
 20
15.73085271963107
 10
12.4423023854719
 20
15.71481334404891
 10
12.4990836147809
 20
15.69723508973761
 10
12.55538333568825
 20
15.67813814937974
 10
12.61114060516667
 20
15.65754271565788
 10
12.66629448018888
 20
15.6354689812546
 10
12.72081198892541
 20
15.61192822237452
 10
12.77469664498133
 20
15.586922467661
 10
12.82789048179425
 20
15.5604795634743
 10
12.88033553280174
 20
15.53262735617466
 10
12.93261659638647
 20
15.50301976328431
 10
12.9840914333066
 20
15.47198913898497
 10
13.03470340657214
 20
15.43957080148186
 10
13.08439587919308
 20
15.40580006898018
  0
ARC
  5
EB
330
1F
100
AcDbEntity
  8
0
100
AcDbCircle
 10
11.78279094773643
 20
13.547692007495
 30
0.0
 40
2.268642978907976
100
AcDbArc
 50
29.82841034280925
 51
54.98875269746404
  0
ARC
  5
EC
330
1F
100
AcDbEntity
  8
0
100
AcDbCircle
 10
11.7789483731253
 20
13.60377488037794
 30
0.0
 40
2.273681162307975
100
AcDbArc
 50
305.019839074331
 51
330.1231186480462
  0
ARC
  5
ED
330
1F
100
AcDbEntity
  8
0
100
AcDbCircle
 10
11.81491276784671
 20
13.55558238024275
 30
0.0
 40
2.213575951718169
100
AcDbArc
 50
264.8823406361001
 51
304.9733151733665
  0
ARC
  5
EE
330
1F
100
AcDbEntity
  8
0
100
AcDbCircle
 10
11.81692933572436
 20
13.59284049908845
 30
0.0
 40
2.250865810070446
100
AcDbArc
 50
260.3073695917593
 51
264.9158125079897
  0
LINE
  5
EF
330
1F
100
AcDbEntity
  8
0
100
AcDbLine
 10
14.61677479370731
 20
16.24009832071594
 30
0.0
 11
3.950108127040649
 21
16.24009832071594
 31
0.0
  0
LINE
  5
F0
330
1F
100
AcDbEntity
  8
0
100
AcDbLine
 10
11.4681347054269
 20
10.90676498738261
 30
0.0
 11
14.61677479370731
 21
10.90676498738261
 31
0.0
  0
LWPOLYLINE
  5
F1
330
1F
100
AcDbEntity
  8
0
100
AcDbPolyline
 90
       22
 70
   128
 43
0.0
 10
5.605413273486963
 20
12.9616770508343
 10
5.598057070499946
 20
12.96612365748159
 10
5.588437385020711
 20
12.97115469876796
 10
5.57709162652482
 20
12.9764418289533
 10
5.564150897624485
 20
12.98193154706054
 10
5.549858562617608
 20
12.98752061304785
 10
5.534332574817605
 20
12.99315687334726
 10
5.517736713332407
 20
12.9987864212907
 10
5.500383081151699
 20
13.00430338718619
 10
5.48242730139562
 20
13.00965333200622
 10
5.464047364815802
 20
13.01478802095964
 10
5.445588925849156
 20
13.01961089070897
 10
5.427227732096275
 20
13.02407135435456
 10
5.409135918845434
 20
13.02813228708898
 10
5.391653722065062
 20
13.03171731871304
 10
5.374955669138633
 20
13.03477968119012
 10
5.359190389973145
 20
13.03730413325159
 10
5.344659274195959
 20
13.03926159487486
 10
5.331531697397775
 20
13.04067287050592
 10
5.319914670702234
 20
13.04154137813839
 10
5.310016187272411
 20
13.04181193997052
 10
5.306296548679618
 20
13.04163867783429
  0
LWPOLYLINE
  5
F2
330
1F
100
AcDbEntity
  8
0
100
AcDbPolyline
 90
      101
 70
   128
 43
0.0
 10
10.29501055189177
 20
15.0197234429651
 10
10.65279241647481
 20
15.02081234429192
 10
11.01057428105786
 20
15.02190124561875
 10
11.18946521334938
 20
15.02244569628216
 10
11.23429818538265
 20
15.02185737153287
 10
11.27911240658615
 20
15.01981236720498
 10
11.32383464854369
 20
15.01629984543817
 10
11.36839168283907
 20
15.01130896837214
 10
11.42428702641398
 20
15.00290525378717
 10
11.47983169453664
 20
14.99216777670143
 10
11.53488153166458
 20
14.97912773663309
 10
11.58929238225532
 20
14.96381633310032
 10
11.63357606030666
 20
14.94951106536569
 10
11.67738196449136
 20
14.9336815134468
 10
11.72063347430246
 20
14.91635719128094
 10
11.76325396923297
 20
14.89756761280542
 10
11.8051668287759
 20
14.87734229195751
 10
11.85520202653807
 20
14.85079835459022
 10
11.90413146984434
 20
14.82216905996596
 10
11.95182912559684
 20
14.7915308225253
 10
11.9981689606977
 20
14.75896005670882
 10
12.03526831602004
 20
14.73070878283799
 10
12.07140753170816
 20
14.7011738065851
 10
12.10652605542372
 20
14.67041057652504
 10
12.14056333482834
 20
14.6384745412327
 10
12.17345881758369
 20
14.60542114928295
 10
12.21196021082243
 20
14.56366485049001
 10
12.24871780245013
 20
14.52030007060031
 10
12.28364074575412
 20
14.47544370794927
 10
12.31663819402174
 20
14.42921266087231
 10
12.34233516493695
 20
14.39014416222929
 10
12.3666983431062
 20
14.3501816134874
 10
12.38968732191386
 20
14.30939684780593
 10
12.41126169474429
 20
14.26786169834417
 10
12.43138105498188
 20
14.22564799826143
 10
12.45387443269415
 20
14.17342237719777
 10
12.47419516217068
 20
14.12026048916783
 10
12.49229114275922
 20
14.06630061984991
 10
12.5081102738075
 20
14.01168105492232
 10
12.51941056200014
 20
13.96625387649142
 10
12.52915803644092
 20
13.92042615721623
 10
12.5373380296296
 20
13.87427877422098
 10
12.54393587406596
 20
13.82789260462988
 10
12.54893690224977
 20
13.78134852556715
 10
12.55285493653118
 20
13.72461402520566
 10
12.55441173655079
 20
13.66771641334813
 10
12.55360927531401
 20
13.61080293277325
 10
12.55044952582628
 20
13.55402082625967
 10
12.54607397909731
 20
13.50741298983533
 10
12.54009871482675
 20
13.46094174670853
 10
12.53253818199789
 20
13.4146879790987
 10
12.52340682959406
 20
13.36873256922526
 10
12.51271910659855
 20
13.32315639930764
 10
12.4976493969946
 20
13.26834775389766
 10
12.48030338967298
 20
13.21416513681925
 10
12.46072790449878
 20
13.16074791888158
 10
12.43896976133712
 20
13.10823547089385
 10
12.41943189025098
 20
13.06572329931655
 10
12.39843539572659
 20
13.02386661783302
 10
12.37601801210046
 20
12.98273823026103
 10
12.35221747370906
 20
12.94241094041831
 10
12.32707151488888
 20
12.90295755212262
 10
12.29483581052134
 20
12.85638007108073
 10
12.2606730189718
 20
12.81113672864147
 10
12.22467237027185
 20
12.7673423259616
 10
12.1869230944531
 20
12.72511166419786
 10
12.1545603228335
 20
12.69156003067596
 10
12.12104105436293
 20
12.65910566954155
 10
12.08642639556861
 20
12.6278022376622
 10
12.05077745297777
 20
12.59770339190553
 10
12.01415533311764
 20
12.56886278913912
 10
11.9683671369831
 20
12.53553865977991
 10
11.92119475952895
 20
12.50411712741258
 10
11.87276208433126
 20
12.47467597293217
 10
11.8231929949661
 20
12.44729297723371
 10
11.78156564424573
 20
12.42631935618637
 10
11.73920812446135
 20
12.40676503935066
 10
11.69619539142676
 20
12.38866299948305
 10
11.65260240095574
 20
12.37204620934001
 10
11.60850410886208
 20
12.35694764167799
 10
11.55426856408405
 20
12.34065611765052
 10
11.49935550031402
 20
12.32662037838347
 10
11.44390730865742
 20
12.31487793014514
 10
11.38806638021971
 20
12.30546627920379
 10
11.34183151846194
 20
12.29947888772513
 10
11.29537735168987
 20
12.2950785631927
 10
11.24878605875097
 20
12.29227092906365
 10
11.2021398184927
 20
12.29106160879519
 10
11.15552080976252
 20
12.29145622584449
 10
11.10692200824989
 20
12.29358790114887
 10
11.05836899210036
 20
12.29747370928281
 10
11.00995488834976
 20
12.30310056182409
 10
10.96177282403392
 20
12.31045537035048
 10
10.91391592618867
 20
12.31952504643974
 10
10.86647732184984
 20
12.33029650166965
 10
10.79623412581627
 20
12.3482415689967
 10
10.72621960612075
 20
12.36707702573928
 10
10.65630268233303
 20
12.3862914526657
 10
10.58635227402281
 20
12.40537343054428
 10
10.30636774490003
 20
12.48073871140031
 10
10.002324263729
 20
12.5625800989323
  0
ARC
  5
F3
330
1F
100
AcDbEntity
  8
0
100
AcDbCircle
 10
3.433024834493307
 20
-45.32953799155006
 30
0.0
 40
60.64772209276206
100
AcDbArc
 50
83.64051407444355
 51
84.21441250390543
  0
ARC
  5
F4
330
1F
100
AcDbEntity
  8
0
100
AcDbCircle
 10
21.88580941575275
 20
92.65213188723368
 30
0.0
 40
80.87954125700225
100
AcDbArc
 50
261.042773640673
 51
261.4653532705367
  0
ARC
  5
F5
330
1F
100
AcDbEntity
  8
0
100
AcDbCircle
 10
11.55030436677144
 20
12.41992736577013
 30
0.0
 40
2.886988431683351
100
AcDbArc
 50
115.7732568404859
 51
118.998221463811
  0
ARC
  5
F6
330
1F
100
AcDbEntity
  8
0
100
AcDbCircle
 10
11.82103631493301
 20
14.74277701781383
 30
0.0
 40
2.83918511729947
100
AcDbArc
 50
226.9438749605404
 51
230.1652633708555
  0
LWPOLYLINE
  5
F7
330
1F
100
AcDbEntity
  8
0
100
AcDbPolyline
 90
       70
 70
   128
 43
0.0
 10
9.293101672662617
 20
12.75892876180976
 10
8.520667991997838
 20
12.96653266906626
 10
8.050503760159848
 20
13.09285676729746
 10
7.580305300506714
 20
13.21906026387689
 10
7.110002093070821
 20
13.34490030265007
 10
6.639523617884555
 20
13.47013402746253
 10
6.168799354980303
 20
13.59451858215978
 10
5.951686610081722
 20
13.6515743561711
 10
5.73460382976288
 20
13.70878320388434
 10
5.680300739225462
 20
13.72301117436345
 10
5.626112075284128
 20
13.73765860481179
 10
5.590179304084263
 20
13.7489163135812
 10
5.554934252745582
 20
13.76226239763129
 10
5.52055656612385
 20
13.7776273533896
 10
5.488359579807909
 20
13.7943178967565
 10
5.457059431061463
 20
13.81286050223988
 10
5.426795219394964
 20
13.83315490215287
 10
5.397706044318863
 20
13.85510082880859
 10
5.369931005343613
 20
13.87859801452015
 10
5.343609201979666
 20
13.90354619160066
 10
5.318774768019883
 20
13.9299368499004
 10
5.295395730551972
 20
13.9577740481471
 10
5.273570223384918
 20
13.98691796935461
 10
5.253396380327704
 20
14.01722879653681
 10
5.234972335189313
 20
14.04856671270756
 10
5.218396221778731
 20
14.08079190088072
 10
5.203695713941749
 20
14.11389115890086
 10
5.190845630883187
 20
14.14787361000156
 10
5.179892559819229
 20
14.18257499814115
 10
5.170883087966057
 20
14.21783106727799
 10
5.163863802539854
 20
14.25347756137042
 10
5.158881290756805
 20
14.28935022437679
 10
5.155955484702509
 20
14.32545712321926
 10
5.155070123689469
 20
14.36178572318556
 10
5.156214820501936
 20
14.3981653009255
 10
5.159379187924159
 20
14.43442513308893
 10
5.164552838740395
 20
14.47039449632567
 10
5.171725385734895
 20
14.50590266728554
 10
5.180922779013489
 20
14.54096871003292
 10
5.192121503621179
 20
14.5755680105795
 10
5.20525513346591
 20
14.60954262432686
 10
5.22025724245562
 20
14.64273460667659
 10
5.23706140449825
 20
14.67498601303025
 10
5.255601193501743
 20
14.70613889878945
 10
5.275891373053944
 20
14.73618185895305
 10
5.297913784185025
 20
14.76512280667548
 10
5.321553826013528
 20
14.79283468001821
 10
5.346696897657984
 20
14.81919041704269
 10
5.373228398236934
 20
14.84406295581039
 10
5.401033726868917
 20
14.86732523438276
 10
5.430766508195883
 20
14.8894110223636
 10
5.46182458321247
 20
14.90981345372034
 10
5.494047807106965
 20
14.92844505802853
 10
5.527276035067656
 20
14.94521836486373
 10
5.561349122282832
 20
14.96004590380146
 10
5.596106923940784
 20
14.97284020441729
 10
5.631433528441384
 20
14.9834521586192
 10
5.667431989353818
 20
14.99192921954929
 10
5.703925586080522
 20
14.99836309842593
 10
5.74073759802393
 20
15.00284550646751
 10
5.777691304586477
 20
15.00546815489238
 10
5.814609985170598
 20
15.00632275491892
 10
6.068139875472571
 20
15.00610137991908
 10
6.321662417560963
 20
15.00556882406321
 10
6.575177144447594
 20
15.00494610480099
 10
6.828683589144284
 20
15.00445423958209
 10
7.082181284662857
 20
15.00431424585616
 10
7.715972157747379
 20
15.00501967521612
 10
8.349753017321997
 20
15.00629205010262
 10
9.546681295776746
 20
15.00925052557469
  0
ARC
  5
F8
330
1F
100
AcDbEntity
  8
0
100
AcDbCircle
 10
11.28129292344126
 20
13.65771904208164
 30
0.0
 40
1.713243705301524
100
AcDbArc
 50
131.2913751775909
 51
215.278771851706
  0
ARC
  5
F9
330
1F
100
AcDbEntity
  8
0
100
AcDbCircle
 10
11.24690760197585
 20
13.67821061517991
 30
0.0
 40
2.15926763865789
100
AcDbArc
 50
141.9440134616486
 51
205.1973726635376
  0
CIRCLE
  5
FA
330
1F
100
AcDbEntity
  8
0
100
AcDbCircle
 10
5.816774793707317
 20
14.35787185268021
 30
0.0
 40
0.3665179007108037
  0
CIRCLE
  5
FB
330
1F
100
AcDbEntity
  8
0
100
AcDbCircle
 10
5.816774793707316
 20
14.35787185268021
 30
0.0
 40
0.1699999999999999
  0
LINE
  5
1A9
330
1F
100
AcDbEntity
  8
0
100
AcDbLine
 10
12.41015181848719
 20
4.063599780161901
 30
0.0
 11
12.25874012738906
 21
3.884996095014754
 31
0.0
  0
LINE
  5
1AA
330
1F
100
AcDbEntity
  8
0
100
AcDbLine
 10
9.547101517306547
 20
3.943441240325446
 30
0.0
 11
9.390347288491952
 21
3.790667068837849
 31
0.0
  0
LINE
  5
1AB
330
1F
100
AcDbEntity
  8
0
100
AcDbLine
 10
6.335797376097326
 20
3.878086027323064
 30
0.0
 11
6.460147500858258
 21
3.755709841915422
 31
0.0
  0
LINE
  5
1AC
330
1F
100
AcDbEntity
  8
0
100
AcDbLine
 10
6.460147500858258
 20
3.755709841915422
 30
0.0
 11
9.390347288491952
 21
3.790667068837849
 31
0.0
  0
LINE
  5
1AD
330
1F
100
AcDbEntity
  8
0
100
AcDbLine
 10
10.07857790030671
 20
3.842736026742796
 30
0.0
 11
12.25874012738906
 21
3.884996095014754
 31
0.0
  0
LINE
  5
1AE
330
1F
100
AcDbEntity
  8
0
100
AcDbLine
 10
9.877792182926519
 20
4.012952587458429
 30
0.0
 11
10.07857790030671
 21
3.842736026742796
 31
0.0
  0
ARC
  5
1AF
330
1F
100
AcDbEntity
  8
0
100
AcDbCircle
 10
5.440890096273234
 20
6.589043175248756
 30
0.0
 40
0.1700000000000017
100
AcDbArc
 50
269.5288527600569
 51
38.64773320299836
  0
LWPOLYLINE
  5
1B0
330
1F
100
AcDbEntity
  8
0
100
AcDbPolyline
 90
        3
 70
   128
 43
0.0
 10
4.272862075106961
 20
6.722376508582089
 10
4.491380298861155
 20
5.575815915181292
 10
4.749136834956078
 20
4.223286732306796
  0
LWPOLYLINE
  5
1B1
330
1F
100
AcDbEntity
  8
0
100
AcDbPolyline
 90
        3
 70
   128
 43
0.0
 10
12.93312728815639
 20
4.320405016746676
 10
13.4743696401167
 20
5.571338368451371
 10
13.97239527337187
 20
6.722376508582089
  0
ARC
  5
1B2
330
1F
100
AcDbEntity
  8
0
100
AcDbCircle
 10
12.54644898805606
 20
4.487743235952471
 30
0.0
 40
0.4213332541737599
100
AcDbArc
 50
271.1456983644657
 51
336.5977539509989
  0
ARC
  5
1B3
330
1F
100
AcDbEntity
  8
0
100
AcDbCircle
 10
10.01332082841881
 20
3.147980160952846
 30
0.0
 40
0.8674722534213113
100
AcDbArc
 50
90.69783776165245
 51
99.36515284727569
  0
ARC
  5
1B4
330
1F
100
AcDbEntity
  8
0
100
AcDbCircle
 10
9.17416250017462
 20
7.914044485171163
 30
0.0
 40
3.971910134568664
100
AcDbArc
 50
272.384543656656
 51
280.1212869478045
  0
ARC
  5
1B5
330
1F
100
AcDbEntity
  8
0
100
AcDbCircle
 10
5.163000232411826
 20
4.302123044712607
 30
0.0
 40
0.4212567005643711
100
AcDbArc
 50
190.785424565733
 51
268.8656236644742
  0
ARC
  5
1B6
330
1F
100
AcDbEntity
  8
0
100
AcDbCircle
 10
6.559457632245141
 20
125.4137770460004
 30
0.0
 40
121.5071108171509
100
AcDbArc
 50
271.2483300066277
 51
271.4151983633419
  0
ARC
  5
1B7
330
1F
100
AcDbEntity
  8
0
100
AcDbCircle
 10
9.669043013193812
 20
-6.172493894956964
 30
0.0
 40
10.12336100796515
100
AcDbArc
 50
91.86438094435727
 51
92.7265907728951
  0
LINE
  5
1B8
330
1F
100
AcDbEntity
  8
0
100
AcDbLine
 10
5.154671982978838
 20
3.880947631889906
 30
0.0
 11
5.442323626777342
 21
3.875194599013935
 31
0.0
  0
LINE
  5
1B9
330
1F
100
AcDbEntity
  8
0
100
AcDbLine
 10
6.191225960637291
 20
3.875194599013935
 30
0.0
 11
9.198047847888252
 21
3.935331036758956
 31
0.0
  0
ARC
  5
1BA
330
1F
100
AcDbEntity
  8
0
100
AcDbCircle
 10
5.816774793707317
 20
4.32854912208036
 30
0.0
 40
0.5880000000000008
100
AcDbArc
 50
286.8050184659896
 51
309.5552288032997
  0
ARC
  5
1BB
330
1F
100
AcDbEntity
  8
0
100
AcDbCircle
 10
5.816774793707317
 20
4.32854912208036
 30
0.0
 40
0.5880000000000008
100
AcDbArc
 50
230.4447711967018
 51
253.1949815340119
  0
ARC
  5
1BC
330
1F
100
AcDbEntity
  8
0
100
AcDbCircle
 10
9.525559909695912
 20
5.820028471330776
 30
0.0
 40
1.876499586270224
100
AcDbArc
 50
271.0533303993864
 51
272.7531574037466
  0
ARC
  5
1BD
330
1F
100
AcDbEntity
  8
0
100
AcDbCircle
 10
9.424202270138723
 20
7.933075895731075
 30
0.0
 40
3.992043934158464
100
AcDbArc
 50
272.9478130106552
 51
280.5295612766294
  0
ARC
  5
1BE
330
1F
100
AcDbEntity
  8
0
100
AcDbCircle
 10
10.30736867954546
 20
3.120700237940463
 30
0.0
 40
0.9006227143386938
100
AcDbArc
 50
90.75898508937086
 51
99.82147603175562
  0
LWPOLYLINE
  5
1BF
330
1F
100
AcDbEntity
  8
0
100
AcDbPolyline
 90
        3
 70
   128
 43
0.0
 10
5.328553336114073
 20
6.700432229178892
 10
5.341366321065129
 20
6.713480719065581
 10
5.352414451020274
 20
6.722376508582089
  0
LWPOLYLINE
  5
1C0
330
1F
100
AcDbEntity
  8
0
100
AcDbPolyline
 90
       46
 70
   128
 43
0.0
 10
5.543370746061717
 20
6.722376508582089
 10
5.546217756657836
 20
6.720493802205002
 10
5.560873402208918
 20
6.708332936483325
 10
5.574132214986151
 20
6.694673022374994
 10
5.585847545986876
 20
6.679623883363655
 10
5.595930081042947
 20
6.663346947675639
 10
5.604190207259762
 20
6.646148320558668
 10
5.610523191381993
 20
6.628179838001692
 10
5.614895886599165
 20
6.609621933373242
 10
5.617226059683946
 20
6.590823607990422
 10
5.617462701008397
 20
6.571961591991517
 10
5.615632568171148
 20
6.553214981393691
 10
5.61177007878472
 20
6.534936326332362
 10
5.605883697797161
 20
6.517307326112689
 10
5.598057070499946
 20
6.500485547683113
 10
5.588437385020711
 20
6.484787342643954
 10
5.57709162652482
 20
6.470378894248929
 10
5.564150897624485
 20
6.45737847589957
 10
5.549858562617608
 20
6.446030574417944
 10
5.534332574817605
 20
6.43646712110508
 10
5.517736713332407
 20
6.428753761386783
 10
5.500383081151699
 20
6.42303555327229
 10
5.48242730139562
 20
6.419395301856556
 10
5.464047364815802
 20
6.417838623565868
 10
5.445588925849156
 20
6.418394793406467
 10
5.427227732096275
 20
6.421088154620916
 10
5.409135918845434
 20
6.425863661426525
 10
5.391653722065062
 20
6.432631505291658
 10
5.374955669138633
 20
6.441353923698156
 10
5.359190389973145
 20
6.451922448105916
 10
5.344659274195959
 20
6.464141211007643
 10
5.331531697397775
 20
6.477923585924701
 10
5.319914670702234
 20
6.493119023429732
 10
5.310016187272411
 20
6.50943563043728
 10
5.301947429915425
 20
6.526720959771306
 10
5.295748830899615
 20
6.544800207511507
 10
5.291531590537222
 20
6.563330486357088
 10
5.289359532681634
 20
6.58214150759264
 10
5.28922628860972
 20
6.601048547171162
 10
5.291136093326835
 20
6.619696863022858
 10
5.295100503412982
 20
6.637899287997839
 10
5.301061144532492
 20
6.655501679678741
 10
5.308914099119608
 20
6.672178402943703
 10
5.317974076331469
 20
6.68685905358364
 10
5.328553336114073
 20
6.700432229178892
 10
5.328553336114073
 20
6.700432229178892
  0
LINE
  5
1C1
330
1F
100
AcDbEntity
  8
0
100
AcDbLine
 10
9.887239877168809
 20
4.373314624575915
 30
0.0
 11
10.72314841828588
 21
4.390032795395699
 31
0.0
  0
ARC
  5
1C2
330
1F
100
AcDbEntity
  8
0
100
AcDbCircle
 10
9.908276787777916
 20
3.066441446432884
 30
0.0
 40
1.307042484144123
100
AcDbArc
 50
90.9222181012891
 51
99.41345860888077
  0
ARC
  5
1C3
330
1F
100
AcDbEntity
  8
0
100
AcDbCircle
 10
9.074538654725541
 20
7.801551383965034
 30
0.0
 40
3.500997375076008
100
AcDbArc
 50
271.7057138738514
 51
280.1998014361385
  0
LWPOLYLINE
  5
1C4
330
1F
100
AcDbEntity
  8
0
100
AcDbPolyline
 90
       11
 70
   128
 43
0.0
 10
5.529978036002293
 20
4.238549792537764
 10
5.529978422506102
 20
4.238549792342608
 10
5.706144106960604
 20
4.238987414933522
 10
5.882271145480469
 20
4.240337551001434
 10
6.058363867010009
 20
4.242389222749762
 10
6.566011324739689
 20
4.250020649760618
 10
7.073578803272195
 20
4.259128238860174
 10
7.581093312367754
 20
4.269205043215221
 10
8.088581861786597
 20
4.279744115992549
 10
8.596071461288953
 20
4.29023851035895
 10
9.178749083363552
 20
4.302105312534274
  0
LINE
  5
1C5
330
1F
100
AcDbEntity
  8
0
100
AcDbLine
 10
4.749364014191232
 20
4.223329180947066
 30
0.0
 11
4.749364831054283
 21
4.223330179720939
 31
0.0
  0
LINE
  5
1C6
330
1F
100
AcDbEntity
  8
0
100
AcDbLine
 10
12.93304285142066
 20
4.320431130658881
 30
0.0
 11
12.93305465544991
 21
4.320436466349277
 31
0.0
  0
LINE
  5
1C7
330
1F
100
AcDbEntity
  8
0
100
AcDbLine
 10
3.950108127040649
 20
6.722376508582089
 30
0.0
 11
3.950108127040649
 21
6.955709841915422
 31
0.0
  0
LINE
  5
1C8
330
1F
100
AcDbEntity
  8
0
100
AcDbLine
 10
3.950108127040649
 20
6.955709841915422
 30
0.0
 11
11.4681347054269
 21
6.955709841915422
 31
0.0
  0
LINE
  5
1C9
330
1F
100
AcDbEntity
  8
0
100
AcDbLine
 10
11.4681347054269
 20
6.722376508582089
 30
0.0
 11
11.4681347054269
 21
6.955709841915422
 31
0.0
  0
LINE
  5
1CA
330
1F
100
AcDbEntity
  8
0
100
AcDbLine
 10
11.4681347054269
 20
6.722376508582089
 30
0.0
 11
3.950108127040649
 21
6.722376508582089
 31
0.0
  0
LINE
  5
1CB
330
1F
100
AcDbEntity
  8
0
100
AcDbLine
 10
14.61677479370731
 20
6.722376508582089
 30
0.0
 11
14.61677479370731
 21
6.955709841915422
 31
0.0
  0
LINE
  5
1CC
330
1F
100
AcDbEntity
  8
0
100
AcDbLine
 10
14.61677479370731
 20
6.722376508582089
 30
0.0
 11
11.4681347054269
 21
6.722376508582089
 31
0.0
  0
LINE
  5
1CD
330
1F
100
AcDbEntity
  8
0
100
AcDbLine
 10
11.4681347054269
 20
6.955709841915422
 30
0.0
 11
14.61677479370731
 21
6.955709841915422
 31
0.0
  0
LWPOLYLINE
  5
1CE
330
1F
100
AcDbEntity
  8
0
100
AcDbPolyline
 90
        3
 70
   128
 43
0.0
 10
5.333975411358711
 20
6.703641658447939
 10
5.346788396309768
 20
6.716690148334627
 10
5.353850574081527
 20
6.722376508582089
  0
LWPOLYLINE
  5
1CF
330
1F
100
AcDbEntity
  8
0
100
AcDbPolyline
 90
       26
 70
   128
 43
0.0
 10
5.53975465006224
 20
6.439676550374123
 10
5.523158788577041
 20
6.431963190655828
 10
5.505805156396332
 20
6.426244982541335
 10
5.487849376640254
 20
6.422604731125601
 10
5.469469440060436
 20
6.421048052834914
 10
5.451011001093791
 20
6.421604222675513
 10
5.43264980734091
 20
6.424297583889959
 10
5.414557994090068
 20
6.429073090695569
 10
5.397075797309696
 20
6.435840934560703
 10
5.380377720438638
 20
6.44456333899936
 10
5.364612420864328
 20
6.455131851531267
 10
5.350081365347748
 20
6.467350649692436
 10
5.336954131972125
 20
6.481133216614916
 10
5.32533776044027
 20
6.496329016922845
 10
5.315440065089606
 20
6.512646054619188
 10
5.307372135940348
 20
6.52993160265113
 10
5.301174176510265
 20
6.548010979760008
 10
5.296957293385446
 20
6.566541256769578
 10
5.294785234760781
 20
6.585352209910369
 10
5.294651674830759
 20
6.604259018845695
 10
5.296560881804913
 20
6.622906956008672
 10
5.300524403474248
 20
6.641108680677261
 10
5.306483998207855
 20
6.658710352148998
 10
5.314335895608823
 20
6.675386441418272
 10
5.323395763060107
 20
6.690067753590896
 10
5.333975411358713
 20
6.703641658447939
  0
LINE
  5
1D0
330
1F
100
AcDbEntity
  8
0
100
AcDbLine
 10
12.55469825334201
 20
4.066490708858554
 30
0.0
 11
10.00275084508786
 21
4.015451760701274
 31
0.0
  0
LINE
  5
1D1
330
1F
100
AcDbEntity
  8
0
100
AcDbLine
 10
5.154672013589249
 20
3.880949162410464
 30
0.0
 11
5.154660488841654
 21
3.880949194761257
 31
0.0
  0
ARC
  5
1D2
330
1F
100
AcDbEntity
  8
0
100
AcDbCircle
 10
10.34242575906924
 20
1.288785822270794
 30
0.0
 40
2.73292364440664
100
AcDbArc
 50
90.98516569016677
 51
93.9424729065861
  0
LINE
  5
1D3
330
1F
100
AcDbEntity
  8
0
100
AcDbLine
 10
9.560055285558828
 20
3.943866836510034
 30
0.0
 11
9.560357690791693
 21
3.943876772036963
 31
0.0
  0
LWPOLYLINE
  5
1D4
330
1F
100
AcDbEntity
  8
0
100
AcDbPolyline
 90
        3
 70
   128
 43
0.0
 10
9.206013567941637
 20
3.935495797395691
 10
9.194986583729191
 20
3.935270649922751
 10
9.193207093758092
 20
3.935236475743379
  0
LINE
  5
1D5
330
1F
100
AcDbEntity
  8
0
100
AcDbLine
 10
6.191225960637285
 20
3.875194599013935
 30
0.0
 11
5.44232362677735
 21
3.875194599013935
 31
0.0
  0
LINE
  5
1D6
330
1F
100
AcDbEntity
  8
0
100
AcDbLine
 10
5.816774793707316
 20
3.765660145460636
 30
0.0
 11
5.646774793707316
 21
3.765660145460636
 31
0.0
  0
LINE
  5
1D7
330
1F
100
AcDbEntity
  8
0
100
AcDbLine
 10
5.986774793707317
 20
3.765660145460636
 30
0.0
 11
5.816774793707316
 21
3.765660145460636
 31
0.0
  0
ARC
  5
1D8
330
1F
100
AcDbEntity
  8
0
100
AcDbCircle
 10
6.692892797566924
 20
-75.43370862015052
 30
0.0
 40
79.68074504747583
100
AcDbArc
 50
90.83624310212142
 51
91.39766507534936
  0
LWPOLYLINE
  5
1D9
330
1F
100
AcDbEntity
  8
0
100
AcDbPolyline
 90
       67
 70
   128
 43
0.0
 10
10.72314841828588
 20
4.390032795395699
 10
10.72314880438894
 20
4.390032778368366
 10
10.77372727933536
 20
4.387816427513556
 10
10.82465055704939
 20
4.385612140221166
 10
10.87605637651886
 20
4.383412383679741
 10
10.92771745941642
 20
4.38122577852552
 10
10.9801559100732
 20
4.379029748849563
 10
11.03276037166599
 20
4.376848269992528
 10
11.0856768625394
 20
4.374672076811687
 10
11.1386638467348
 20
4.372515621183827
 10
11.1876359462244
 20
4.37054860894638
 10
11.23659803798026
 20
4.368606568498445
 10
11.28549282543329
 20
4.36669025596775
 10
11.33463775547917
 20
4.36478664452009
 10
11.38365635962438
 20
4.362909298199901
 10
11.43249045946875
 20
4.361058334776023
 10
11.48218890768515
 20
4.359193999616669
 10
11.53163358038527
 20
4.357361839475846
 10
11.58076412257081
 20
4.35556740398735
 10
11.62991450964882
 20
4.353799147810543
 10
11.67868550681242
 20
4.3520689072962
 10
11.72701659460423
 20
4.350377461049979
 10
11.772894862772
 20
4.348791166194279
 10
11.81831476144533
 20
4.347238964550979
 10
11.86322426069637
 20
4.345724178898218
 10
11.90790365078891
 20
4.34424018754369
 10
11.95201576185858
 20
4.342798745087108
 10
11.99551051413284
 20
4.341399653694216
 10
12.03928155938337
 20
4.34001354789399
 10
12.08235663814001
 20
4.338670365033412
 10
12.12468386215228
 20
4.337369578416192
 10
12.16653594975476
 20
4.336101779564034
 10
12.20757779058116
 20
4.334878787062328
 10
12.24776135408363
 20
4.333703973353739
 10
12.28549731145008
 20
4.332622239225746
 10
12.32240133029266
 20
4.331583613171661
 10
12.35843282332571
 20
4.330588020793095
 10
12.39380472616351
 20
4.329627733022426
 10
12.42825131645743
 20
4.328708971663599
 10
12.46173313833208
 20
4.327832901724328
 10
12.49490472620378
 20
4.326984332019585
 10
12.52703436643878
 20
4.326182813056551
 10
12.55808574093481
 20
4.325427685938471
 10
12.58824898157648
 20
4.324713337542552
 10
12.61728320376838
 20
4.324044487708324
 10
12.64515352336421
 20
4.323420422839175
 10
12.67094981303928
 20
4.322859525979605
 10
12.69562926924093
 20
4.322340510064189
 10
12.7191662040154
 20
4.321864762178961
 10
12.74169403107358
 20
4.321429590853438
 10
12.76304076645595
 20
4.321037279223445
 10
12.78318298552245
 20
4.320687579193717
 10
12.80249053331826
 20
4.320373724871564
 10
12.82051848501181
 20
4.320102929725488
 10
12.83724432745583
 20
4.319875346100592
 10
12.85276131799252
 20
4.319690361913998
 10
12.86694078829907
 20
4.319549923765324
 10
12.87976746006857
 20
4.319453662816885
 10
12.89086326517468
 20
4.319402403217389
 10
12.90068475206995
 20
4.319391908742288
 10
12.90922045771772
 20
4.319421855012328
 10
12.91650677421457
 20
4.319492700417491
 10
12.92247864014245
 20
4.319604378220884
 10
12.92712998341812
 20
4.31975677619926
 10
12.93051365875739
 20
4.319954333891164
 10
12.93251910426258
 20
4.320194385000104
 10
12.93304285142066
 20
4.320431130658881
  0
LWPOLYLINE
  5
1DA
330
1F
100
AcDbEntity
  8
0
100
AcDbPolyline
 90
       40
 70
   128
 43
0.0
 10
9.872158198490451
 20
4.003888281383571
 10
9.870135500696155
 20
4.003610731299887
 10
9.865652912461154
 20
4.003445227524964
 10
9.861077404006508
 20
4.003882818258574
 10
9.856415611466859
 20
4.004922868836602
 10
9.851674296119835
 20
4.006563870811246
 10
9.846860334579767
 20
4.008803444138812
 10
9.841980708824118
 20
4.011638340631633
 10
9.837042496067113
 20
4.01506444866911
 10
9.832052858495213
 20
4.019076799161041
 10
9.827019032879386
 20
4.023669572754597
 10
9.821948320079165
 20
4.028836108274469
 10
9.816848074453785
 20
4.03456891238398
 10
9.811725693195713
 20
4.040859670453115
 10
9.806588605602048
 20
4.047699258617731
 10
9.801444262299375
 20
4.055077757012444
 10
9.796300124437664
 20
4.062984464158005
 10
9.791163652868926
 20
4.071407912482297
 10
9.786042297326288
 20
4.08033588495245
 10
9.780943485619195
 20
4.089755432793928
 10
9.775874612860411
 20
4.099652894270919
 10
9.770843030740449
 20
4.110013914500767
 10
9.765856036864969
 20
4.120823466273731
 10
9.760920864170621
 20
4.132065871847835
 10
9.75604467043469
 20
4.143724825687248
 10
9.751234527893727
 20
4.15578341811118
 10
9.746497412986277
 20
4.168224159819003
 10
9.741840196234521
 20
4.181029007256042
 10
9.737269632279547
 20
4.194179388783216
 10
9.732792350084688
 20
4.207656231612609
 10
9.728414843321138
 20
4.221439989469877
 10
9.7241434609498
 20
4.235510670943383
 10
9.719984398012991
 20
4.249847868478939
 10
9.71594368664941
 20
4.264430787978112
 10
9.712027187345363
 20
4.279238278957151
 10
9.708240580434951
 20
4.294248865222805
 10
9.704589357861536
 20
4.309440776020532
 10
9.701078815212442
 20
4.324791977609934
 10
9.697714044038461
 20
4.340280205221617
 10
9.694499924469303
 20
4.355882995349147
  0
LINE
  5
1DB
330
1F
100
AcDbEntity
  8
0
100
AcDbLine
 10
9.339414396137296
 20
3.945726332988926
 30
0.0
 11
9.293489224834216
 21
3.944242448659661
 31
0.0
  0
LWPOLYLINE
  5
1DC
330
1F
100
AcDbEntity
  8
0
100
AcDbPolyline
 90
       37
 70
   128
 43
0.0
 10
9.293489224834216
 20
3.94424244865966
 10
8.479852411524914
 20
3.927697838610351
 10
7.90237345184262
 20
3.916078625074971
 10
7.324811139474466
 20
3.904695589673523
 10
6.93968359438499
 20
3.897272048361579
 10
6.55442713476103
 20
3.890348078512439
 10
6.168977995081035
 20
3.884526358875147
 10
5.951735305393748
 20
3.882095168101183
 10
5.843116897543662
 20
3.881279022603368
 10
5.734527039374865
 20
3.880799427042448
 10
5.680237291652687
 20
3.880698094793007
 10
5.65307905862498
 20
3.880684616926057
 10
5.62597558719327
 20
3.880691273474971
 10
5.599043649680936
 20
3.880704652268371
 10
5.572496042517147
 20
3.880717826128285
 10
5.546183278619953
 20
3.880730903944604
 10
5.520362606573085
 20
3.880743749159599
 10
5.488516597972502
 20
3.880759613510161
 10
5.457608548098143
 20
3.880775082596755
 10
5.427779969830989
 20
3.88079012304651
 10
5.398287329997394
 20
3.880805116632392
 10
5.370082536316932
 20
3.880819590390302
 10
5.343301499762355
 20
3.880833520147766
 10
5.318726830278068
 20
3.880846474366424
 10
5.295613851679902
 20
3.880858822842128
 10
5.274066815505027
 20
3.88087055840039
 10
5.253588837795577
 20
3.880881940521504
 10
5.234873271737463
 20
3.880892568789414
 10
5.218009126344192
 20
3.880902438736513
 10
5.203448967884913
 20
3.880911247418642
 10
5.190710051838444
 20
3.880919243396913
 10
5.179848943442355
 20
3.88092643196923
 10
5.170667663871761
 20
3.880932942326808
 10
5.163526006170919
 20
3.880938512881456
 10
5.158457004489909
 20
3.880943152238107
 10
5.155536134130203
 20
3.880946736762123
 10
5.154672013589249
 20
3.880949162410464
  0
LWPOLYLINE
  5
1DD
330
1F
100
AcDbEntity
  8
0
100
AcDbPolyline
 90
        8
 70
   128
 43
0.0
 10
10.15452401108723
 20
4.015242236604643
 10
10.11808634740608
 20
4.014504787567588
 10
10.08261013996158
 20
4.013786469507891
 10
10.04282317118015
 20
4.012980507688747
 10
10.00437520409018
 20
4.012201354593718
 10
9.967327670828906
 20
4.011450350268406
 10
9.931742003533583
 20
4.010728834758405
 10
9.9213450234288
 20
4.010518013975249
  0
ARC
  5
1DE
330
1F
100
AcDbEntity
  8
0
100
AcDbCircle
 10
9.463367927905073
 20
7.260486210618964
 30
0.0
 40
3.318027302810514
100
AcDbArc
 50
271.6750602855441
 51
282.0229406196445
  0
LWPOLYLINE
  5
1DF
330
1F
100
AcDbEntity
  8
0
100
AcDbPolyline
 90
       27
 70
   128
 43
0.0
 10
9.193207093758092
 20
3.935236475743379
 10
9.174333443337264
 20
3.934874017103347
 10
9.155871495269829
 20
3.934548654003887
 10
9.141805266355449
 20
3.934327652931603
 10
9.129346870850611
 20
3.93416008263372
 10
9.118509905126112
 20
3.934046450023987
 10
9.109307965552746
 20
3.933987262016145
 10
9.101692144652934
 20
3.933982971807221
 10
9.095746511057493
 20
3.934034158752869
 10
9.091529657394433
 20
3.934138644237183
 10
9.088940122999423
 20
3.934296427974464
 10
9.087976650986021
 20
3.9345213895468
 10
9.088844926115369
 20
3.93480499969015
 10
9.091542869570584
 20
3.935146064877113
 10
9.096068402534786
 20
3.935543391580282
 10
9.102365051467902
 20
3.935992203486408
 10
9.110455979910458
 20
3.936494010558709
 10
9.120329660595464
 20
3.937046974112927
 10
9.131974566255919
 20
3.937649255464799
 10
9.145510705029771
 20
3.938305243228169
 10
9.160830159597376
 20
3.939007925845843
 10
9.17761786810267
 20
3.939742428075179
 10
9.196101227595262
 20
3.94051824902618
 10
9.217640868144654
 20
3.941388022947652
 10
9.241075864063514
 20
3.942300523478635
 10
9.266370541057989
 20
3.943252936691761
 10
9.293489224834216
 20
3.94424244865966
  0
ARC
  5
1E0
330
1F
100
AcDbEntity
  8
0
100
AcDbCircle
 10
10.14315188132384
 20
4.012917502249744
 30
0.0
 40
0.0116073134348995
100
AcDbArc
 50
335.7767591502043
 51
11.55344207145598
  0
ENDSEC
  0
SECTION
  2
OBJECTS
  0
DICTIONARY
  5
C
330
0
100
AcDbDictionary
  3
ACAD_GROUP
350
D
  3
ACAD_LAYOUT
350
1A
  3
ACAD_MLINESTYLE
350
17
  3
ACAD_PLOTSETTINGS
350
19
  3
ACAD_PLOTSTYLENAME
350
E
  3
ACDBHEADERROUNDTRIPXREC
350
2A1
  3
ACDBVARIABLEDICTIONARY
350
29E
  0
DICTIONARY
  5
2C4
330
1F
100
AcDbDictionary
280
     1
  3
ACAD_LAYOUTSELFREF
360
2C5
  0
DICTIONARY
  5
2C2
330
1B
100
AcDbDictionary
280
     1
  3
ACAD_LAYOUTSELFREF
360
2C3
  0
DICTIONARY
  5
D
102
{ACAD_REACTORS
330
C
102
}
330
C
100
AcDbDictionary
  0
DICTIONARY
  5
1A
102
{ACAD_REACTORS
330
C
102
}
330
C
100
AcDbDictionary
  0
DICTIONARY
  5
17
102
{ACAD_REACTORS
330
C
102
}
330
C
100
AcDbDictionary
  3
STANDARD
350
18
  0
DICTIONARY
  5
19
102
{ACAD_REACTORS
330
C
102
}
330
C
100
AcDbDictionary
  0
ACDBDICTIONARYWDFLT
  5
E
102
{ACAD_REACTORS
330
C
102
}
330
C
100
AcDbDictionary
281
     1
  3
Normal
350
F
100
AcDbDictionaryWithDefault
340
F
  0
DICTIONARY
  5
2A1
102
{ACAD_REACTORS
330
C
102
}
330
C
100
AcDbDictionary
  3
CEPSNTYPE
350
2AB
  3
DIMSTYLEDATA
350
2AF
  3
FINGERPRINTGUID
350
2AC
  3
HYPERLINKBASE
350
2A4
  3
INSUNITS
350
2AA
  3
LAYOUTDICT
350
2A6
  3
LWETCUNION
350
2A9
  3
PLOTSETDICT
350
2A7
  3
PLOTSTYLNAMDICT
350
2A8
  3
PSVPSCALE
350
2AE
  3
PUCSBASE
350
2B2
  3
PUCSORGBACK
350
2B8
  3
PUCSORGBOTTOM
350
2B4
  3
PUCSORGFRONT
350
2B7
  3
PUCSORGLEFT
350
2B5
  3
PUCSORGRIGHT
350
2B6
  3
PUCSORGTOP
350
2B3
  3
PUCSORTHOREF
350
2B0
  3
PUCSORTHOVIEW
350
2B1
  3
STYLESHEET
350
2A5
  3
TSTACKALIGN
350
2A2
  3
TSTACKSIZE
350
2A3
  3
UCSBASE
350
2BB
  3
UCSORGBACK
350
2C1
  3
UCSORGBOTTOM
350
2BD
  3
UCSORGFRONT
350
2C0
  3
UCSORGLEFT
350
2BE
  3
UCSORGRIGHT
350
2BF
  3
UCSORGTOP
350
2BC
  3
UCSORTHOREF
350
2B9
  3
UCSORTHOVIEW
350
2BA
  3
VERSIONGUID
350
2AD
  0
DICTIONARY
  5
29E
102
{ACAD_REACTORS
330
C
102
}
330
C
100
AcDbDictionary
  3
DIMASSOC
350
29F
  0
XRECORD
  5
2C5
102
{ACAD_REACTORS
330
2C4
102
}
330
2C4
100
AcDbXrecord
340
1F
  0
XRECORD
  5
2C3
102
{ACAD_REACTORS
330
2C2
102
}
330
2C2
100
AcDbXrecord
340
1B
  0
MLINESTYLE
  5
18
102
{ACAD_REACTORS
330
17
102
}
330
17
100
AcDbMlineStyle
  2
STANDARD
 70
     0
  3

 62
   256
 51
90.0
 52
90.0
 71
     2
 49
0.5
 62
   256
  6
BYLAYER
 49
-0.5
 62
   256
  6
BYLAYER
  0
ACDBPLACEHOLDER
  5
F
102
{ACAD_REACTORS
330
E
102
}
330
E
100
AcDbPlaceHolder
280
     0
  0
XRECORD
  5
2AB
102
{ACAD_REACTORS
330
2A1
102
}
330
2A1
100
AcDbXrecord
 90
        0
  0
XRECORD
  5
2AF
102
{ACAD_REACTORS
330
2A1
102
}
330
2A1
100
AcDbXrecord
1000
DSTYLE
1002
{
1070
   278
 70
    44
1002
}
  0
XRECORD
  5
2AC
102
{ACAD_REACTORS
330
2A1
102
}
330
2A1
100
AcDbXrecord
  1
{8A5F39B3-FDBE-4F88-B384-82D31CC22D2E}
  0
XRECORD
  5
2A4
102
{ACAD_REACTORS
330
2A1
102
}
330
2A1
100
AcDbXrecord
  1

  0
XRECORD
  5
2AA
102
{ACAD_REACTORS
330
2A1
102
}
330
2A1
100
AcDbXrecord
 90
        4
  0
XRECORD
  5
2A6
102
{ACAD_REACTORS
330
2A1
102
}
330
2A1
100
AcDbXrecord
340
1A
  0
XRECORD
  5
2A9
102
{ACAD_REACTORS
330
2A1
102
}
330
2A1
100
AcDbXrecord
 90
    10781
  0
XRECORD
  5
2A7
102
{ACAD_REACTORS
330
2A1
102
}
330
2A1
100
AcDbXrecord
340
19
  0
XRECORD
  5
2A8
102
{ACAD_REACTORS
330
2A1
102
}
330
2A1
100
AcDbXrecord
340
E
  0
XRECORD
  5
2AE
102
{ACAD_REACTORS
330
2A1
102
}
330
2A1
100
AcDbXrecord
 40
0.0
  0
XRECORD
  5
2B2
102
{ACAD_REACTORS
330
2A1
102
}
330
2A1
100
AcDbXrecord
340
0
  0
XRECORD
  5
2B8
102
{ACAD_REACTORS
330
2A1
102
}
330
2A1
100
AcDbXrecord
 10
0.0
 20
0.0
 30
0.0
  0
XRECORD
  5
2B4
102
{ACAD_REACTORS
330
2A1
102
}
330
2A1
100
AcDbXrecord
 10
0.0
 20
0.0
 30
0.0
  0
XRECORD
  5
2B7
102
{ACAD_REACTORS
330
2A1
102
}
330
2A1
100
AcDbXrecord
 10
0.0
 20
0.0
 30
0.0
  0
XRECORD
  5
2B5
102
{ACAD_REACTORS
330
2A1
102
}
330
2A1
100
AcDbXrecord
 10
0.0
 20
0.0
 30
0.0
  0
XRECORD
  5
2B6
102
{ACAD_REACTORS
330
2A1
102
}
330
2A1
100
AcDbXrecord
 10
0.0
 20
0.0
 30
0.0
  0
XRECORD
  5
2B3
102
{ACAD_REACTORS
330
2A1
102
}
330
2A1
100
AcDbXrecord
 10
0.0
 20
0.0
 30
0.0
  0
XRECORD
  5
2B0
102
{ACAD_REACTORS
330
2A1
102
}
330
2A1
100
AcDbXrecord
340
0
  0
XRECORD
  5
2B1
102
{ACAD_REACTORS
330
2A1
102
}
330
2A1
100
AcDbXrecord
 70
     0
  0
XRECORD
  5
2A5
102
{ACAD_REACTORS
330
2A1
102
}
330
2A1
100
AcDbXrecord
  1

  0
XRECORD
  5
2A2
102
{ACAD_REACTORS
330
2A1
102
}
330
2A1
100
AcDbXrecord
 90
        1
  0
XRECORD
  5
2A3
102
{ACAD_REACTORS
330
2A1
102
}
330
2A1
100
AcDbXrecord
 90
       70
  0
XRECORD
  5
2BB
102
{ACAD_REACTORS
330
2A1
102
}
330
2A1
100
AcDbXrecord
340
0
  0
XRECORD
  5
2C1
102
{ACAD_REACTORS
330
2A1
102
}
330
2A1
100
AcDbXrecord
 10
0.0
 20
0.0
 30
0.0
  0
XRECORD
  5
2BD
102
{ACAD_REACTORS
330
2A1
102
}
330
2A1
100
AcDbXrecord
 10
0.0
 20
0.0
 30
0.0
  0
XRECORD
  5
2C0
102
{ACAD_REACTORS
330
2A1
102
}
330
2A1
100
AcDbXrecord
 10
0.0
 20
0.0
 30
0.0
  0
XRECORD
  5
2BE
102
{ACAD_REACTORS
330
2A1
102
}
330
2A1
100
AcDbXrecord
 10
0.0
 20
0.0
 30
0.0
  0
XRECORD
  5
2BF
102
{ACAD_REACTORS
330
2A1
102
}
330
2A1
100
AcDbXrecord
 10
0.0
 20
0.0
 30
0.0
  0
XRECORD
  5
2BC
102
{ACAD_REACTORS
330
2A1
102
}
330
2A1
100
AcDbXrecord
 10
0.0
 20
0.0
 30
0.0
  0
XRECORD
  5
2B9
102
{ACAD_REACTORS
330
2A1
102
}
330
2A1
100
AcDbXrecord
340
0
  0
XRECORD
  5
2BA
102
{ACAD_REACTORS
330
2A1
102
}
330
2A1
100
AcDbXrecord
 70
     0
  0
XRECORD
  5
2AD
102
{ACAD_REACTORS
330
2A1
102
}
330
2A1
100
AcDbXrecord
  1
{72953607-E22B-4F43-B852-1D1F7279CD58}
  0
DICTIONARYVAR
  5
29F
102
{ACAD_REACTORS
330
29E
102
}
330
29E
100
DictionaryVariables
280
     0
  1
1
  0
ENDSEC
  0
EOF
