  0
SECTION
  2
HEADER
  9
$ACADVER
  1
AC1014
  9
$ACADMAINTVER
 70
     9
  9
$DWGCODEPAGE
  3
ANSI_1250
  9
$INSBASE
 10
0.0
 20
0.0
 30
0.0
  9
$EXTMIN
 10
2.374189048199998
 20
1.814356215882954
 30
0.0
  9
$EXTMAX
 10
15.5735156303
 20
18.7855354619
 30
0.0
  9
$LIMMIN
 10
0.0
 20
0.0
  9
$LIMMAX
 10
0.0
 20
0.0
  9
$ORTHOMODE
 70
     0
  9
$REGENMODE
 70
     1
  9
$FILLMODE
 70
     1
  9
$QTEXTMODE
 70
     0
  9
$MIRRTEXT
 70
     1
  9
$DRAGMODE
 70
     2
  9
$LTSCALE
 40
1.0
  9
$OSMODE
 70
  3007
  9
$ATTMODE
 70
     1
  9
$TEXTSIZE
 40
2.5
  9
$TRACEWID
 40
1.0
  9
$TEXTSTYLE
  7
STANDARD
  9
$CLAYER
  8
0
  9
$CELTYPE
  6
BYLAYER
  9
$CECOLOR
 62
   256
  9
$CELTSCALE
 40
1.0
  9
$DELOBJ
 70
     1
  9
$DISPSILH
 70
     0
  9
$DIMSCALE
 40
1.0
  9
$DIMASZ
 40
0.3
  9
$DIMEXO
 40
0.1
  9
$DIMDLI
 40
3.75
  9
$DIMRND
 40
0.0
  9
$DIMDLE
 40
0.0
  9
$DIMEXE
 40
0.1
  9
$DIMTP
 40
0.0
  9
$DIMTM
 40
0.0
  9
$DIMTXT
 40
0.2822222222
  9
$DIMCEN
 40
2.5
  9
$DIMTSZ
 40
0.0
  9
$DIMTOL
 70
     0
  9
$DIMLIM
 70
     0
  9
$DIMTIH
 70
     1
  9
$DIMTOH
 70
     1
  9
$DIMSE1
 70
     0
  9
$DIMSE2
 70
     0
  9
$DIMTAD
 70
     1
  9
$DIMZIN
 70
     0
  9
$DIMBLK
  1

  9
$DIMASO
 70
     1
  9
$DIMSHO
 70
     1
  9
$DIMPOST
  1

  9
$DIMAPOST
  1

  9
$DIMALT
 70
     0
  9
$DIMALTD
 70
     3
  9
$DIMALTF
 40
0.3937007874
  9
$DIMLFAC
 40
15.0
  9
$DIMTOFL
 70
     1
  9
$DIMTVP
 40
0.0
  9
$DIMTIX
 70
     0
  9
$DIMSOXD
 70
     0
  9
$DIMSAH
 70
     0
  9
$DIMBLK1
  1

  9
$DIMBLK2
  1

  9
$DIMSTYLE
  2
ISO-25
  9
$DIMCLRD
 70
     0
  9
$DIMCLRE
 70
     0
  9
$DIMCLRT
 70
     0
  9
$DIMTFAC
 40
1.0
  9
$DIMGAP
 40
0.1524
  9
$DIMJUST
 70
     0
  9
$DIMSD1
 70
     0
  9
$DIMSD2
 70
     0
  9
$DIMTOLJ
 70
     0
  9
$DIMTZIN
 70
     0
  9
$DIMALTZ
 70
     0
  9
$DIMALTTZ
 70
     0
  9
$DIMFIT
 70
     3
  9
$DIMUPT
 70
     0
  9
$DIMUNIT
 70
     2
  9
$DIMDEC
 70
     2
  9
$DIMTDEC
 70
     2
  9
$DIMALTU
 70
     2
  9
$DIMALTTD
 70
     3
  9
$DIMTXSTY
  7
STANDARD
  9
$DIMAUNIT
 70
     0
  9
$LUNITS
 70
     2
  9
$LUPREC
 70
     1
  9
$SKETCHINC
 40
1.0
  9
$FILLETRAD
 40
10.0
  9
$AUNITS
 70
     0
  9
$AUPREC
 70
     0
  9
$MENU
  1
.
  9
$ELEVATION
 40
0.0
  9
$PELEVATION
 40
0.0
  9
$THICKNESS
 40
0.0
  9
$LIMCHECK
 70
     0
  9
$BLIPMODE
 70
     0
  9
$CHAMFERA
 40
10.0
  9
$CHAMFERB
 40
10.0
  9
$CHAMFERC
 40
20.0
  9
$CHAMFERD
 40
0.0
  9
$SKPOLY
 70
     0
  9
$TDCREATE
 40
2453930.502551898
  9
$TDUPDATE
 40
2453966.371966319
  9
$TDINDWG
 40
0.0138151273
  9
$TDUSRTIMER
 40
0.0138151273
  9
$USRTIMER
 70
     1
  9
$ANGBASE
 50
0.0
  9
$ANGDIR
 70
     0
  9
$PDMODE
 70
     0
  9
$PDSIZE
 40
-1.0
  9
$PLINEWID
 40
0.0
  9
$COORDS
 70
     2
  9
$SPLFRAME
 70
     0
  9
$SPLINETYPE
 70
     6
  9
$SPLINESEGS
 70
     8
  9
$ATTDIA
 70
     0
  9
$ATTREQ
 70
     1
  9
$HANDLING
 70
 22529
  9
$HANDSEED
  5
C79
  9
$SURFTAB1
 70
     6
  9
$SURFTAB2
 70
     6
  9
$SURFTYPE
 70
     6
  9
$SURFU
 70
     6
  9
$SURFV
 70
     6
  9
$UCSNAME
  2

  9
$UCSORG
 10
0.0
 20
0.0
 30
0.0
  9
$UCSXDIR
 10
1.0
 20
0.0
 30
0.0
  9
$UCSYDIR
 10
0.0
 20
1.0
 30
0.0
  9
$PUCSNAME
  2

  9
$PUCSORG
 10
0.0
 20
0.0
 30
0.0
  9
$PUCSXDIR
 10
1.0
 20
0.0
 30
0.0
  9
$PUCSYDIR
 10
0.0
 20
1.0
 30
0.0
  9
$USERI1
 70
     0
  9
$USERI2
 70
     0
  9
$USERI3
 70
     0
  9
$USERI4
 70
     0
  9
$USERI5
 70
     0
  9
$USERR1
 40
0.0
  9
$USERR2
 40
0.0
  9
$USERR3
 40
0.0
  9
$USERR4
 40
0.0
  9
$USERR5
 40
0.0
  9
$WORLDVIEW
 70
     1
  9
$SHADEDGE
 70
     3
  9
$SHADEDIF
 70
    70
  9
$TILEMODE
 70
     1
  9
$MAXACTVP
 70
    48
  9
$PINSBASE
 10
0.0
 20
0.0
 30
0.0
  9
$PLIMCHECK
 70
     0
  9
$PEXTMIN
 10
1.000000000000000E+20
 20
1.000000000000000E+20
 30
1.000000000000000E+20
  9
$PEXTMAX
 10
-1.000000000000000E+20
 20
-1.000000000000000E+20
 30
-1.000000000000000E+20
  9
$PLIMMIN
 10
0.0
 20
0.0
  9
$PLIMMAX
 10
420.0
 20
297.0
  9
$UNITMODE
 70
     0
  9
$VISRETAIN
 70
     1
  9
$PLINEGEN
 70
     0
  9
$PSLTSCALE
 70
     1
  9
$TREEDEPTH
 70
  3020
  9
$PICKSTYLE
 70
     1
  9
$CMLSTYLE
  2
STANDARD
  9
$CMLJUST
 70
     0
  9
$CMLSCALE
 40
20.0
  9
$PROXYGRAPHICS
 70
     1
  9
$MEASUREMENT
 70
     1
  0
ENDSEC
  0
SECTION
  2
CLASSES
  0
CLASS
  1
ACDBDICTIONARYWDFLT
  2
AcDbDictionaryWithDefault
  3
AutoCAD 2000
 90
        0
280
     0
281
     0
  0
CLASS
  1
ACDBPLACEHOLDER
  2
AcDbPlaceHolder
  3
AutoCAD 2000
 90
        0
280
     0
281
     0
  0
CLASS
  1
LAYOUT
  2
AcDbLayout
  3
AutoCAD 2000
 90
        0
280
     0
281
     0
  0
CLASS
  1
DICTIONARYVAR
  2
AcDbDictionaryVar
  3
AutoCAD 2000
 90
        0
280
     0
281
     0
  0
CLASS
  1
LONG_TRANSACTION
  2
AcDbLongTransaction
  3
AutoCAD 2000
 90
        0
280
     0
281
     0
  0
CLASS
  1
LWPOLYLINE
  2
AcDbPolyline
  3
AutoCAD 2000
 90
        0
280
     0
281
     1
  0
CLASS
  1
HATCH
  2
AcDbHatch
  3
AutoCAD 2000
 90
        0
280
     0
281
     1
  0
CLASS
  1
XRECORD
  2
AcDbXrecord
  3
AutoCAD 2000
 90
        0
280
     0
281
     0
  0
CLASS
  1
LONG_TRANSACTION
  2
AcDbLongTransaction
  3
AutoCAD 2000
 90
        0
280
     0
281
     0
  0
CLASS
  1
LWPOLYLINE
  2
AcDbPolyline
  3
AutoCAD 2000
 90
        0
280
     0
281
     1
  0
CLASS
  1
HATCH
  2
AcDbHatch
  3
AutoCAD 2000
 90
        0
280
     0
281
     1
  0
CLASS
  1
XRECORD
  2
AcDbXrecord
  3
AutoCAD 2000
 90
        0
280
     0
281
     0
  0
ENDSEC
  0
SECTION
  2
TABLES
  0
TABLE
  2
VPORT
  5
8
330
0
100
AcDbSymbolTable
 70
     2
  0
VPORT
  5
C54
330
8
100
AcDbSymbolTableRecord
100
AcDbViewportTableRecord
  2
*ACTIVE
 70
     0
 10
0.0
 20
0.0
 11
1.0
 21
1.0
 12
8.974693779641979
 22
10.30010410143475
 13
0.0
 23
0.0
 14
10.0
 24
10.0
 15
10.0
 25
10.0
 16
0.0
 26
0.0
 36
1.0
 17
0.0
 27
0.0
 37
0.0
 40
17.13727883153934
 41
1.674961119751166
 42
50.0
 43
0.0
 44
0.0
 50
0.0
 51
0.0
 71
     0
 72
  2000
 73
     1
 74
     3
 75
     0
 76
     0
 77
     0
 78
     0
  0
ENDTAB
  0
TABLE
  2
LTYPE
  5
5
330
0
100
AcDbSymbolTable
 70
     1
  0
LTYPE
  5
14
330
5
100
AcDbSymbolTableRecord
100
AcDbLinetypeTableRecord
  2
BYBLOCK
 70
     0
  3

 72
    65
 73
     0
 40
0.0
  0
LTYPE
  5
15
330
5
100
AcDbSymbolTableRecord
100
AcDbLinetypeTableRecord
  2
BYLAYER
 70
     0
  3

 72
    65
 73
     0
 40
0.0
  0
LTYPE
  5
16
330
5
100
AcDbSymbolTableRecord
100
AcDbLinetypeTableRecord
  2
CONTINUOUS
 70
     0
  3
Solid line
 72
    65
 73
     0
 40
0.0
  0
ENDTAB
  0
TABLE
  2
LAYER
  5
2
330
0
100
AcDbSymbolTable
 70
     1
  0
LAYER
  5
10
330
2
100
AcDbSymbolTableRecord
100
AcDbLayerTableRecord
  2
0
 70
     0
 62
     7
  6
CONTINUOUS
  0
ENDTAB
  0
TABLE
  2
STYLE
  5
3
330
0
100
AcDbSymbolTable
 70
     1
  0
STYLE
  5
11
330
3
100
AcDbSymbolTableRecord
100
AcDbTextStyleTableRecord
  2
STANDARD
 70
     0
 40
0.0
 41
1.0
 50
0.0
 71
     0
 42
2.5
  3
ARIAL.TTF
  4

1001
ACAD
1000
Arial
1071
       34
  0
ENDTAB
  0
TABLE
  2
VIEW
  5
6
330
0
100
AcDbSymbolTable
 70
     0
  0
ENDTAB
  0
TABLE
  2
UCS
  5
7
330
0
100
AcDbSymbolTable
 70
     0
  0
ENDTAB
  0
TABLE
  2
APPID
  5
9
330
0
100
AcDbSymbolTable
 70
     1
  0
APPID
  5
12
330
9
100
AcDbSymbolTableRecord
100
AcDbRegAppTableRecord
  2
ACAD
 70
     0
  0
ENDTAB
  0
TABLE
  2
DIMSTYLE
  5
A
330
0
100
AcDbSymbolTable
 70
     1
  0
DIMSTYLE
105
27
330
A
100
AcDbSymbolTableRecord
100
AcDbDimStyleTableRecord
  2
ISO-25
 70
     0
  3

  4

  5

  6

  7

 40
1.0
 41
2.5
 42
0.625
 43
3.75
 44
1.25
 45
0.0
 46
0.0
 47
0.0
 48
0.0
140
2.5
141
2.5
142
0.0
143
0.0393700787
144
1.0
145
0.0
146
1.0
147
0.625
 71
     0
 72
     0
 73
     0
 74
     0
 75
     0
 76
     0
 77
     1
 78
     8
170
     0
171
     3
172
     1
173
     0
174
     0
175
     0
176
     0
177
     0
178
     0
270
     2
271
     2
272
     2
273
     2
274
     3
340
11
275
     0
280
     0
281
     0
282
     0
283
     0
284
     8
285
     0
286
     0
287
     3
288
     0
  0
ENDTAB
  0
TABLE
  2
BLOCK_RECORD
  5
1
330
0
100
AcDbSymbolTable
 70
     1
  0
BLOCK_RECORD
  5
1F
102
{ACAD_XDICTIONARY
360
C17
102
}
330
1
100
AcDbSymbolTableRecord
100
AcDbBlockTableRecord
  2
*MODEL_SPACE
  0
BLOCK_RECORD
  5
1B
102
{ACAD_XDICTIONARY
360
C19
102
}
330
1
100
AcDbSymbolTableRecord
100
AcDbBlockTableRecord
  2
*PAPER_SPACE
  0
ENDTAB
  0
ENDSEC
  0
SECTION
  2
BLOCKS
  0
BLOCK
  5
20
330
1F
100
AcDbEntity
  8
0
100
AcDbBlockBegin
  2
*MODEL_SPACE
 70
     0
 10
0.0
 20
0.0
 30
0.0
  3
*MODEL_SPACE
  1

  0
ENDBLK
  5
21
330
1F
100
AcDbEntity
  8
0
100
AcDbBlockEnd
  0
BLOCK
  5
1C
330
1B
100
AcDbEntity
 67
     1
  8
0
100
AcDbBlockBegin
  2
*PAPER_SPACE
 70
     0
 10
0.0
 20
0.0
 30
0.0
  3
*PAPER_SPACE
  1

  0
ENDBLK
  5
1D
330
1B
100
AcDbEntity
 67
     1
  8
0
100
AcDbBlockEnd
  0
ENDSEC
  0
SECTION
  2
ENTITIES
  0
LINE
  5
62
330
1F
100
AcDbEntity
  8
0
100
AcDbLine
 10
8.435757700099998
 20
1.814586953
 30
0.0
 11
9.511946978400001
 21
1.814586953
 31
0.0
  0
LINE
  5
63
330
1F
100
AcDbEntity
  8
0
100
AcDbLine
 10
8.5101012525
 20
1.9358577085
 30
0.0
 11
8.435757700099998
 21
1.814586953
 31
0.0
  0
LINE
  5
64
330
1F
100
AcDbEntity
  8
0
100
AcDbLine
 10
5.265842370899998
 20
1.8700656116
 30
0.0
 11
8.435757700099998
 21
1.814586953
 31
0.0
  0
LINE
  5
65
330
1F
100
AcDbEntity
  8
0
100
AcDbLine
 10
5.135091807099999
 20
2.005008601399998
 30
0.0
 11
5.265842370899998
 21
1.8700656116
 31
0.0
  0
LINE
  5
66
330
1F
100
AcDbEntity
  8
0
100
AcDbLine
 10
12.8126128714
 20
2.0172022611
 30
0.0
 11
12.6818623076
 21
1.882259271299998
 31
0.0
  0
LINE
  5
67
330
1F
100
AcDbEntity
  8
0
100
AcDbLine
 10
9.437603426
 20
1.948051368099999
 30
0.0
 11
9.511946978400001
 21
1.814586953
 31
0.0
  0
LINE
  5
68
330
1F
100
AcDbEntity
  8
0
100
AcDbLine
 10
12.6818623076
 20
1.882259271299998
 30
0.0
 11
9.511946978400001
 21
1.814586953
 31
0.0
  0
LINE
  5
6B
330
1F
100
AcDbEntity
  8
0
100
AcDbLine
 10
5.804992600299998
 20
1.9899598815
 30
0.0
 11
8.5994011723
 21
1.934071710099999
 31
0.0
  0
LINE
  5
6C
330
1F
100
AcDbEntity
  8
0
100
AcDbLine
 10
9.3483035062
 20
1.934071710099999
 30
0.0
 11
12.1426491726
 21
1.989958623399999
 31
0.0
  0
ARC
  5
6D
330
1F
100
AcDbEntity
  8
0
100
AcDbCircle
 10
8.973852339199998
 20
2.3874262331
 30
0.0
 40
0.5880000000000011
100
AcDbArc
 50
286.8050184659998
 51
309.5552288033
  0
ARC
  5
6E
330
1F
100
AcDbEntity
  8
0
100
AcDbCircle
 10
8.973852339199998
 20
2.3874262331
 30
0.0
 40
0.5880000000000012
100
AcDbArc
 50
230.4447711966999
 51
253.194981534
  0
LINE
  5
6F
330
1F
100
AcDbEntity
  8
0
100
AcDbLine
 10
3.646981254299998
 20
5.014586953
 30
0.0
 11
14.3007234242
 21
5.014586953
 31
0.0
  0
LINE
  5
70
330
1F
100
AcDbEntity
  8
0
100
AcDbLine
 10
14.3007234242
 20
4.7812536196
 30
0.0
 11
3.646981254299998
 21
4.7812536196
 31
0.0
  0
LINE
  5
78
330
1F
100
AcDbEntity
  8
0
100
AcDbLine
 10
8.5994011723
 20
1.934071710099999
 30
0.0
 11
9.3483035062
 21
1.934071710099999
 31
0.0
  0
LINE
  5
79
330
1F
100
AcDbEntity
  8
0
100
AcDbLine
 10
8.973852339199998
 20
1.8245372565
 30
0.0
 11
8.803852339199998
 21
1.8245372565
 31
0.0
  0
LINE
  5
7A
330
1F
100
AcDbEntity
  8
0
100
AcDbLine
 10
9.1438523392
 20
1.8245372565
 30
0.0
 11
8.973852339199998
 21
1.8245372565
 31
0.0
  0
LINE
  5
7B
330
1F
100
AcDbEntity
  8
0
100
AcDbLine
 10
2.374189048199998
 20
4.7812536196
 30
0.0
 11
2.374189048199998
 21
5.014586953
 31
0.0
  0
LINE
  5
7C
330
1F
100
AcDbEntity
  8
0
100
AcDbLine
 10
2.374189048199998
 20
5.014586953
 30
0.0
 11
3.646981254299998
 21
5.014586953
 31
0.0
  0
LINE
  5
7D
330
1F
100
AcDbEntity
  8
0
100
AcDbLine
 10
3.646981254299998
 20
4.7812536196
 30
0.0
 11
2.374189048199998
 21
4.7812536196
 31
0.0
  0
LINE
  5
7E
330
1F
100
AcDbEntity
  8
0
100
AcDbLine
 10
15.5735156303
 20
4.7812536196
 30
0.0
 11
15.5735156303
 21
5.014586953
 31
0.0
  0
LINE
  5
7F
330
1F
100
AcDbEntity
  8
0
100
AcDbLine
 10
14.3007234242
 20
5.014586953
 30
0.0
 11
15.5735156303
 21
5.014586953
 31
0.0
  0
LINE
  5
80
330
1F
100
AcDbEntity
  8
0
100
AcDbLine
 10
15.5735156303
 20
4.7812536196
 30
0.0
 11
14.3007234242
 21
4.7812536196
 31
0.0
  0
POINT
  5
15A
330
1F
100
AcDbEntity
  8
0
100
AcDbPoint
 10
3.4010545754
 20
12.1848618064
 30
0.0
  0
POINT
  5
15B
330
1F
100
AcDbEntity
  8
0
100
AcDbPoint
 10
14.54663972789998
 20
12.1837958793
 30
0.0
  0
POINT
  5
15C
330
1F
100
AcDbEntity
  8
0
100
AcDbPoint
 10
12.1896919505
 20
15.2485406871
 30
0.0
  0
POINT
  5
15D
330
1F
100
AcDbEntity
  8
0
100
AcDbPoint
 10
8.973852339199998
 20
8.7066177163
 30
0.0
  0
LINE
  5
15E
330
1F
100
AcDbEntity
  8
0
100
AcDbLine
 10
8.973852339199998
 20
18.7855354619
 30
0.0
 11
2.374189048199998
 21
12.1858721709
 31
0.0
  0
LINE
  5
160
330
1F
100
AcDbEntity
  8
0
100
AcDbLine
 10
15.5735156303
 20
12.1858721709
 30
0.0
 11
8.973852339199998
 21
18.7855354619
 31
0.0
  0
LINE
  5
163
330
1F
100
AcDbEntity
  8
0
100
AcDbLine
 10
14.3007234242
 20
10.9130799647
 30
0.0
 11
15.5735156303
 21
12.1858721709
 31
0.0
  0
LINE
  5
166
330
1F
100
AcDbEntity
  8
0
100
AcDbLine
 10
2.374189048199998
 20
12.1858721709
 30
0.0
 11
3.646981254299998
 21
10.9130799647
 31
0.0
  0
ARC
  5
168
330
1F
100
AcDbEntity
  8
0
100
AcDbCircle
 10
8.963791206499998
 20
13.692292004
 30
0.0
 40
3.620110406559863
100
AcDbArc
 50
89.85136298389999
 51
99.1361399102
  0
ARC
  5
169
330
1F
100
AcDbEntity
  8
0
100
AcDbCircle
 10
8.9832184222
 20
13.6841526734
 30
0.0
 40
3.628256891535431
100
AcDbArc
 50
80.87343193889998
 51
90.137379159
  0
ARC
  5
16A
330
1F
100
AcDbEntity
  8
0
100
AcDbCircle
 10
8.973852339199998
 20
16.2399510497
 30
0.0
 40
7.533333333333332
100
AcDbArc
 50
225.0
 51
315.0
  0
ARC
  5
16E
330
1F
100
AcDbEntity
  8
0
100
AcDbCircle
 10
12.052285329
 20
13.3036033422
 30
0.0
 40
3.796604566630917
100
AcDbArc
 50
265.9416082874
 51
270.3227241343
  0
ARC
  5
16F
330
1F
100
AcDbEntity
  8
0
100
AcDbCircle
 10
5.888294673099997
 20
13.5182836421
 30
0.0
 40
4.011249987971362
100
AcDbArc
 50
269.7963135466999
 51
273.9428910356
  0
ARC
  5
178
330
1F
100
AcDbEntity
  8
0
100
AcDbCircle
 10
8.973812755399999
 20
16.65607766369999
 30
0.0
 40
0.6410906743835075
100
AcDbArc
 50
269.9102270075
 51
270.0895714895
  0
CIRCLE
  5
17A
330
1F
100
AcDbEntity
  8
0
100
AcDbCircle
 10
8.973852339199998
 20
10.70661771629999
 30
0.0
 40
0.3665179007108037
  0
CIRCLE
  5
17B
330
1F
100
AcDbEntity
  8
0
100
AcDbCircle
 10
8.973852339199998
 20
10.70661771629999
 30
0.0
 40
0.1699999999999982
  0
LINE
  5
29F
330
1F
100
AcDbEntity
  8
0
100
AcDbLine
 10
6.977090163599998
 20
10.0326208007
 30
0.0
 11
6.888041382999999
 21
10.0693262184
 31
0.0
  0
LINE
  5
2A0
330
1F
100
AcDbEntity
  8
0
100
AcDbLine
 10
6.888041382999999
 20
10.0693262184
 30
0.0
 11
6.799799597899999
 21
10.1080200533
 31
0.0
  0
LINE
  5
2A1
330
1F
100
AcDbEntity
  8
0
100
AcDbLine
 10
6.799799597899999
 20
10.1080200533
 30
0.0
 11
6.7124285472
 21
10.1486701394
 31
0.0
  0
LINE
  5
2A2
330
1F
100
AcDbEntity
  8
0
100
AcDbLine
 10
6.7124285472
 20
10.1486701394
 30
0.0
 11
6.625991969299999
 21
10.1912443106
 31
0.0
  0
LINE
  5
2A3
330
1F
100
AcDbEntity
  8
0
100
AcDbLine
 10
6.625991969299999
 20
10.1912443106
 30
0.0
 11
6.540553602999999
 21
10.23571040079999
 31
0.0
  0
LINE
  5
2A4
330
1F
100
AcDbEntity
  8
0
100
AcDbLine
 10
6.540553602999999
 20
10.23571040079999
 30
0.0
 11
6.4695616108
 21
10.2745198678
 31
0.0
  0
LINE
  5
2A5
330
1F
100
AcDbEntity
  8
0
100
AcDbLine
 10
6.4695616108
 20
10.2745198678
 30
0.0
 11
6.3992968552
 21
10.3146450586
 31
0.0
  0
LINE
  5
2A6
330
1F
100
AcDbEntity
  8
0
100
AcDbLine
 10
6.3992968552
 20
10.3146450586
 30
0.0
 11
6.3297943911
 21
10.35606302409999
 31
0.0
  0
LINE
  5
2A7
330
1F
100
AcDbEntity
  8
0
100
AcDbLine
 10
6.3297943911
 20
10.35606302409999
 30
0.0
 11
6.262131983999998
 21
10.3980886483
 31
0.0
  0
LINE
  5
2A8
330
1F
100
AcDbEntity
  8
0
100
AcDbLine
 10
6.262131983999998
 20
10.3980886483
 30
0.0
 11
6.1952396454
 21
10.4413416499
 31
0.0
  0
LINE
  5
2A9
330
1F
100
AcDbEntity
  8
0
100
AcDbLine
 10
6.1952396454
 20
10.4413416499
 30
0.0
 11
6.129148816599998
 21
10.48579800559999
 31
0.0
  0
LINE
  5
2AA
330
1F
100
AcDbEntity
  8
0
100
AcDbLine
 10
6.129148816599998
 20
10.48579800559999
 30
0.0
 11
6.046313494199999
 21
10.5440305015
 31
0.0
  0
LINE
  5
2AB
330
1F
100
AcDbEntity
  8
0
100
AcDbLine
 10
6.046313494199999
 20
10.5440305015
 30
0.0
 11
5.9648049497
 21
10.6041725636
 31
0.0
  0
LINE
  5
2AC
330
1F
100
AcDbEntity
  8
0
100
AcDbLine
 10
5.9648049497
 20
10.6041725636
 30
0.0
 11
5.884680204199999
 21
10.66616873509999
 31
0.0
  0
LINE
  5
2AD
330
1F
100
AcDbEntity
  8
0
100
AcDbLine
 10
5.884680204199999
 20
10.66616873509999
 30
0.0
 11
5.8059962787
 21
10.72996355949998
 31
0.0
  0
LINE
  5
2AE
330
1F
100
AcDbEntity
  8
0
100
AcDbLine
 10
5.8059962787
 20
10.72996355949998
 30
0.0
 11
5.728810194199999
 21
10.79550157999999
 31
0.0
  0
LINE
  5
2AF
330
1F
100
AcDbEntity
  8
0
100
AcDbLine
 10
5.728810194199999
 20
10.79550157999999
 30
0.0
 11
5.668402660499999
 21
10.8488050701
 31
0.0
  0
LINE
  5
2B0
330
1F
100
AcDbEntity
  8
0
100
AcDbLine
 10
5.668402660499999
 20
10.8488050701
 30
0.0
 11
5.608909625599999
 21
10.90314951099998
 31
0.0
  0
LINE
  5
2B1
330
1F
100
AcDbEntity
  8
0
100
AcDbLine
 10
5.608909625599999
 20
10.90314951099998
 30
0.0
 11
5.5505153473
 21
10.958661451
 31
0.0
  0
LINE
  5
2B2
330
1F
100
AcDbEntity
  8
0
100
AcDbLine
 10
5.5505153473
 20
10.958661451
 30
0.0
 11
5.4934040832
 21
11.01546743809999
 31
0.0
  0
LINE
  5
2B3
330
1F
100
AcDbEntity
  8
0
100
AcDbLine
 10
5.4934040832
 20
11.01546743809999
 30
0.0
 11
5.448463345
 21
11.0629978251
 31
0.0
  0
LINE
  5
2B4
330
1F
100
AcDbEntity
  8
0
100
AcDbLine
 10
5.448463345
 20
11.0629978251
 30
0.0
 11
5.405264340399999
 21
11.1122091195
 31
0.0
  0
LINE
  5
2B5
330
1F
100
AcDbEntity
  8
0
100
AcDbLine
 10
5.405264340399999
 20
11.1122091195
 30
0.0
 11
5.363910886
 21
11.1630085651
 31
0.0
  0
LINE
  5
2B6
330
1F
100
AcDbEntity
  8
0
100
AcDbLine
 10
5.363910886
 20
11.1630085651
 30
0.0
 11
5.324506798399998
 21
11.21530340589999
 31
0.0
  0
LINE
  5
2B7
330
1F
100
AcDbEntity
  8
0
100
AcDbLine
 10
5.324506798399998
 20
11.21530340589999
 30
0.0
 11
5.2871558942
 21
11.2690008854
 31
0.0
  0
LINE
  5
2B8
330
1F
100
AcDbEntity
  8
0
100
AcDbLine
 10
5.2871558942
 20
11.2690008854
 30
0.0
 11
5.2522487665
 21
11.3235235147
 31
0.0
  0
LINE
  5
2B9
330
1F
100
AcDbEntity
  8
0
100
AcDbLine
 10
5.2522487665
 20
11.3235235147
 30
0.0
 11
5.219408913099998
 21
11.3793993388
 31
0.0
  0
LINE
  5
2BA
330
1F
100
AcDbEntity
  8
0
100
AcDbLine
 10
5.219408913099998
 20
11.3793993388
 30
0.0
 11
5.1887146766
 21
11.4365082164
 31
0.0
  0
LINE
  5
2BB
330
1F
100
AcDbEntity
  8
0
100
AcDbLine
 10
5.1887146766
 20
11.4365082164
 30
0.0
 11
5.1602443997
 21
11.4947300062
 31
0.0
  0
LINE
  5
2BC
330
1F
100
AcDbEntity
  8
0
100
AcDbLine
 10
5.1602443997
 20
11.4947300062
 30
0.0
 11
5.134076424999999
 21
11.5539445669
 31
0.0
  0
LINE
  5
2BD
330
1F
100
AcDbEntity
  8
0
100
AcDbLine
 10
5.134076424999999
 20
11.5539445669
 30
0.0
 11
5.1093383957
 21
11.6165480728
 31
0.0
  0
LINE
  5
2BE
330
1F
100
AcDbEntity
  8
0
100
AcDbLine
 10
5.1093383957
 20
11.6165480728
 30
0.0
 11
5.0871199521
 21
11.68017673859998
 31
0.0
  0
LINE
  5
2BF
330
1F
100
AcDbEntity
  8
0
100
AcDbLine
 10
5.0871199521
 20
11.68017673859998
 30
0.0
 11
5.067467645499998
 21
11.7446734522
 31
0.0
  0
LINE
  5
2C0
330
1F
100
AcDbEntity
  8
0
100
AcDbLine
 10
5.067467645499998
 20
11.7446734522
 30
0.0
 11
5.050428027399998
 21
11.8098811015
 31
0.0
  0
LINE
  5
2C1
330
1F
100
AcDbEntity
  8
0
100
AcDbLine
 10
5.050428027399998
 20
11.8098811015
 30
0.0
 11
5.0360476493
 21
11.8756425745
 31
0.0
  0
LINE
  5
2C2
330
1F
100
AcDbEntity
  8
0
100
AcDbLine
 10
5.0360476493
 20
11.8756425745
 30
0.0
 11
5.023952846499999
 21
11.94436648009999
 31
0.0
  0
LINE
  5
2C3
330
1F
100
AcDbEntity
  8
0
100
AcDbLine
 10
5.023952846499999
 20
11.94436648009999
 30
0.0
 11
5.0147259261
 21
12.0135961549
 31
0.0
  0
LINE
  5
2C4
330
1F
100
AcDbEntity
  8
0
100
AcDbLine
 10
5.0147259261
 20
12.0135961549
 30
0.0
 11
5.0084104916
 21
12.0831503703
 31
0.0
  0
LINE
  5
2C5
330
1F
100
AcDbEntity
  8
0
100
AcDbLine
 10
5.0084104916
 20
12.0831503703
 30
0.0
 11
5.0050501466
 21
12.1528478977
 31
0.0
  0
LINE
  5
2C6
330
1F
100
AcDbEntity
  8
0
100
AcDbLine
 10
5.0050501466
 20
12.1528478977
 30
0.0
 11
5.004530400899999
 21
12.2103629808
 31
0.0
  0
LINE
  5
2C7
330
1F
100
AcDbEntity
  8
0
100
AcDbLine
 10
5.004530400899999
 20
12.2103629808
 30
0.0
 11
5.006051351199999
 21
12.26791536109999
 31
0.0
  0
LINE
  5
2C8
330
1F
100
AcDbEntity
  8
0
100
AcDbLine
 10
5.006051351199999
 20
12.26791536109999
 30
0.0
 11
5.009613328399999
 21
12.32539542849999
 31
0.0
  0
LINE
  5
2C9
330
1F
100
AcDbEntity
  8
0
100
AcDbLine
 10
5.009613328399999
 20
12.32539542849999
 30
0.0
 11
5.015216663299999
 21
12.3826935728
 31
0.0
  0
LINE
  5
2CA
330
1F
100
AcDbEntity
  8
0
100
AcDbLine
 10
5.015216663299999
 20
12.3826935728
 30
0.0
 11
5.022861686999998
 21
12.4397001839
 31
0.0
  0
LINE
  5
2CB
330
1F
100
AcDbEntity
  8
0
100
AcDbLine
 10
5.022861686999998
 20
12.4397001839
 30
0.0
 11
5.0345717179
 21
12.5067464289
 31
0.0
  0
LINE
  5
2CC
330
1F
100
AcDbEntity
  8
0
100
AcDbLine
 10
5.0345717179
 20
12.5067464289
 30
0.0
 11
5.049190854399999
 21
12.5732860924
 31
0.0
  0
LINE
  5
2CD
330
1F
100
AcDbEntity
  8
0
100
AcDbLine
 10
5.049190854399999
 20
12.5732860924
 30
0.0
 11
5.066712446899998
 21
12.6391177621
 31
0.0
  0
LINE
  5
2CE
330
1F
100
AcDbEntity
  8
0
100
AcDbLine
 10
5.066712446899998
 20
12.6391177621
 30
0.0
 11
5.087129845599998
 21
12.7040400255
 31
0.0
  0
LINE
  5
2CF
330
1F
100
AcDbEntity
  8
0
100
AcDbLine
 10
5.087129845599998
 20
12.7040400255
 30
0.0
 11
5.1061791773
 21
12.7568801294
 31
0.0
  0
LINE
  5
2D0
330
1F
100
AcDbEntity
  8
0
100
AcDbLine
 10
5.1061791773
 20
12.7568801294
 30
0.0
 11
5.1271482898
 21
12.8090388439
 31
0.0
  0
LINE
  5
2D1
330
1F
100
AcDbEntity
  8
0
100
AcDbLine
 10
5.1271482898
 20
12.8090388439
 30
0.0
 11
5.149914127399998
 21
12.86046535779999
 31
0.0
  0
LINE
  5
2D2
330
1F
100
AcDbEntity
  8
0
100
AcDbLine
 10
5.149914127399998
 20
12.86046535779999
 30
0.0
 11
5.1743536343
 21
12.91110886
 31
0.0
  0
LINE
  5
2D3
330
1F
100
AcDbEntity
  8
0
100
AcDbLine
 10
5.1743536343
 20
12.91110886
 30
0.0
 11
5.200343754599999
 21
12.9609185392
 31
0.0
  0
LINE
  5
2D4
330
1F
100
AcDbEntity
  8
0
100
AcDbLine
 10
5.200343754599999
 20
12.9609185392
 30
0.0
 11
5.233116471399998
 21
13.0188672716
 31
0.0
  0
LINE
  5
2D5
330
1F
100
AcDbEntity
  8
0
100
AcDbLine
 10
5.233116471399998
 20
13.0188672716
 30
0.0
 11
5.2680514285
 21
13.07559381569999
 31
0.0
  0
LINE
  5
2D6
330
1F
100
AcDbEntity
  8
0
100
AcDbLine
 10
5.2680514285
 20
13.07559381569999
 30
0.0
 11
5.3050892867
 21
13.13096857619999
 31
0.0
  0
LINE
  5
2D7
330
1F
100
AcDbEntity
  8
0
100
AcDbLine
 10
5.3050892867
 20
13.13096857619999
 30
0.0
 11
5.344170706699999
 21
13.1848619576
 31
0.0
  0
LINE
  5
2D8
330
1F
100
AcDbEntity
  8
0
100
AcDbLine
 10
5.344170706699999
 20
13.1848619576
 30
0.0
 11
5.386392815099998
 21
13.2383439496
 31
0.0
  0
LINE
  5
2D9
330
1F
100
AcDbEntity
  8
0
100
AcDbLine
 10
5.386392815099998
 20
13.2383439496
 30
0.0
 11
5.4307748072
 21
13.2901117825
 31
0.0
  0
LINE
  5
2DA
330
1F
100
AcDbEntity
  8
0
100
AcDbLine
 10
5.4307748072
 20
13.2901117825
 30
0.0
 11
5.4770010121
 21
13.3402668966
 31
0.0
  0
LINE
  5
2DB
330
1F
100
AcDbEntity
  8
0
100
AcDbLine
 10
5.4770010121
 20
13.3402668966
 30
0.0
 11
5.524755758799998
 21
13.3889107327
 31
0.0
  0
LINE
  5
2DC
330
1F
100
AcDbEntity
  8
0
100
AcDbLine
 10
5.524755758799998
 20
13.3889107327
 30
0.0
 11
5.7396520247
 21
13.6021457839
 31
0.0
  0
LINE
  5
2DD
330
1F
100
AcDbEntity
  8
0
100
AcDbLine
 10
5.7396520247
 20
13.6021457839
 30
0.0
 11
5.954224998699999
 21
13.81570716499999
 31
0.0
  0
LINE
  5
2DE
330
1F
100
AcDbEntity
  8
0
100
AcDbLine
 10
5.954224998699999
 20
13.81570716499999
 30
0.0
 11
6.382827622799998
 21
14.2433853772
 31
0.0
  0
LINE
  5
2DF
330
1F
100
AcDbEntity
  8
0
100
AcDbLine
 10
6.382827622799998
 20
14.2433853772
 30
0.0
 11
6.810617833999998
 21
14.6718556733
 31
0.0
  0
LINE
  5
2E0
330
1F
100
AcDbEntity
  8
0
100
AcDbLine
 10
6.810617833999998
 20
14.6718556733
 30
0.0
 11
7.2376289709
 21
15.1010987263
 31
0.0
  0
LINE
  5
2E1
330
1F
100
AcDbEntity
  8
0
100
AcDbLine
 10
7.2376289709
 20
15.1010987263
 30
0.0
 11
7.450833062999999
 21
15.3160096147
 31
0.0
  0
LINE
  5
2E2
330
1F
100
AcDbEntity
  8
0
100
AcDbLine
 10
7.450833062999999
 20
15.3160096147
 30
0.0
 11
7.493400723799998
 21
15.3591114968
 31
0.0
  0
LINE
  5
2E3
330
1F
100
AcDbEntity
  8
0
100
AcDbLine
 10
7.493400723799998
 20
15.3591114968
 30
0.0
 11
7.536067267499999
 21
15.4021430425
 31
0.0
  0
LINE
  5
2E4
330
1F
100
AcDbEntity
  8
0
100
AcDbLine
 10
7.536067267499999
 20
15.4021430425
 30
0.0
 11
7.579187518799998
 21
15.44470090249999
 31
0.0
  0
LINE
  5
2E5
330
1F
100
AcDbEntity
  8
0
100
AcDbLine
 10
7.579187518799998
 20
15.44470090249999
 30
0.0
 11
7.623116302
 21
15.4863817273
 31
0.0
  0
LINE
  5
2E6
330
1F
100
AcDbEntity
  8
0
100
AcDbLine
 10
7.623116302
 20
15.4863817273
 30
0.0
 11
7.6682084416
 21
15.5267821676
 31
0.0
  0
LINE
  5
2E7
330
1F
100
AcDbEntity
  8
0
100
AcDbLine
 10
7.6682084416
 20
15.5267821676
 30
0.0
 11
7.7265196497
 21
15.5754065648
 31
0.0
  0
LINE
  5
2E8
330
1F
100
AcDbEntity
  8
0
100
AcDbLine
 10
7.7265196497
 20
15.5754065648
 30
0.0
 11
7.7866108957
 21
15.621897433
 31
0.0
  0
LINE
  5
2E9
330
1F
100
AcDbEntity
  8
0
100
AcDbLine
 10
7.7866108957
 20
15.621897433
 30
0.0
 11
7.848368306699999
 21
15.6661495634
 31
0.0
  0
LINE
  5
2EA
330
1F
100
AcDbEntity
  8
0
100
AcDbLine
 10
7.848368306699999
 20
15.6661495634
 30
0.0
 11
7.9116780101
 21
15.7080577473
 31
0.0
  0
LINE
  5
2EB
330
1F
100
AcDbEntity
  8
0
100
AcDbLine
 10
7.9116780101
 20
15.7080577473
 30
0.0
 11
7.9662682708
 21
15.7415110694
 31
0.0
  0
LINE
  5
2EC
330
1F
100
AcDbEntity
  8
0
100
AcDbLine
 10
7.9662682708
 20
15.7415110694
 30
0.0
 11
8.021962266199999
 21
15.77319610089999
 31
0.0
  0
LINE
  5
2ED
330
1F
100
AcDbEntity
  8
0
100
AcDbLine
 10
8.021962266199999
 20
15.77319610089999
 30
0.0
 11
8.078670563300001
 21
15.8030645275
 31
0.0
  0
LINE
  5
2EE
330
1F
100
AcDbEntity
  8
0
100
AcDbLine
 10
8.078670563300001
 20
15.8030645275
 30
0.0
 11
8.136303728999997
 21
15.83106803469999
 31
0.0
  0
LINE
  5
2EF
330
1F
100
AcDbEntity
  8
0
100
AcDbLine
 10
8.136303728999997
 20
15.83106803469999
 30
0.0
 11
8.194772330099999
 21
15.85715830829999
 31
0.0
  0
LINE
  5
2F0
330
1F
100
AcDbEntity
  8
0
100
AcDbLine
 10
8.194772330099999
 20
15.85715830829999
 30
0.0
 11
8.255531926899999
 21
15.8818906734
 31
0.0
  0
LINE
  5
2F1
330
1F
100
AcDbEntity
  8
0
100
AcDbLine
 10
8.255531926899999
 20
15.8818906734
 30
0.0
 11
8.317136638099999
 21
15.9045957119
 31
0.0
  0
LINE
  5
2F2
330
1F
100
AcDbEntity
  8
0
100
AcDbLine
 10
8.317136638099999
 20
15.9045957119
 30
0.0
 11
8.379482068299999
 21
15.9252389333
 31
0.0
  0
LINE
  5
2F3
330
1F
100
AcDbEntity
  8
0
100
AcDbLine
 10
8.379482068299999
 20
15.9252389333
 30
0.0
 11
8.442463822
 21
15.9437858475
 31
0.0
  0
LINE
  5
2F4
330
1F
100
AcDbEntity
  8
0
100
AcDbLine
 10
8.442463822
 20
15.9437858475
 30
0.0
 11
8.5059775039
 21
15.9602019641
 31
0.0
  0
LINE
  5
2F5
330
1F
100
AcDbEntity
  8
0
100
AcDbLine
 10
8.5059775039
 20
15.9602019641
 30
0.0
 11
8.5718886965
 21
15.9748624908
 31
0.0
  0
LINE
  5
2F6
330
1F
100
AcDbEntity
  8
0
100
AcDbLine
 10
8.5718886965
 20
15.9748624908
 30
0.0
 11
8.6383230469
 21
15.98726020269999
 31
0.0
  0
LINE
  5
2F7
330
1F
100
AcDbEntity
  8
0
100
AcDbLine
 10
8.6383230469
 20
15.98726020269999
 30
0.0
 11
8.705162492599999
 21
15.99738360869999
 31
0.0
  0
LINE
  5
2F8
330
1F
100
AcDbEntity
  8
0
100
AcDbLine
 10
8.705162492599999
 20
15.99738360869999
 30
0.0
 11
8.7722889708
 21
16.005221218
 31
0.0
  0
LINE
  5
2F9
330
1F
100
AcDbEntity
  8
0
100
AcDbLine
 10
8.7722889708
 20
16.005221218
 30
0.0
 11
8.839584418699997
 21
16.0107615396
 31
0.0
  0
LINE
  5
2FA
330
1F
100
AcDbEntity
  8
0
100
AcDbLine
 10
8.839584418699997
 20
16.0107615396
 30
0.0
 11
8.906125779299998
 21
16.0139825254
 31
0.0
  0
LINE
  5
2FB
330
1F
100
AcDbEntity
  8
0
100
AcDbLine
 10
8.906125779299998
 20
16.0139825254
 30
0.0
 11
8.9728115233
 21
16.01498798769998
 31
0.0
  0
LINE
  5
2FC
330
1F
100
AcDbEntity
  8
0
100
AcDbLine
 10
8.9748069604
 20
16.014987855
 30
0.0
 11
9.040279815299999
 21
16.0140176238
 31
0.0
  0
LINE
  5
2FD
330
1F
100
AcDbEntity
  8
0
100
AcDbLine
 10
9.040279815299999
 20
16.0140176238
 30
0.0
 11
9.105739174099999
 21
16.0109021839
 31
0.0
  0
LINE
  5
2FE
330
1F
100
AcDbEntity
  8
0
100
AcDbLine
 10
9.105739174099999
 20
16.0109021839
 30
0.0
 11
9.1710781833
 21
16.0056409244
 31
0.0
  0
LINE
  5
2FF
330
1F
100
AcDbEntity
  8
0
100
AcDbLine
 10
9.1710781833
 20
16.0056409244
 30
0.0
 11
9.236189989699999
 21
15.9982332348
 31
0.0
  0
LINE
  5
300
330
1F
100
AcDbEntity
  8
0
100
AcDbLine
 10
9.236189989699999
 20
15.9982332348
 30
0.0
 11
9.3009677398
 21
15.9886785043
 31
0.0
  0
LINE
  5
301
330
1F
100
AcDbEntity
  8
0
100
AcDbLine
 10
9.3009677398
 20
15.9886785043
 30
0.0
 11
9.367238679899999
 21
15.9765972929
 31
0.0
  0
LINE
  5
302
330
1F
100
AcDbEntity
  8
0
100
AcDbLine
 10
9.367238679899999
 20
15.9765972929
 30
0.0
 11
9.433114726099999
 21
15.9622392963
 31
0.0
  0
LINE
  5
303
330
1F
100
AcDbEntity
  8
0
100
AcDbLine
 10
9.433114726099999
 20
15.9622392963
 30
0.0
 11
9.498480217699999
 21
15.9456317946
 31
0.0
  0
LINE
  5
304
330
1F
100
AcDbEntity
  8
0
100
AcDbLine
 10
9.498480217699999
 20
15.9456317946
 30
0.0
 11
9.5632194939
 21
15.92680206799998
 31
0.0
  0
LINE
  5
305
330
1F
100
AcDbEntity
  8
0
100
AcDbLine
 10
9.5632194939
 20
15.92680206799998
 30
0.0
 11
9.6272168941
 21
15.9057773965
 31
0.0
  0
LINE
  5
306
330
1F
100
AcDbEntity
  8
0
100
AcDbLine
 10
9.6272168941
 20
15.9057773965
 30
0.0
 11
9.6887862378
 21
15.8832004372
 31
0.0
  0
LINE
  5
307
330
1F
100
AcDbEntity
  8
0
100
AcDbLine
 10
9.6887862378
 20
15.8832004372
 30
0.0
 11
9.7496168021
 21
15.8585565537
 31
0.0
  0
LINE
  5
308
330
1F
100
AcDbEntity
  8
0
100
AcDbLine
 10
9.7496168021
 20
15.8585565537
 30
0.0
 11
9.8096093311
 21
15.831892132
 31
0.0
  0
LINE
  5
309
330
1F
100
AcDbEntity
  8
0
100
AcDbLine
 10
9.8096093311
 20
15.831892132
 30
0.0
 11
9.868664568899999
 21
15.8032535583
 31
0.0
  0
LINE
  5
30A
330
1F
100
AcDbEntity
  8
0
100
AcDbLine
 10
9.868664568899999
 20
15.8032535583
 30
0.0
 11
9.9266832596
 21
15.77268721869999
 31
0.0
  0
LINE
  5
30B
330
1F
100
AcDbEntity
  8
0
100
AcDbLine
 10
9.9266832596
 20
15.77268721869999
 30
0.0
 11
9.985268990399999
 21
15.73922959569999
 31
0.0
  0
LINE
  5
30C
330
1F
100
AcDbEntity
  8
0
100
AcDbLine
 10
9.985268990399999
 20
15.73922959569999
 30
0.0
 11
10.0427270021
 21
15.7037643522
 31
0.0
  0
LINE
  5
30D
330
1F
100
AcDbEntity
  8
0
100
AcDbLine
 10
10.0427270021
 20
15.7037643522
 30
0.0
 11
10.0989825323
 21
15.6663820211
 31
0.0
  0
LINE
  5
30E
330
1F
100
AcDbEntity
  8
0
100
AcDbLine
 10
10.0989825323
 20
15.6663820211
 30
0.0
 11
10.1539608183
 21
15.627173135
 31
0.0
  0
LINE
  5
30F
330
1F
100
AcDbEntity
  8
0
100
AcDbLine
 10
10.1539608183
 20
15.627173135
 30
0.0
 11
10.20758709769999
 21
15.5862282269
 31
0.0
  0
LINE
  5
310
330
1F
100
AcDbEntity
  8
0
100
AcDbLine
 10
10.20758709769999
 20
15.5862282269
 30
0.0
 11
10.2644420545
 21
15.5396809731
 31
0.0
  0
LINE
  5
311
330
1F
100
AcDbEntity
  8
0
100
AcDbLine
 10
10.2644420545
 20
15.5396809731
 30
0.0
 11
10.31962742329999
 21
15.4911312944
 31
0.0
  0
LINE
  5
312
330
1F
100
AcDbEntity
  8
0
100
AcDbLine
 10
10.31962742329999
 20
15.4911312944
 30
0.0
 11
10.3730370534
 21
15.44066891459999
 31
0.0
  0
LINE
  5
313
330
1F
100
AcDbEntity
  8
0
100
AcDbLine
 10
10.3730370534
 20
15.44066891459999
 30
0.0
 11
10.45142009599999
 21
15.36231514209999
 31
0.0
  0
LINE
  5
314
330
1F
100
AcDbEntity
  8
0
100
AcDbLine
 10
10.45142009599999
 20
15.36231514209999
 30
0.0
 11
10.52922520009998
 21
15.28337943539999
 31
0.0
  0
LINE
  5
315
330
1F
100
AcDbEntity
  8
0
100
AcDbLine
 10
10.52922520009998
 20
15.28337943539999
 30
0.0
 11
10.685347936
 21
15.1260049805
 31
0.0
  0
LINE
  5
316
330
1F
100
AcDbEntity
  8
0
100
AcDbLine
 10
10.685347936
 20
15.1260049805
 30
0.0
 11
10.8392925373
 21
14.97104135619998
 31
0.0
  0
LINE
  5
317
330
1F
100
AcDbEntity
  8
0
100
AcDbLine
 10
10.8392925373
 20
14.97104135619998
 30
0.0
 11
11.1542904605
 21
14.654594672
 31
0.0
  0
LINE
  5
318
330
1F
100
AcDbEntity
  8
0
100
AcDbLine
 10
11.1542904605
 20
14.654594672
 30
0.0
 11
11.4779574732
 21
14.3303164638
 31
0.0
  0
LINE
  5
319
330
1F
100
AcDbEntity
  8
0
100
AcDbLine
 10
11.4779574732
 20
14.3303164638
 30
0.0
 11
11.80208158249999
 21
14.0064865257
 31
0.0
  0
LINE
  5
31A
330
1F
100
AcDbEntity
  8
0
100
AcDbLine
 10
11.80208158249999
 20
14.0064865257
 30
0.0
 11
12.0625672503
 21
13.7469280354
 31
0.0
  0
LINE
  5
31B
330
1F
100
AcDbEntity
  8
0
100
AcDbLine
 10
12.0625672503
 20
13.7469280354
 30
0.0
 11
12.1929333701
 21
13.6172718588
 31
0.0
  0
LINE
  5
31C
330
1F
100
AcDbEntity
  8
0
100
AcDbLine
 10
12.1929333701
 20
13.6172718588
 30
0.0
 11
12.32337503609999
 21
13.487693395
 31
0.0
  0
LINE
  5
31D
330
1F
100
AcDbEntity
  8
0
100
AcDbLine
 10
12.32337503609999
 20
13.487693395
 30
0.0
 11
12.3670006061
 21
13.444545236
 31
0.0
  0
LINE
  5
31E
330
1F
100
AcDbEntity
  8
0
100
AcDbLine
 10
12.3670006061
 20
13.444545236
 30
0.0
 11
12.4105856482
 21
13.4012870123
 31
0.0
  0
LINE
  5
31F
330
1F
100
AcDbEntity
  8
0
100
AcDbLine
 10
12.4105856482
 20
13.4012870123
 30
0.0
 11
12.4537070389
 21
13.3575765199
 31
0.0
  0
LINE
  5
320
330
1F
100
AcDbEntity
  8
0
100
AcDbLine
 10
12.4537070389
 20
13.3575765199
 30
0.0
 11
12.4959416548
 21
13.3130715548
 31
0.0
  0
LINE
  5
321
330
1F
100
AcDbEntity
  8
0
100
AcDbLine
 10
12.4959416548
 20
13.3130715548
 30
0.0
 11
12.5368663725
 21
13.26742991299999
 31
0.0
  0
LINE
  5
322
330
1F
100
AcDbEntity
  8
0
100
AcDbLine
 10
12.5368663725
 20
13.26742991299999
 30
0.0
 11
12.5760580684
 21
13.2203093905
 31
0.0
  0
LINE
  5
323
330
1F
100
AcDbEntity
  8
0
100
AcDbLine
 10
12.5760580684
 20
13.2203093905
 30
0.0
 11
12.6177066088
 21
13.1658043032
 31
0.0
  0
LINE
  5
324
330
1F
100
AcDbEntity
  8
0
100
AcDbLine
 10
12.6177066088
 20
13.1658043032
 30
0.0
 11
12.65721631019999
 21
13.1096654663
 31
0.0
  0
LINE
  5
325
330
1F
100
AcDbEntity
  8
0
100
AcDbLine
 10
12.65721631019999
 20
13.1096654663
 30
0.0
 11
12.6945177998
 21
13.052033912
 31
0.0
  0
LINE
  5
326
330
1F
100
AcDbEntity
  8
0
100
AcDbLine
 10
12.6945177998
 20
13.052033912
 30
0.0
 11
12.7295417044
 21
12.99305067279999
 31
0.0
  0
LINE
  5
327
330
1F
100
AcDbEntity
  8
0
100
AcDbLine
 10
12.7295417044
 20
12.99305067279999
 30
0.0
 11
12.7565911569
 21
12.9437127219
 31
0.0
  0
LINE
  5
328
330
1F
100
AcDbEntity
  8
0
100
AcDbLine
 10
12.7565911569
 20
12.9437127219
 30
0.0
 11
12.7821201944
 21
12.89351804799999
 31
0.0
  0
LINE
  5
329
330
1F
100
AcDbEntity
  8
0
100
AcDbLine
 10
12.7821201944
 20
12.89351804799999
 30
0.0
 11
12.80601880839999
 21
12.8425171899
 31
0.0
  0
LINE
  5
32A
330
1F
100
AcDbEntity
  8
0
100
AcDbLine
 10
12.80601880839999
 20
12.8425171899
 30
0.0
 11
12.82817699019999
 21
12.7907606864
 31
0.0
  0
LINE
  5
32B
330
1F
100
AcDbEntity
  8
0
100
AcDbLine
 10
12.82817699019999
 20
12.7907606864
 30
0.0
 11
12.8484847312
 21
12.73829907619999
 31
0.0
  0
LINE
  5
32C
330
1F
100
AcDbEntity
  8
0
100
AcDbLine
 10
12.8484847312
 20
12.73829907619999
 30
0.0
 11
12.8706331062
 21
12.6732938199
 31
0.0
  0
LINE
  5
32D
330
1F
100
AcDbEntity
  8
0
100
AcDbLine
 10
12.8706331062
 20
12.6732938199
 30
0.0
 11
12.889844663
 21
12.60728907819999
 31
0.0
  0
LINE
  5
32E
330
1F
100
AcDbEntity
  8
0
100
AcDbLine
 10
12.889844663
 20
12.60728907819999
 30
0.0
 11
12.9061008923
 21
12.54049217599999
 31
0.0
  0
LINE
  5
32F
330
1F
100
AcDbEntity
  8
0
100
AcDbLine
 10
12.9061008923
 20
12.54049217599999
 30
0.0
 11
12.9193832851
 21
12.47311043809999
 31
0.0
  0
LINE
  5
330
330
1F
100
AcDbEntity
  8
0
100
AcDbLine
 10
12.9193832851
 20
12.47311043809999
 30
0.0
 11
12.9300026854
 21
12.40300132589998
 31
0.0
  0
LINE
  5
331
330
1F
100
AcDbEntity
  8
0
100
AcDbLine
 10
12.9300026854
 20
12.40300132589998
 30
0.0
 11
12.93751572819999
 21
12.3324223526
 31
0.0
  0
LINE
  5
332
330
1F
100
AcDbEntity
  8
0
100
AcDbLine
 10
12.93751572819999
 20
12.3324223526
 30
0.0
 11
12.94192363109998
 21
12.2615803552
 31
0.0
  0
LINE
  5
333
330
1F
100
AcDbEntity
  8
0
100
AcDbLine
 10
12.94192363109998
 20
12.2615803552
 30
0.0
 11
12.9432276114
 21
12.1906821704
 31
0.0
  0
LINE
  5
334
330
1F
100
AcDbEntity
  8
0
100
AcDbLine
 10
12.9432276114
 20
12.1906821704
 30
0.0
 11
12.9416802983
 21
12.1253250822
 31
0.0
  0
LINE
  5
335
330
1F
100
AcDbEntity
  8
0
100
AcDbLine
 10
12.9416802983
 20
12.1253250822
 30
0.0
 11
12.93751958109998
 21
12.0600306756
 31
0.0
  0
LINE
  5
336
330
1F
100
AcDbEntity
  8
0
100
AcDbLine
 10
12.93751958109998
 20
12.0600306756
 30
0.0
 11
12.93078241979999
 21
11.9949501044
 31
0.0
  0
LINE
  5
337
330
1F
100
AcDbEntity
  8
0
100
AcDbLine
 10
12.93078241979999
 20
11.9949501044
 30
0.0
 11
12.9215057748
 21
11.9302345222
 31
0.0
  0
LINE
  5
338
330
1F
100
AcDbEntity
  8
0
100
AcDbLine
 10
12.9215057748
 20
11.9302345222
 30
0.0
 11
12.9093665231
 21
11.86427285319999
 31
0.0
  0
LINE
  5
339
330
1F
100
AcDbEntity
  8
0
100
AcDbLine
 10
12.9093665231
 20
11.86427285319999
 30
0.0
 11
12.8945849206
 21
11.79879755189999
 31
0.0
  0
LINE
  5
33A
330
1F
100
AcDbEntity
  8
0
100
AcDbLine
 10
12.8945849206
 20
11.79879755189999
 30
0.0
 11
12.8771948565
 21
11.73396695119999
 31
0.0
  0
LINE
  5
33B
330
1F
100
AcDbEntity
  8
0
100
AcDbLine
 10
12.8771948565
 20
11.73396695119999
 30
0.0
 11
12.85723021999999
 21
11.6699393844
 31
0.0
  0
LINE
  5
33C
330
1F
100
AcDbEntity
  8
0
100
AcDbLine
 10
12.85723021999999
 20
11.6699393844
 30
0.0
 11
12.8340025021
 21
11.6049396366
 31
0.0
  0
LINE
  5
33D
330
1F
100
AcDbEntity
  8
0
100
AcDbLine
 10
12.8340025021
 20
11.6049396366
 30
0.0
 11
12.8080891035
 21
11.540900084
 31
0.0
  0
LINE
  5
33E
330
1F
100
AcDbEntity
  8
0
100
AcDbLine
 10
12.8080891035
 20
11.540900084
 30
0.0
 11
12.77956491609999
 21
11.4779798586
 31
0.0
  0
LINE
  5
33F
330
1F
100
AcDbEntity
  8
0
100
AcDbLine
 10
12.77956491609999
 20
11.4779798586
 30
0.0
 11
12.7485048316
 21
11.4163380923
 31
0.0
  0
LINE
  5
340
330
1F
100
AcDbEntity
  8
0
100
AcDbLine
 10
12.7485048316
 20
11.4163380923
 30
0.0
 11
12.7139525017
 21
11.3543479139
 31
0.0
  0
LINE
  5
341
330
1F
100
AcDbEntity
  8
0
100
AcDbLine
 10
12.7139525017
 20
11.3543479139
 30
0.0
 11
12.6768014657
 21
11.293807279
 31
0.0
  0
LINE
  5
342
330
1F
100
AcDbEntity
  8
0
100
AcDbLine
 10
12.6768014657
 20
11.293807279
 30
0.0
 11
12.6371700437
 21
11.2348589443
 31
0.0
  0
LINE
  5
343
330
1F
100
AcDbEntity
  8
0
100
AcDbLine
 10
12.6371700437
 20
11.2348589443
 30
0.0
 11
12.5951765563
 21
11.1776456665
 31
0.0
  0
LINE
  5
344
330
1F
100
AcDbEntity
  8
0
100
AcDbLine
 10
12.5951765563
 20
11.1776456665
 30
0.0
 11
12.55774364829999
 21
11.13071077999999
 31
0.0
  0
LINE
  5
345
330
1F
100
AcDbEntity
  8
0
100
AcDbLine
 10
12.55774364829999
 20
11.13071077999999
 30
0.0
 11
12.5186171972
 21
11.0851280739
 31
0.0
  0
LINE
  5
346
330
1F
100
AcDbEntity
  8
0
100
AcDbLine
 10
12.5186171972
 20
11.0851280739
 30
0.0
 11
12.4780362093
 21
11.04079017929999
 31
0.0
  0
LINE
  5
347
330
1F
100
AcDbEntity
  8
0
100
AcDbLine
 10
12.4780362093
 20
11.04079017929999
 30
0.0
 11
12.4362396914
 21
10.9975897271
 31
0.0
  0
LINE
  5
348
330
1F
100
AcDbEntity
  8
0
100
AcDbLine
 10
12.4362396914
 20
10.9975897271
 30
0.0
 11
12.3934666499
 21
10.95541934849998
 31
0.0
  0
LINE
  5
349
330
1F
100
AcDbEntity
  8
0
100
AcDbLine
 10
12.3934666499
 20
10.95541934849998
 30
0.0
 11
12.3384863
 21
10.9032195591
 31
0.0
  0
LINE
  5
34A
330
1F
100
AcDbEntity
  8
0
100
AcDbLine
 10
12.3384863
 20
10.9032195591
 30
0.0
 11
12.2826373592
 21
10.8519502351
 31
0.0
  0
LINE
  5
34B
330
1F
100
AcDbEntity
  8
0
100
AcDbLine
 10
12.2826373592
 20
10.8519502351
 30
0.0
 11
12.2274241747
 21
10.80293102519999
 31
0.0
  0
LINE
  5
34C
330
1F
100
AcDbEntity
  8
0
100
AcDbLine
 10
12.2274241747
 20
10.80293102519999
 30
0.0
 11
12.1714117696
 21
10.7548271617
 31
0.0
  0
LINE
  5
34D
330
1F
100
AcDbEntity
  8
0
100
AcDbLine
 10
12.1714117696
 20
10.7548271617
 30
0.0
 11
12.0907303021
 21
10.6882893286
 31
0.0
  0
LINE
  5
34E
330
1F
100
AcDbEntity
  8
0
100
AcDbLine
 10
12.0907303021
 20
10.6882893286
 30
0.0
 11
12.00849762569998
 21
10.62365527989999
 31
0.0
  0
LINE
  5
34F
330
1F
100
AcDbEntity
  8
0
100
AcDbLine
 10
12.00849762569998
 20
10.62365527989999
 30
0.0
 11
11.92477581609999
 21
10.5609865831
 31
0.0
  0
LINE
  5
350
330
1F
100
AcDbEntity
  8
0
100
AcDbLine
 10
11.92477581609999
 20
10.5609865831
 30
0.0
 11
11.8364040501
 21
10.4981098143
 31
0.0
  0
LINE
  5
351
330
1F
100
AcDbEntity
  8
0
100
AcDbLine
 10
11.8364040501
 20
10.4981098143
 30
0.0
 11
11.7464674793
 21
10.43740312559999
 31
0.0
  0
LINE
  5
352
330
1F
100
AcDbEntity
  8
0
100
AcDbLine
 10
11.7464674793
 20
10.43740312559999
 30
0.0
 11
11.65504585869998
 21
10.3789267807
 31
0.0
  0
LINE
  5
353
330
1F
100
AcDbEntity
  8
0
100
AcDbLine
 10
11.65504585869998
 20
10.3789267807
 30
0.0
 11
11.5622189435
 21
10.32274104289998
 31
0.0
  0
LINE
  5
354
330
1F
100
AcDbEntity
  8
0
100
AcDbLine
 10
11.5622189435
 20
10.32274104289998
 30
0.0
 11
11.4680664888
 21
10.2689061761
 31
0.0
  0
LINE
  5
355
330
1F
100
AcDbEntity
  8
0
100
AcDbLine
 10
11.4680664888
 20
10.2689061761
 30
0.0
 11
11.37107197039999
 21
10.2166428303
 31
0.0
  0
LINE
  5
356
330
1F
100
AcDbEntity
  8
0
100
AcDbLine
 10
11.37107197039999
 20
10.2166428303
 30
0.0
 11
11.27273471579999
 21
10.1668334771
 31
0.0
  0
LINE
  5
357
330
1F
100
AcDbEntity
  8
0
100
AcDbLine
 10
11.27273471579999
 20
10.1668334771
 30
0.0
 11
11.17314952299998
 21
10.1195272593
 31
0.0
  0
LINE
  5
358
330
1F
100
AcDbEntity
  8
0
100
AcDbLine
 10
11.17314952299998
 20
10.1195272593
 30
0.0
 11
11.07241118999999
 21
10.0747733196
 31
0.0
  0
LINE
  5
359
330
1F
100
AcDbEntity
  8
0
100
AcDbLine
 10
11.07241118999999
 20
10.0747733196
 30
0.0
 11
10.97061451479999
 21
10.0326208007
 31
0.0
  0
LINE
  5
35A
330
1F
100
AcDbEntity
  8
0
100
AcDbLine
 10
6.1641163621
 20
9.5168575413
 30
0.0
 11
6.141531346199998
 21
9.525909779299999
 31
0.0
  0
LINE
  5
35B
330
1F
100
AcDbEntity
  8
0
100
AcDbLine
 10
6.141531346199998
 20
9.525909779299999
 30
0.0
 11
6.123801525499999
 21
9.533061149499999
 31
0.0
  0
LINE
  5
35C
330
1F
100
AcDbEntity
  8
0
100
AcDbLine
 10
6.123801525499999
 20
9.533061149499999
 30
0.0
 11
6.0921736914
 21
9.545917070299999
 31
0.0
  0
LINE
  5
35D
330
1F
100
AcDbEntity
  8
0
100
AcDbLine
 10
6.0921736914
 20
9.545917070299999
 30
0.0
 11
6.035792587599998
 21
9.56913967
 31
0.0
  0
LINE
  5
35E
330
1F
100
AcDbEntity
  8
0
100
AcDbLine
 10
6.035792587599998
 20
9.56913967
 30
0.0
 11
5.935390586
 21
9.6114216456
 31
0.0
  0
LINE
  5
35F
330
1F
100
AcDbEntity
  8
0
100
AcDbLine
 10
5.935390586
 20
9.6114216456
 30
0.0
 11
5.846005086299999
 21
9.650008204099998
 31
0.0
  0
LINE
  5
360
330
1F
100
AcDbEntity
  8
0
100
AcDbLine
 10
5.846005086299999
 20
9.650008204099998
 30
0.0
 11
5.7568663396
 21
9.689398820199999
 31
0.0
  0
LINE
  5
361
330
1F
100
AcDbEntity
  8
0
100
AcDbLine
 10
5.7568663396
 20
9.689398820199999
 30
0.0
 11
5.651094957499998
 21
9.7373923891
 31
0.0
  0
LINE
  5
362
330
1F
100
AcDbEntity
  8
0
100
AcDbLine
 10
5.651094957499998
 20
9.7373923891
 30
0.0
 11
5.5457812985
 21
9.786711742099999
 31
0.0
  0
LINE
  5
363
330
1F
100
AcDbEntity
  8
0
100
AcDbLine
 10
5.5457812985
 20
9.786711742099999
 30
0.0
 11
5.4411595401
 21
9.837688462899999
 31
0.0
  0
LINE
  5
364
330
1F
100
AcDbEntity
  8
0
100
AcDbLine
 10
5.4411595401
 20
9.837688462899999
 30
0.0
 11
5.3485440672
 21
9.884901404099998
 31
0.0
  0
LINE
  5
365
330
1F
100
AcDbEntity
  8
0
100
AcDbLine
 10
5.3485440672
 20
9.884901404099998
 30
0.0
 11
5.2568672952
 21
9.93395974
 31
0.0
  0
LINE
  5
366
330
1F
100
AcDbEntity
  8
0
100
AcDbLine
 10
5.2568672952
 20
9.93395974
 30
0.0
 11
5.1662077324
 21
9.9849244833
 31
0.0
  0
LINE
  5
367
330
1F
100
AcDbEntity
  8
0
100
AcDbLine
 10
5.1662077324
 20
9.9849244833
 30
0.0
 11
5.076614028299998
 21
10.0378128171
 31
0.0
  0
LINE
  5
368
330
1F
100
AcDbEntity
  8
0
100
AcDbLine
 10
5.076614028299998
 20
10.0378128171
 30
0.0
 11
4.9880949373
 21
10.0925817694
 31
0.0
  0
LINE
  5
369
330
1F
100
AcDbEntity
  8
0
100
AcDbLine
 10
4.9880949373
 20
10.0925817694
 30
0.0
 11
4.9006049418
 21
10.1491202284
 31
0.0
  0
LINE
  5
36A
330
1F
100
AcDbEntity
  8
0
100
AcDbLine
 10
4.9006049418
 20
10.1491202284
 30
0.0
 11
4.7906839614
 21
10.22349224519998
 31
0.0
  0
LINE
  5
36B
330
1F
100
AcDbEntity
  8
0
100
AcDbLine
 10
4.7906839614
 20
10.22349224519998
 30
0.0
 11
4.6822936062
 21
10.3004054222
 31
0.0
  0
LINE
  5
36C
330
1F
100
AcDbEntity
  8
0
100
AcDbLine
 10
4.6822936062
 20
10.3004054222
 30
0.0
 11
4.575383481
 21
10.37975714979999
 31
0.0
  0
LINE
  5
36D
330
1F
100
AcDbEntity
  8
0
100
AcDbLine
 10
4.575383481
 20
10.37975714979999
 30
0.0
 11
4.4699121669
 21
10.4614636107
 31
0.0
  0
LINE
  5
36E
330
1F
100
AcDbEntity
  8
0
100
AcDbLine
 10
4.4699121669
 20
10.4614636107
 30
0.0
 11
4.365838244999999
 21
10.54544098789998
 31
0.0
  0
LINE
  5
36F
330
1F
100
AcDbEntity
  8
0
100
AcDbLine
 10
4.365838244999999
 20
10.54544098789998
 30
0.0
 11
4.263118230799999
 21
10.6316071545
 31
0.0
  0
LINE
  5
370
330
1F
100
AcDbEntity
  8
0
100
AcDbLine
 10
4.263118230799999
 20
10.6316071545
 30
0.0
 11
4.2031956659
 21
10.68339209559999
 31
0.0
  0
LINE
  5
371
330
1F
100
AcDbEntity
  8
0
100
AcDbLine
 10
4.2031956659
 20
10.68339209559999
 30
0.0
 11
4.1437586124
 21
10.7359020471
 31
0.0
  0
LINE
  5
372
330
1F
100
AcDbEntity
  8
0
100
AcDbLine
 10
4.1437586124
 20
10.7359020471
 30
0.0
 11
4.084855295499997
 21
10.7891077825
 31
0.0
  0
LINE
  5
373
330
1F
100
AcDbEntity
  8
0
100
AcDbLine
 10
4.084855295499997
 20
10.7891077825
 30
0.0
 11
4.0265334823
 21
10.842979839
 31
0.0
  0
LINE
  5
374
330
1F
100
AcDbEntity
  8
0
100
AcDbLine
 10
4.0265334823
 20
10.842979839
 30
0.0
 11
3.9688089085
 21
10.89748679559999
 31
0.0
  0
LINE
  5
375
330
1F
100
AcDbEntity
  8
0
100
AcDbLine
 10
3.9688089085
 20
10.89748679559999
 30
0.0
 11
3.911667127699998
 21
10.9526241818
 31
0.0
  0
LINE
  5
376
330
1F
100
AcDbEntity
  8
0
100
AcDbLine
 10
3.911667127699998
 20
10.9526241818
 30
0.0
 11
3.8550596885
 21
11.00836922339998
 31
0.0
  0
LINE
  5
377
330
1F
100
AcDbEntity
  8
0
100
AcDbLine
 10
3.8550596885
 20
11.00836922339998
 30
0.0
 11
3.7997225902
 21
11.06424604289999
 31
0.0
  0
LINE
  5
378
330
1F
100
AcDbEntity
  8
0
100
AcDbLine
 10
14.14798208829999
 20
11.06424604289999
 30
0.0
 11
14.0954441625
 21
11.0111375963
 31
0.0
  0
LINE
  5
379
330
1F
100
AcDbEntity
  8
0
100
AcDbLine
 10
14.0954441625
 20
11.0111375963
 30
0.0
 11
14.04168593
 21
10.9581424739
 31
0.0
  0
LINE
  5
37A
330
1F
100
AcDbEntity
  8
0
100
AcDbLine
 10
14.04168593
 20
10.9581424739
 30
0.0
 11
13.98745177859999
 21
10.90566711359999
 31
0.0
  0
LINE
  5
37B
330
1F
100
AcDbEntity
  8
0
100
AcDbLine
 10
13.98745177859999
 20
10.90566711359999
 30
0.0
 11
13.93269309759999
 21
10.853765196
 31
0.0
  0
LINE
  5
37C
330
1F
100
AcDbEntity
  8
0
100
AcDbLine
 10
13.93269309759999
 20
10.853765196
 30
0.0
 11
13.8773975677
 21
10.8024331301
 31
0.0
  0
LINE
  5
37D
330
1F
100
AcDbEntity
  8
0
100
AcDbLine
 10
13.8773975677
 20
10.8024331301
 30
0.0
 11
13.8215679951
 21
10.7516955502
 31
0.0
  0
LINE
  5
37E
330
1F
100
AcDbEntity
  8
0
100
AcDbLine
 10
13.8215679951
 20
10.7516955502
 30
0.0
 11
13.7328516534
 21
10.6732283338
 31
0.0
  0
LINE
  5
37F
330
1F
100
AcDbEntity
  8
0
100
AcDbLine
 10
13.7328516534
 20
10.6732283338
 30
0.0
 11
13.6430710589
 21
10.596389009
 31
0.0
  0
LINE
  5
380
330
1F
100
AcDbEntity
  8
0
100
AcDbLine
 10
13.6430710589
 20
10.596389009
 30
0.0
 11
13.5522712032
 21
10.5212206126
 31
0.0
  0
LINE
  5
381
330
1F
100
AcDbEntity
  8
0
100
AcDbLine
 10
13.5522712032
 20
10.5212206126
 30
0.0
 11
13.4538094768
 21
10.44258461049998
 31
0.0
  0
LINE
  5
382
330
1F
100
AcDbEntity
  8
0
100
AcDbLine
 10
13.4538094768
 20
10.44258461049998
 30
0.0
 11
13.3540970811
 21
10.36598443789998
 31
0.0
  0
LINE
  5
383
330
1F
100
AcDbEntity
  8
0
100
AcDbLine
 10
13.3540970811
 20
10.36598443789998
 30
0.0
 11
13.2530992995
 21
10.2914903486
 31
0.0
  0
LINE
  5
384
330
1F
100
AcDbEntity
  8
0
100
AcDbLine
 10
13.2530992995
 20
10.2914903486
 30
0.0
 11
13.15078141569999
 21
10.2191725967
 31
0.0
  0
LINE
  5
385
330
1F
100
AcDbEntity
  8
0
100
AcDbLine
 10
13.15078141569999
 20
10.2191725967
 30
0.0
 11
13.0470997366
 21
10.1491202285
 31
0.0
  0
LINE
  5
386
330
1F
100
AcDbEntity
  8
0
100
AcDbLine
 10
13.0470997366
 20
10.1491202285
 30
0.0
 11
12.9516056312
 21
10.0875282719
 31
0.0
  0
LINE
  5
387
330
1F
100
AcDbEntity
  8
0
100
AcDbLine
 10
12.9516056312
 20
10.0875282719
 30
0.0
 11
12.8548823424
 21
10.02805293009999
 31
0.0
  0
LINE
  5
388
330
1F
100
AcDbEntity
  8
0
100
AcDbLine
 10
12.8548823424
 20
10.02805293009999
 30
0.0
 11
12.7568752703
 21
9.970834959299999
 31
0.0
  0
LINE
  5
389
330
1F
100
AcDbEntity
  8
0
100
AcDbLine
 10
12.7568752703
 20
9.970834959299999
 30
0.0
 11
12.6576155093
 21
9.915900674599999
 31
0.0
  0
LINE
  5
38A
330
1F
100
AcDbEntity
  8
0
100
AcDbLine
 10
12.6576155093
 20
9.915900674599999
 30
0.0
 11
12.5571688071
 21
9.863224288899999
 31
0.0
  0
LINE
  5
38B
330
1F
100
AcDbEntity
  8
0
100
AcDbLine
 10
12.5571688071
 20
9.863224288899999
 30
0.0
 11
12.4556957721
 21
9.812632152799999
 31
0.0
  0
LINE
  5
38C
330
1F
100
AcDbEntity
  8
0
100
AcDbLine
 10
12.4556957721
 20
9.812632152799999
 30
0.0
 11
12.35343993
 21
9.763789731900001
 31
0.0
  0
LINE
  5
38D
330
1F
100
AcDbEntity
  8
0
100
AcDbLine
 10
12.35343993
 20
9.763789731900001
 30
0.0
 11
12.247893449
 21
9.71511334
 31
0.0
  0
LINE
  5
38E
330
1F
100
AcDbEntity
  8
0
100
AcDbLine
 10
12.247893449
 20
9.71511334
 30
0.0
 11
12.1419456154
 21
9.6676772735
 31
0.0
  0
LINE
  5
38F
330
1F
100
AcDbEntity
  8
0
100
AcDbLine
 10
12.1419456154
 20
9.6676772735
 30
0.0
 11
12.0356368166
 21
9.621404521699998
 31
0.0
  0
LINE
  5
390
330
1F
100
AcDbEntity
  8
0
100
AcDbLine
 10
12.0356368166
 20
9.621404521699998
 30
0.0
 11
11.8947766513
 21
9.562041116599999
 31
0.0
  0
LINE
  5
391
330
1F
100
AcDbEntity
  8
0
100
AcDbLine
 10
11.8947766513
 20
9.562041116599999
 30
0.0
 11
11.8325737289
 21
9.536573022699998
 31
0.0
  0
LINE
  5
392
330
1F
100
AcDbEntity
  8
0
100
AcDbLine
 10
11.8325737289
 20
9.536573022699998
 30
0.0
 11
11.8051546996
 21
9.525500135799999
 31
0.0
  0
LINE
  5
393
330
1F
100
AcDbEntity
  8
0
100
AcDbLine
 10
11.8051546996
 20
9.525500135799999
 30
0.0
 11
11.7835883164
 21
9.5168575413
 31
0.0
  0
LINE
  5
394
330
1F
100
AcDbEntity
  8
0
100
AcDbLine
 10
6.973945461799999
 20
1.968907384999999
 30
0.0
 11
6.8840965458
 21
1.970382692599999
 31
0.0
  0
LINE
  5
395
330
1F
100
AcDbEntity
  8
0
100
AcDbLine
 10
6.8840965458
 20
1.970382692599999
 30
0.0
 11
6.795040765599999
 21
1.971867328
 31
0.0
  0
LINE
  5
396
330
1F
100
AcDbEntity
  8
0
100
AcDbLine
 10
6.795040765599999
 20
1.971867328
 30
0.0
 11
6.706851236499998
 21
1.9733593177
 31
0.0
  0
LINE
  5
397
330
1F
100
AcDbEntity
  8
0
100
AcDbLine
 10
6.706851236499998
 20
1.9733593177
 30
0.0
 11
6.6196010739
 21
1.9748566877
 31
0.0
  0
LINE
  5
398
330
1F
100
AcDbEntity
  8
0
100
AcDbLine
 10
6.6196010739
 20
1.9748566877
 30
0.0
 11
6.533363392999999
 21
1.976357464399999
 31
0.0
  0
LINE
  5
399
330
1F
100
AcDbEntity
  8
0
100
AcDbLine
 10
6.533363392999999
 20
1.976357464399999
 30
0.0
 11
6.448146530399999
 21
1.977861088799999
 31
0.0
  0
LINE
  5
39A
330
1F
100
AcDbEntity
  8
0
100
AcDbLine
 10
6.448146530399999
 20
1.977861088799999
 30
0.0
 11
6.363956349299999
 21
1.979367433899998
 31
0.0
  0
LINE
  5
39B
330
1F
100
AcDbEntity
  8
0
100
AcDbLine
 10
6.363956349299999
 20
1.979367433899998
 30
0.0
 11
6.280852228999998
 21
1.980875349199999
 31
0.0
  0
LINE
  5
39C
330
1F
100
AcDbEntity
  8
0
100
AcDbLine
 10
6.280852228999998
 20
1.980875349199999
 30
0.0
 11
6.198893549
 21
1.982383684499998
 31
0.0
  0
LINE
  5
39D
330
1F
100
AcDbEntity
  8
0
100
AcDbLine
 10
6.198893549
 20
1.982383684499998
 30
0.0
 11
6.1181396887
 21
1.983891289499998
 31
0.0
  0
LINE
  5
39E
330
1F
100
AcDbEntity
  8
0
100
AcDbLine
 10
6.1181396887
 20
1.983891289499998
 30
0.0
 11
6.0345534561
 21
1.985475264799998
 31
0.0
  0
LINE
  5
39F
330
1F
100
AcDbEntity
  8
0
100
AcDbLine
 10
6.0345534561
 20
1.985475264799998
 30
0.0
 11
5.952314917299998
 21
1.9870583074
 31
0.0
  0
LINE
  5
3A0
330
1F
100
AcDbEntity
  8
0
100
AcDbLine
 10
5.952314917299998
 20
1.9870583074
 30
0.0
 11
5.871483648099999
 21
1.988639443
 31
0.0
  0
LINE
  5
3A1
330
1F
100
AcDbEntity
  8
0
100
AcDbLine
 10
5.871483648099999
 20
1.988639443
 30
0.0
 11
5.792119224299999
 21
1.990217696999998
 31
0.0
  0
LINE
  5
3A2
330
1F
100
AcDbEntity
  8
0
100
AcDbLine
 10
5.792119224299999
 20
1.990217696999998
 30
0.0
 11
5.714281221799999
 21
1.9917920949
 31
0.0
  0
LINE
  5
3A3
330
1F
100
AcDbEntity
  8
0
100
AcDbLine
 10
5.714281221799999
 20
1.9917920949
 30
0.0
 11
5.6535006495
 21
1.9930407011
 31
0.0
  0
LINE
  5
3A4
330
1F
100
AcDbEntity
  8
0
100
AcDbLine
 10
5.6535006495
 20
1.9930407011
 30
0.0
 11
5.593643888899999
 21
1.994287832499999
 31
0.0
  0
LINE
  5
3A5
330
1F
100
AcDbEntity
  8
0
100
AcDbLine
 10
5.593643888899999
 20
1.994287832499999
 30
0.0
 11
5.534923908799998
 21
1.9955296877
 31
0.0
  0
LINE
  5
3A6
330
1F
100
AcDbEntity
  8
0
100
AcDbLine
 10
5.534923908799998
 20
1.9955296877
 30
0.0
 11
5.477553678099999
 21
1.996762465299999
 31
0.0
  0
LINE
  5
3A7
330
1F
100
AcDbEntity
  8
0
100
AcDbLine
 10
5.477553678099999
 20
1.996762465299999
 30
0.0
 11
5.432430273999998
 21
1.997748665299999
 31
0.0
  0
LINE
  5
3A8
330
1F
100
AcDbEntity
  8
0
100
AcDbLine
 10
5.432430273999998
 20
1.997748665299999
 30
0.0
 11
5.389072923799998
 21
1.9987140452
 31
0.0
  0
LINE
  5
3A9
330
1F
100
AcDbEntity
  8
0
100
AcDbLine
 10
5.389072923799998
 20
1.9987140452
 30
0.0
 11
5.3475858013
 21
1.9996572049
 31
0.0
  0
LINE
  5
3AA
330
1F
100
AcDbEntity
  8
0
100
AcDbLine
 10
5.3475858013
 20
1.9996572049
 30
0.0
 11
5.308073080199998
 21
2.000576744099999
 31
0.0
  0
LINE
  5
3AB
330
1F
100
AcDbEntity
  8
0
100
AcDbLine
 10
5.308073080199998
 20
2.000576744099999
 30
0.0
 11
5.270638934299999
 21
2.001471262499999
 31
0.0
  0
LINE
  5
3AC
330
1F
100
AcDbEntity
  8
0
100
AcDbLine
 10
5.270638934299999
 20
2.001471262499999
 30
0.0
 11
5.235685738199999
 21
2.0023317833
 31
0.0
  0
LINE
  5
3AD
330
1F
100
AcDbEntity
  8
0
100
AcDbLine
 10
5.235685738199999
 20
2.0023317833
 30
0.0
 11
5.2028117351
 21
2.003168550399998
 31
0.0
  0
LINE
  5
3AE
330
1F
100
AcDbEntity
  8
0
100
AcDbLine
 10
5.2028117351
 20
2.003168550399998
 30
0.0
 11
5.172092840199999
 21
2.003980435899999
 31
0.0
  0
LINE
  5
3AF
330
1F
100
AcDbEntity
  8
0
100
AcDbLine
 10
5.172092840199999
 20
2.003980435899999
 30
0.0
 11
5.1436049687
 21
2.004766312299998
 31
0.0
  0
LINE
  5
3B0
330
1F
100
AcDbEntity
  8
0
100
AcDbLine
 10
5.1436049687
 20
2.004766312299998
 30
0.0
 11
5.117424036
 21
2.0055250518
 31
0.0
  0
LINE
  5
3B1
330
1F
100
AcDbEntity
  8
0
100
AcDbLine
 10
5.117424036
 20
2.0055250518
 30
0.0
 11
5.092686044799998
 21
2.006285176
 31
0.0
  0
LINE
  5
3B2
330
1F
100
AcDbEntity
  8
0
100
AcDbLine
 10
5.092686044799998
 20
2.006285176
 30
0.0
 11
5.070470348999998
 21
2.007016872799999
 31
0.0
  0
LINE
  5
3B3
330
1F
100
AcDbEntity
  8
0
100
AcDbLine
 10
5.070470348999998
 20
2.007016872799999
 30
0.0
 11
5.0508221286
 21
2.0077192663
 31
0.0
  0
LINE
  5
3B4
330
1F
100
AcDbEntity
  8
0
100
AcDbLine
 10
5.0508221286
 20
2.0077192663
 30
0.0
 11
5.0337865635
 21
2.008391480099998
 31
0.0
  0
LINE
  5
3B5
330
1F
100
AcDbEntity
  8
0
100
AcDbLine
 10
5.0337865635
 20
2.008391480099998
 30
0.0
 11
5.019408834
 21
2.009032638099998
 31
0.0
  0
LINE
  5
3B6
330
1F
100
AcDbEntity
  8
0
100
AcDbLine
 10
5.019408834
 20
2.009032638099998
 30
0.0
 11
5.0072569616
 21
2.009668401999999
 31
0.0
  0
LINE
  5
3B7
330
1F
100
AcDbEntity
  8
0
100
AcDbLine
 10
5.0072569616
 20
2.009668401999999
 30
0.0
 11
4.998000459
 21
2.0102712594
 31
0.0
  0
LINE
  5
3B8
330
1F
100
AcDbEntity
  8
0
100
AcDbLine
 10
4.998000459
 20
2.0102712594
 30
0.0
 11
4.991681640699998
 21
2.0108399824
 31
0.0
  0
LINE
  5
3B9
330
1F
100
AcDbEntity
  8
0
100
AcDbLine
 10
4.991681640699998
 20
2.0108399824
 30
0.0
 11
4.988342821199998
 21
2.011373343199998
 31
0.0
  0
LINE
  5
3BA
330
1F
100
AcDbEntity
  8
0
100
AcDbLine
 10
4.988342821199998
 20
2.011373343199998
 30
0.0
 11
4.9880395236
 21
2.0116318227
 31
0.0
  0
LINE
  5
3BB
330
1F
100
AcDbEntity
  8
0
100
AcDbLine
 10
3.787483330099998
 20
4.7812536196
 30
0.0
 11
3.790799463099999
 21
4.778221946999999
 31
0.0
  0
LINE
  5
3BC
330
1F
100
AcDbEntity
  8
0
100
AcDbLine
 10
3.790799463099999
 20
4.778221946999999
 30
0.0
 11
3.814758102799998
 21
4.7543890611
 31
0.0
  0
LINE
  5
3BD
330
1F
100
AcDbEntity
  8
0
100
AcDbLine
 10
3.814758102799998
 20
4.7543890611
 30
0.0
 11
3.838722919599998
 21
4.7283499872
 31
0.0
  0
LINE
  5
3BE
330
1F
100
AcDbEntity
  8
0
100
AcDbLine
 10
3.838722919599998
 20
4.7283499872
 30
0.0
 11
3.858545178399998
 21
4.7049125581
 31
0.0
  0
LINE
  5
3BF
330
1F
100
AcDbEntity
  8
0
100
AcDbLine
 10
3.858545178399998
 20
4.7049125581
 30
0.0
 11
3.8780908999
 21
4.679858833599999
 31
0.0
  0
LINE
  5
3C0
330
1F
100
AcDbEntity
  8
0
100
AcDbLine
 10
3.8780908999
 20
4.679858833599999
 30
0.0
 11
3.8972236236
 21
4.6531610499
 31
0.0
  0
LINE
  5
3C1
330
1F
100
AcDbEntity
  8
0
100
AcDbLine
 10
3.8972236236
 20
4.6531610499
 30
0.0
 11
3.9158029098
 21
4.624804136999999
 31
0.0
  0
LINE
  5
3C2
330
1F
100
AcDbEntity
  8
0
100
AcDbLine
 10
3.9158029098
 20
4.624804136999999
 30
0.0
 11
3.933901480099998
 21
4.594565719599999
 31
0.0
  0
LINE
  5
3C3
330
1F
100
AcDbEntity
  8
0
100
AcDbLine
 10
3.933901480099998
 20
4.594565719599999
 30
0.0
 11
3.952517699899998
 21
4.562615235099999
 31
0.0
  0
LINE
  5
3C4
330
1F
100
AcDbEntity
  8
0
100
AcDbLine
 10
3.952517699899998
 20
4.562615235099999
 30
0.0
 11
3.968870399999998
 21
4.5343727761
 31
0.0
  0
LINE
  5
3C5
330
1F
100
AcDbEntity
  8
0
100
AcDbLine
 10
3.968870399999998
 20
4.5343727761
 30
0.0
 11
3.9848344123
 21
4.5066345794
 31
0.0
  0
LINE
  5
3C6
330
1F
100
AcDbEntity
  8
0
100
AcDbLine
 10
3.9848344123
 20
4.5066345794
 30
0.0
 11
3.9998838147
 21
4.480325308899999
 31
0.0
  0
LINE
  5
3C7
330
1F
100
AcDbEntity
  8
0
100
AcDbLine
 10
3.9998838147
 20
4.480325308899999
 30
0.0
 11
4.0140279113
 21
4.4554516788
 31
0.0
  0
LINE
  5
3C8
330
1F
100
AcDbEntity
  8
0
100
AcDbLine
 10
4.0140279113
 20
4.4554516788
 30
0.0
 11
4.0272755787
 21
4.4320199727
 31
0.0
  0
LINE
  5
3C9
330
1F
100
AcDbEntity
  8
0
100
AcDbLine
 10
4.0272755787
 20
4.4320199727
 30
0.0
 11
4.0396352775
 21
4.410036052599998
 31
0.0
  0
LINE
  5
3CA
330
1F
100
AcDbEntity
  8
0
100
AcDbLine
 10
4.0396352775
 20
4.410036052599998
 30
0.0
 11
4.0511150615
 21
4.389505366799998
 31
0.0
  0
LINE
  5
3CB
330
1F
100
AcDbEntity
  8
0
100
AcDbLine
 10
4.0511150615
 20
4.389505366799998
 30
0.0
 11
4.0634062172
 21
4.3673963316
 31
0.0
  0
LINE
  5
3CC
330
1F
100
AcDbEntity
  8
0
100
AcDbLine
 10
4.0634062172
 20
4.3673963316
 30
0.0
 11
4.0745215868
 21
4.3472794801
 31
0.0
  0
LINE
  5
3CD
330
1F
100
AcDbEntity
  8
0
100
AcDbLine
 10
4.0745215868
 20
4.3472794801
 30
0.0
 11
4.0844719187
 21
4.3291614124
 31
0.0
  0
LINE
  5
3CE
330
1F
100
AcDbEntity
  8
0
100
AcDbLine
 10
4.0844719187
 20
4.3291614124
 30
0.0
 11
4.0932672384
 21
4.3130480199
 31
0.0
  0
LINE
  5
3CF
330
1F
100
AcDbEntity
  8
0
100
AcDbLine
 10
4.0932672384
 20
4.3130480199
 30
0.0
 11
4.100916849999999
 21
4.298944497599999
 31
0.0
  0
LINE
  5
3D0
330
1F
100
AcDbEntity
  8
0
100
AcDbLine
 10
4.100916849999999
 20
4.298944497599999
 30
0.0
 11
4.107429334999999
 21
4.2868553556
 31
0.0
  0
LINE
  5
3D1
330
1F
100
AcDbEntity
  8
0
100
AcDbLine
 10
4.107429334999999
 20
4.2868553556
 30
0.0
 11
4.1128125503
 21
4.2767844292
 31
0.0
  0
LINE
  5
3D2
330
1F
100
AcDbEntity
  8
0
100
AcDbLine
 10
4.1128125503
 20
4.2767844292
 30
0.0
 11
4.1170736254
 21
4.268734887699998
 31
0.0
  0
LINE
  5
3D3
330
1F
100
AcDbEntity
  8
0
100
AcDbLine
 10
4.1170736254
 20
4.268734887699998
 30
0.0
 11
4.120218958699997
 21
4.262709241199997
 31
0.0
  0
LINE
  5
3D4
330
1F
100
AcDbEntity
  8
0
100
AcDbLine
 10
4.120218958699997
 20
4.262709241199997
 30
0.0
 11
4.121849187699998
 21
4.259519328999998
 31
0.0
  0
LINE
  5
3D5
330
1F
100
AcDbEntity
  8
0
100
AcDbLine
 10
4.121849187699998
 20
4.259519328999998
 30
0.0
 11
4.122857129499998
 21
4.2574694593
 31
0.0
  0
LINE
  5
3D6
330
1F
100
AcDbEntity
  8
0
100
AcDbLine
 10
4.122857129499998
 20
4.2574694593
 30
0.0
 11
4.1231283399
 21
4.256872154499999
 31
0.0
  0
LINE
  5
3D7
330
1F
100
AcDbEntity
  8
0
100
AcDbLine
 10
4.1231283399
 20
4.256872154499999
 30
0.0
 11
4.123254469499999
 21
4.2564928568
 31
0.0
  0
LINE
  5
3D8
330
1F
100
AcDbEntity
  8
0
100
AcDbLine
 10
4.123254469499999
 20
4.2564928568
 30
0.0
 11
4.1234276561
 21
4.2560211556
 31
0.0
  0
LINE
  5
3D9
330
1F
100
AcDbEntity
  8
0
100
AcDbLine
 10
4.1234276561
 20
4.2560211556
 30
0.0
 11
4.124042826
 21
4.254670620999998
 31
0.0
  0
LINE
  5
3DA
330
1F
100
AcDbEntity
  8
0
100
AcDbLine
 10
4.124042826
 20
4.254670620999998
 30
0.0
 11
4.1257883593
 21
4.251098204699998
 31
0.0
  0
LINE
  5
3DB
330
1F
100
AcDbEntity
  8
0
100
AcDbLine
 10
4.1257883593
 20
4.251098204699998
 30
0.0
 11
4.128519448999998
 21
4.245669003899998
 31
0.0
  0
LINE
  5
3DC
330
1F
100
AcDbEntity
  8
0
100
AcDbLine
 10
4.128519448999998
 20
4.245669003899998
 30
0.0
 11
4.1317719718
 21
4.239283127699998
 31
0.0
  0
LINE
  5
3DD
330
1F
100
AcDbEntity
  8
0
100
AcDbLine
 10
4.1317719718
 20
4.239283127699998
 30
0.0
 11
4.135797758399998
 21
4.2314277101
 31
0.0
  0
LINE
  5
3DE
330
1F
100
AcDbEntity
  8
0
100
AcDbLine
 10
4.135797758399998
 20
4.2314277101
 30
0.0
 11
4.140593042399998
 21
4.222101098699997
 31
0.0
  0
LINE
  5
3DF
330
1F
100
AcDbEntity
  8
0
100
AcDbLine
 10
4.140593042399998
 20
4.222101098699997
 30
0.0
 11
4.148241914899998
 21
4.207245256499998
 31
0.0
  0
LINE
  5
3E0
330
1F
100
AcDbEntity
  8
0
100
AcDbLine
 10
4.148241914899998
 20
4.207245256499998
 30
0.0
 11
4.157259276399998
 21
4.189722697799998
 31
0.0
  0
LINE
  5
3E1
330
1F
100
AcDbEntity
  8
0
100
AcDbLine
 10
4.157259276399998
 20
4.189722697799998
 30
0.0
 11
4.167629407099998
 21
4.1695267647
 31
0.0
  0
LINE
  5
3E2
330
1F
100
AcDbEntity
  8
0
100
AcDbLine
 10
4.167629407099998
 20
4.1695267647
 30
0.0
 11
4.1793340565
 21
4.1466498157
 31
0.0
  0
LINE
  5
3E3
330
1F
100
AcDbEntity
  8
0
100
AcDbLine
 10
4.1793340565
 20
4.1466498157
 30
0.0
 11
4.192352432599999
 21
4.1210832449
 31
0.0
  0
LINE
  5
3E4
330
1F
100
AcDbEntity
  8
0
100
AcDbLine
 10
4.192352432599999
 20
4.1210832449
 30
0.0
 11
4.206394510099999
 21
4.093345978399998
 31
0.0
  0
LINE
  5
3E5
330
1F
100
AcDbEntity
  8
0
100
AcDbLine
 10
4.206394510099999
 20
4.093345978399998
 30
0.0
 11
4.221656785899998
 21
4.0629951767
 31
0.0
  0
LINE
  5
3E6
330
1F
100
AcDbEntity
  8
0
100
AcDbLine
 10
4.221656785899998
 20
4.0629951767
 30
0.0
 11
4.238112347599998
 21
4.0300201054
 31
0.0
  0
LINE
  5
3E7
330
1F
100
AcDbEntity
  8
0
100
AcDbLine
 10
4.238112347599998
 20
4.0300201054
 30
0.0
 11
4.255731879699998
 21
3.994409230199998
 31
0.0
  0
LINE
  5
3E8
330
1F
100
AcDbEntity
  8
0
100
AcDbLine
 10
4.255731879699998
 20
3.994409230199998
 30
0.0
 11
4.274834866199998
 21
3.9554300379
 31
0.0
  0
LINE
  5
3E9
330
1F
100
AcDbEntity
  8
0
100
AcDbLine
 10
4.274834866199998
 20
3.9554300379
 30
0.0
 11
4.2950755419
 21
3.9136917955
 31
0.0
  0
LINE
  5
3EA
330
1F
100
AcDbEntity
  8
0
100
AcDbLine
 10
4.2950755419
 20
3.9136917955
 30
0.0
 11
4.3164151727
 21
3.869179945499998
 31
0.0
  0
LINE
  5
3EB
330
1F
100
AcDbEntity
  8
0
100
AcDbLine
 10
4.3164151727
 20
3.869179945499998
 30
0.0
 11
4.338812382799998
 21
3.8218791955
 31
0.0
  0
LINE
  5
3EC
330
1F
100
AcDbEntity
  8
0
100
AcDbLine
 10
4.338812382799998
 20
3.8218791955
 30
0.0
 11
4.362223141
 21
3.7717735673
 31
0.0
  0
LINE
  5
3ED
330
1F
100
AcDbEntity
  8
0
100
AcDbLine
 10
4.362223141
 20
3.7717735673
 30
0.0
 11
4.386157235999998
 21
3.7198164091
 31
0.0
  0
LINE
  5
3EE
330
1F
100
AcDbEntity
  8
0
100
AcDbLine
 10
4.386157235999998
 20
3.7198164091
 30
0.0
 11
4.410977202099998
 21
3.6651213174
 31
0.0
  0
LINE
  5
3EF
330
1F
100
AcDbEntity
  8
0
100
AcDbLine
 10
4.410977202099998
 20
3.6651213174
 30
0.0
 11
4.4366337679
 21
3.607671478799998
 31
0.0
  0
LINE
  5
3F0
330
1F
100
AcDbEntity
  8
0
100
AcDbLine
 10
4.4366337679
 20
3.607671478799998
 30
0.0
 11
4.463075139999999
 21
3.547449618199998
 31
0.0
  0
LINE
  5
3F1
330
1F
100
AcDbEntity
  8
0
100
AcDbLine
 10
4.463075139999999
 20
3.547449618199998
 30
0.0
 11
4.488880244899998
 21
3.4876356836
 31
0.0
  0
LINE
  5
3F2
330
1F
100
AcDbEntity
  8
0
100
AcDbLine
 10
4.488880244899998
 20
3.4876356836
 30
0.0
 11
4.5152962884
 21
3.4252869524
 31
0.0
  0
LINE
  5
3F3
330
1F
100
AcDbEntity
  8
0
100
AcDbLine
 10
4.5152962884
 20
3.4252869524
 30
0.0
 11
4.5422724257
 21
3.360387692499998
 31
0.0
  0
LINE
  5
3F4
330
1F
100
AcDbEntity
  8
0
100
AcDbLine
 10
4.5422724257
 20
3.360387692499998
 30
0.0
 11
4.5697557131
 21
3.2929219648
 31
0.0
  0
LINE
  5
3F5
330
1F
100
AcDbEntity
  8
0
100
AcDbLine
 10
4.5697557131
 20
3.2929219648
 30
0.0
 11
4.5976910642
 21
3.222873667799998
 31
0.0
  0
LINE
  5
3F6
330
1F
100
AcDbEntity
  8
0
100
AcDbLine
 10
4.5976910642
 20
3.222873667799998
 30
0.0
 11
4.626021208
 21
3.1502265293
 31
0.0
  0
LINE
  5
3F7
330
1F
100
AcDbEntity
  8
0
100
AcDbLine
 10
4.626021208
 20
3.1502265293
 30
0.0
 11
4.653040715699998
 21
3.0793356205
 31
0.0
  0
LINE
  5
3F8
330
1F
100
AcDbEntity
  8
0
100
AcDbLine
 10
4.653040715699998
 20
3.0793356205
 30
0.0
 11
4.6803067922
 21
3.006106085699998
 31
0.0
  0
LINE
  5
3F9
330
1F
100
AcDbEntity
  8
0
100
AcDbLine
 10
4.6803067922
 20
3.006106085699998
 30
0.0
 11
4.707766140799999
 21
2.9305241763
 31
0.0
  0
LINE
  5
3FA
330
1F
100
AcDbEntity
  8
0
100
AcDbLine
 10
4.707766140799999
 20
2.9305241763
 30
0.0
 11
4.735363732599998
 21
2.852576185899998
 31
0.0
  0
LINE
  5
3FB
330
1F
100
AcDbEntity
  8
0
100
AcDbLine
 10
4.735363732599998
 20
2.852576185899998
 30
0.0
 11
4.763042788899999
 21
2.772248489899999
 31
0.0
  0
LINE
  5
3FC
330
1F
100
AcDbEntity
  8
0
100
AcDbLine
 10
4.763042788899999
 20
2.772248489899999
 30
0.0
 11
4.790744769399998
 21
2.689527584799999
 31
0.0
  0
LINE
  5
3FD
330
1F
100
AcDbEntity
  8
0
100
AcDbLine
 10
4.790744769399998
 20
2.689527584799999
 30
0.0
 11
4.818409359599999
 21
2.604400131399998
 31
0.0
  0
LINE
  5
3FE
330
1F
100
AcDbEntity
  8
0
100
AcDbLine
 10
4.818409359599999
 20
2.604400131399998
 30
0.0
 11
4.8459743555
 21
2.5168529834
 31
0.0
  0
LINE
  5
3FF
330
1F
100
AcDbEntity
  8
0
100
AcDbLine
 10
4.8459743555
 20
2.5168529834
 30
0.0
 11
4.8733756137
 21
2.426873126299998
 31
0.0
  0
LINE
  5
400
330
1F
100
AcDbEntity
  8
0
100
AcDbLine
 10
4.8733756137
 20
2.426873126299998
 30
0.0
 11
4.9005471606
 21
2.334447815699999
 31
0.0
  0
LINE
  5
401
330
1F
100
AcDbEntity
  8
0
100
AcDbLine
 10
4.9005471606
 20
2.334447815699999
 30
0.0
 11
4.9269443067
 21
2.2412806115
 31
0.0
  0
LINE
  5
402
330
1F
100
AcDbEntity
  8
0
100
AcDbLine
 10
4.9269443067
 20
2.2412806115
 30
0.0
 11
4.952988504599999
 21
2.145731154399999
 31
0.0
  0
LINE
  5
403
330
1F
100
AcDbEntity
  8
0
100
AcDbLine
 10
4.952988504599999
 20
2.145731154399999
 30
0.0
 11
4.9786120653
 21
2.047788461399998
 31
0.0
  0
LINE
  5
404
330
1F
100
AcDbEntity
  8
0
100
AcDbLine
 10
4.9786120653
 20
2.047788461399998
 30
0.0
 11
4.987690030899998
 21
2.011544342
 31
0.0
  0
LINE
  5
40C
330
1F
100
AcDbEntity
  8
0
100
AcDbLine
 10
6.973945461799999
 20
1.968907384999999
 30
0.0
 11
6.963252712899999
 21
2.143856578099998
 31
0.0
  0
LINE
  5
40D
330
1F
100
AcDbEntity
  8
0
100
AcDbLine
 10
6.963252712899999
 20
2.143856578099998
 30
0.0
 11
6.949397762899999
 21
2.318632058199999
 31
0.0
  0
LINE
  5
40E
330
1F
100
AcDbEntity
  8
0
100
AcDbLine
 10
6.949397762899999
 20
2.318632058199999
 30
0.0
 11
6.9323888772
 21
2.493150992599999
 31
0.0
  0
LINE
  5
40F
330
1F
100
AcDbEntity
  8
0
100
AcDbLine
 10
6.9323888772
 20
2.493150992599999
 30
0.0
 11
6.9122343211
 21
2.667330548999998
 31
0.0
  0
LINE
  5
410
330
1F
100
AcDbEntity
  8
0
100
AcDbLine
 10
6.9122343211
 20
2.667330548999998
 30
0.0
 11
6.888942360099998
 21
2.841087894599998
 31
0.0
  0
LINE
  5
411
330
1F
100
AcDbEntity
  8
0
100
AcDbLine
 10
6.888942360099998
 20
2.841087894599998
 30
0.0
 11
6.862512848599998
 21
3.014408877699998
 31
0.0
  0
LINE
  5
412
330
1F
100
AcDbEntity
  8
0
100
AcDbLine
 10
6.862512848599998
 20
3.014408877699998
 30
0.0
 11
6.832950290599999
 21
3.187280158399998
 31
0.0
  0
LINE
  5
413
330
1F
100
AcDbEntity
  8
0
100
AcDbLine
 10
6.832950290599999
 20
3.187280158399998
 30
0.0
 11
6.8002699583
 21
3.359619893899998
 31
0.0
  0
LINE
  5
414
330
1F
100
AcDbEntity
  8
0
100
AcDbLine
 10
6.8002699583
 20
3.359619893899998
 30
0.0
 11
6.7644871238
 21
3.5313462416
 31
0.0
  0
LINE
  5
415
330
1F
100
AcDbEntity
  8
0
100
AcDbLine
 10
6.7644871238
 20
3.5313462416
 30
0.0
 11
6.725617059299999
 21
3.702377358799998
 31
0.0
  0
LINE
  5
416
330
1F
100
AcDbEntity
  8
0
100
AcDbLine
 10
6.725617059299999
 20
3.702377358799998
 30
0.0
 11
6.691916226799999
 21
3.8402106497
 31
0.0
  0
LINE
  5
417
330
1F
100
AcDbEntity
  8
0
100
AcDbLine
 10
6.691916226799999
 20
3.8402106497
 30
0.0
 11
6.6562011295
 21
3.9775659051
 31
0.0
  0
LINE
  5
418
330
1F
100
AcDbEntity
  8
0
100
AcDbLine
 10
6.6562011295
 20
3.9775659051
 30
0.0
 11
6.6184831969
 21
4.114400512499998
 31
0.0
  0
LINE
  5
419
330
1F
100
AcDbEntity
  8
0
100
AcDbLine
 10
6.6184831969
 20
4.114400512499998
 30
0.0
 11
6.578773858099999
 21
4.2506718597
 31
0.0
  0
LINE
  5
41A
330
1F
100
AcDbEntity
  8
0
100
AcDbLine
 10
6.578773858099999
 20
4.2506718597
 30
0.0
 11
6.551208702899999
 21
4.3411606617
 31
0.0
  0
LINE
  5
41B
330
1F
100
AcDbEntity
  8
0
100
AcDbLine
 10
6.551208702899999
 20
4.3411606617
 30
0.0
 11
6.522764047199999
 21
4.4313848753
 31
0.0
  0
LINE
  5
41C
330
1F
100
AcDbEntity
  8
0
100
AcDbLine
 10
6.522764047199999
 20
4.4313848753
 30
0.0
 11
6.493495964299999
 21
4.5213540587
 31
0.0
  0
LINE
  5
41D
330
1F
100
AcDbEntity
  8
0
100
AcDbLine
 10
6.493495964299999
 20
4.5213540587
 30
0.0
 11
6.463244087899999
 21
4.611005538199998
 31
0.0
  0
LINE
  5
41E
330
1F
100
AcDbEntity
  8
0
100
AcDbLine
 10
6.463244087899999
 20
4.611005538199998
 30
0.0
 11
6.449330407799998
 21
4.6472321261
 31
0.0
  0
LINE
  5
41F
330
1F
100
AcDbEntity
  8
0
100
AcDbLine
 10
6.449330407799998
 20
4.6472321261
 30
0.0
 11
6.432912052299998
 21
4.6825722018
 31
0.0
  0
LINE
  5
420
330
1F
100
AcDbEntity
  8
0
100
AcDbLine
 10
6.432912052299998
 20
4.6825722018
 30
0.0
 11
6.4141130908
 21
4.716791943799998
 31
0.0
  0
LINE
  5
421
330
1F
100
AcDbEntity
  8
0
100
AcDbLine
 10
6.4141130908
 20
4.716791943799998
 30
0.0
 11
6.393057592899999
 21
4.7496575306
 31
0.0
  0
LINE
  5
422
330
1F
100
AcDbEntity
  8
0
100
AcDbLine
 10
6.393057592899999
 20
4.7496575306
 30
0.0
 11
6.369869627899999
 21
4.7809351405
 31
0.0
  0
LINE
  5
423
330
1F
100
AcDbEntity
  8
0
100
AcDbLine
 10
6.369869627899999
 20
4.7809351405
 30
0.0
 11
6.369597911399998
 21
4.7812536196
 31
0.0
  0
LINE
  5
424
330
1F
100
AcDbEntity
  8
0
100
AcDbLine
 10
10.9737592166
 20
1.968907384999999
 30
0.0
 11
10.98445196559999
 21
2.143856578099998
 31
0.0
  0
LINE
  5
425
330
1F
100
AcDbEntity
  8
0
100
AcDbLine
 10
10.98445196559999
 20
2.143856578099998
 30
0.0
 11
10.9983069156
 21
2.318632058199999
 31
0.0
  0
LINE
  5
426
330
1F
100
AcDbEntity
  8
0
100
AcDbLine
 10
10.9983069156
 20
2.318632058199999
 30
0.0
 11
11.0153158013
 21
2.493150992599999
 31
0.0
  0
LINE
  5
427
330
1F
100
AcDbEntity
  8
0
100
AcDbLine
 10
11.0153158013
 20
2.493150992599999
 30
0.0
 11
11.03547035739999
 21
2.667330548999998
 31
0.0
  0
LINE
  5
428
330
1F
100
AcDbEntity
  8
0
100
AcDbLine
 10
11.03547035739999
 20
2.667330548999998
 30
0.0
 11
11.05876231839998
 21
2.841087894599998
 31
0.0
  0
LINE
  5
429
330
1F
100
AcDbEntity
  8
0
100
AcDbLine
 10
11.05876231839998
 20
2.841087894599998
 30
0.0
 11
11.0851918299
 21
3.014408877699998
 31
0.0
  0
LINE
  5
42A
330
1F
100
AcDbEntity
  8
0
100
AcDbLine
 10
11.0851918299
 20
3.014408877699998
 30
0.0
 11
11.1147543879
 21
3.187280158399998
 31
0.0
  0
LINE
  5
42B
330
1F
100
AcDbEntity
  8
0
100
AcDbLine
 10
11.1147543879
 20
3.187280158399998
 30
0.0
 11
11.1474347202
 21
3.359619893899998
 31
0.0
  0
LINE
  5
42C
330
1F
100
AcDbEntity
  8
0
100
AcDbLine
 10
11.1474347202
 20
3.359619893899998
 30
0.0
 11
11.1832175546
 21
3.5313462416
 31
0.0
  0
LINE
  5
42D
330
1F
100
AcDbEntity
  8
0
100
AcDbLine
 10
11.1832175546
 20
3.5313462416
 30
0.0
 11
11.2220876192
 21
3.702377358799998
 31
0.0
  0
LINE
  5
42E
330
1F
100
AcDbEntity
  8
0
100
AcDbLine
 10
11.2220876192
 20
3.702377358799998
 30
0.0
 11
11.2557884517
 21
3.8402106497
 31
0.0
  0
LINE
  5
42F
330
1F
100
AcDbEntity
  8
0
100
AcDbLine
 10
11.2557884517
 20
3.8402106497
 30
0.0
 11
11.291503549
 21
3.9775659051
 31
0.0
  0
LINE
  5
430
330
1F
100
AcDbEntity
  8
0
100
AcDbLine
 10
11.291503549
 20
3.9775659051
 30
0.0
 11
11.3292214816
 21
4.114400512499998
 31
0.0
  0
LINE
  5
431
330
1F
100
AcDbEntity
  8
0
100
AcDbLine
 10
11.3292214816
 20
4.114400512499998
 30
0.0
 11
11.3689308204
 21
4.2506718597
 31
0.0
  0
LINE
  5
432
330
1F
100
AcDbEntity
  8
0
100
AcDbLine
 10
11.3689308204
 20
4.2506718597
 30
0.0
 11
11.39649597559998
 21
4.3411606617
 31
0.0
  0
LINE
  5
433
330
1F
100
AcDbEntity
  8
0
100
AcDbLine
 10
11.39649597559998
 20
4.3411606617
 30
0.0
 11
11.4249406313
 21
4.4313848754
 31
0.0
  0
LINE
  5
434
330
1F
100
AcDbEntity
  8
0
100
AcDbLine
 10
11.4249406313
 20
4.4313848754
 30
0.0
 11
11.4542087141
 21
4.5213540587
 31
0.0
  0
LINE
  5
435
330
1F
100
AcDbEntity
  8
0
100
AcDbLine
 10
11.4542087141
 20
4.5213540587
 30
0.0
 11
11.4844605906
 21
4.611005538199998
 31
0.0
  0
LINE
  5
436
330
1F
100
AcDbEntity
  8
0
100
AcDbLine
 10
11.4844605906
 20
4.611005538199998
 30
0.0
 11
11.4983742707
 21
4.6472321261
 31
0.0
  0
LINE
  5
437
330
1F
100
AcDbEntity
  8
0
100
AcDbLine
 10
11.4983742707
 20
4.6472321261
 30
0.0
 11
11.51479262619998
 21
4.6825722018
 31
0.0
  0
LINE
  5
438
330
1F
100
AcDbEntity
  8
0
100
AcDbLine
 10
11.51479262619998
 20
4.6825722018
 30
0.0
 11
11.5335915877
 21
4.716791943799998
 31
0.0
  0
LINE
  5
439
330
1F
100
AcDbEntity
  8
0
100
AcDbLine
 10
11.5335915877
 20
4.716791943799998
 30
0.0
 11
11.5546470856
 21
4.7496575306
 31
0.0
  0
LINE
  5
43A
330
1F
100
AcDbEntity
  8
0
100
AcDbLine
 10
11.5546470856
 20
4.7496575306
 30
0.0
 11
11.5778350506
 21
4.7809351405
 31
0.0
  0
LINE
  5
43B
330
1F
100
AcDbEntity
  8
0
100
AcDbLine
 10
11.5778350506
 20
4.7809351405
 30
0.0
 11
11.5781067671
 21
4.7812536196
 31
0.0
  0
LINE
  5
43C
330
1F
100
AcDbEntity
  8
0
100
AcDbLine
 10
12.9600122228
 20
2.0115251184
 30
0.0
 11
12.96923914529999
 21
2.048358918599999
 31
0.0
  0
LINE
  5
43D
330
1F
100
AcDbEntity
  8
0
100
AcDbLine
 10
12.96923914529999
 20
2.048358918599999
 30
0.0
 11
12.99501082869999
 21
2.1468289391
 31
0.0
  0
LINE
  5
43E
330
1F
100
AcDbEntity
  8
0
100
AcDbLine
 10
12.99501082869999
 20
2.1468289391
 30
0.0
 11
13.0211929086
 21
2.2428287722
 31
0.0
  0
LINE
  5
43F
330
1F
100
AcDbEntity
  8
0
100
AcDbLine
 10
13.0211929086
 20
2.2428287722
 30
0.0
 11
13.0477145619
 21
2.336370076999998
 31
0.0
  0
LINE
  5
440
330
1F
100
AcDbEntity
  8
0
100
AcDbLine
 10
13.0477145619
 20
2.336370076999998
 30
0.0
 11
13.0745069292
 21
2.4274649073
 31
0.0
  0
LINE
  5
441
330
1F
100
AcDbEntity
  8
0
100
AcDbLine
 10
13.0745069292
 20
2.4274649073
 30
0.0
 11
13.1015030967
 21
2.5161256636
 31
0.0
  0
LINE
  5
442
330
1F
100
AcDbEntity
  8
0
100
AcDbLine
 10
13.1015030967
 20
2.5161256636
 30
0.0
 11
13.1270848781
 21
2.597502084899999
 31
0.0
  0
LINE
  5
443
330
1F
100
AcDbEntity
  8
0
100
AcDbLine
 10
13.1270848781
 20
2.597502084899999
 30
0.0
 11
13.1527371365
 21
2.676736793
 31
0.0
  0
LINE
  5
444
330
1F
100
AcDbEntity
  8
0
100
AcDbLine
 10
13.1527371365
 20
2.676736793
 30
0.0
 11
13.1784085442
 21
2.7538407073
 31
0.0
  0
LINE
  5
445
330
1F
100
AcDbEntity
  8
0
100
AcDbLine
 10
13.1784085442
 20
2.7538407073
 30
0.0
 11
13.2040493398
 21
2.828824873
 31
0.0
  0
LINE
  5
446
330
1F
100
AcDbEntity
  8
0
100
AcDbLine
 10
13.2040493398
 20
2.828824873
 30
0.0
 11
13.2296112164
 21
2.901700449999998
 31
0.0
  0
LINE
  5
447
330
1F
100
AcDbEntity
  8
0
100
AcDbLine
 10
13.2296112164
 20
2.901700449999998
 30
0.0
 11
13.25798946859999
 21
2.980558677999998
 31
0.0
  0
LINE
  5
448
330
1F
100
AcDbEntity
  8
0
100
AcDbLine
 10
13.25798946859999
 20
2.980558677999998
 30
0.0
 11
13.2861480033
 21
3.0568201293
 31
0.0
  0
LINE
  5
449
330
1F
100
AcDbEntity
  8
0
100
AcDbLine
 10
13.2861480033
 20
3.0568201293
 30
0.0
 11
13.31402593339999
 21
3.130500549999998
 31
0.0
  0
LINE
  5
44A
330
1F
100
AcDbEntity
  8
0
100
AcDbLine
 10
13.31402593339999
 20
3.130500549999998
 30
0.0
 11
13.3415645295
 21
3.2016156782
 31
0.0
  0
LINE
  5
44B
330
1F
100
AcDbEntity
  8
0
100
AcDbLine
 10
13.3415645295
 20
3.2016156782
 30
0.0
 11
13.3687071916
 21
3.2701811987
 31
0.0
  0
LINE
  5
44C
330
1F
100
AcDbEntity
  8
0
100
AcDbLine
 10
13.3687071916
 20
3.2701811987
 30
0.0
 11
13.3953994302
 21
3.3362126972
 31
0.0
  0
LINE
  5
44D
330
1F
100
AcDbEntity
  8
0
100
AcDbLine
 10
13.3953994302
 20
3.3362126972
 30
0.0
 11
13.4215888707
 21
3.399725583099998
 31
0.0
  0
LINE
  5
44E
330
1F
100
AcDbEntity
  8
0
100
AcDbLine
 10
13.4215888707
 20
3.399725583099998
 30
0.0
 11
13.4472252408
 21
3.460735084299998
 31
0.0
  0
LINE
  5
44F
330
1F
100
AcDbEntity
  8
0
100
AcDbLine
 10
13.4472252408
 20
3.460735084299998
 30
0.0
 11
13.47270963029999
 21
3.5202973037
 31
0.0
  0
LINE
  5
450
330
1F
100
AcDbEntity
  8
0
100
AcDbLine
 10
13.47270963029999
 20
3.5202973037
 30
0.0
 11
13.4975218839
 21
3.577295443899998
 31
0.0
  0
LINE
  5
451
330
1F
100
AcDbEntity
  8
0
100
AcDbLine
 10
13.4975218839
 20
3.577295443899998
 30
0.0
 11
13.5216153761
 21
3.6317447874
 31
0.0
  0
LINE
  5
452
330
1F
100
AcDbEntity
  8
0
100
AcDbLine
 10
13.5216153761
 20
3.6317447874
 30
0.0
 11
13.5449456076
 21
3.683660267099998
 31
0.0
  0
LINE
  5
453
330
1F
100
AcDbEntity
  8
0
100
AcDbLine
 10
13.5449456076
 20
3.683660267099998
 30
0.0
 11
13.5674701878
 21
3.7330564269
 31
0.0
  0
LINE
  5
454
330
1F
100
AcDbEntity
  8
0
100
AcDbLine
 10
13.5674701878
 20
3.7330564269
 30
0.0
 11
13.58876934119999
 21
3.7791319343
 31
0.0
  0
LINE
  5
455
330
1F
100
AcDbEntity
  8
0
100
AcDbLine
 10
13.58876934119999
 20
3.7791319343
 30
0.0
 11
13.6092162485
 21
3.8228038549
 31
0.0
  0
LINE
  5
456
330
1F
100
AcDbEntity
  8
0
100
AcDbLine
 10
13.6092162485
 20
3.8228038549
 30
0.0
 11
13.6287765923
 21
3.8640846693
 31
0.0
  0
LINE
  5
457
330
1F
100
AcDbEntity
  8
0
100
AcDbLine
 10
13.6287765923
 20
3.8640846693
 30
0.0
 11
13.64741795599998
 21
3.9029863686
 31
0.0
  0
LINE
  5
458
330
1F
100
AcDbEntity
  8
0
100
AcDbLine
 10
13.64741795599998
 20
3.9029863686
 30
0.0
 11
13.6654225095
 21
3.9401628347
 31
0.0
  0
LINE
  5
459
330
1F
100
AcDbEntity
  8
0
100
AcDbLine
 10
13.6654225095
 20
3.9401628347
 30
0.0
 11
13.6824124871
 21
3.974896308099998
 31
0.0
  0
LINE
  5
45A
330
1F
100
AcDbEntity
  8
0
100
AcDbLine
 10
13.6824124871
 20
3.974896308099998
 30
0.0
 11
13.6983596607
 21
4.007197693399998
 31
0.0
  0
LINE
  5
45B
330
1F
100
AcDbEntity
  8
0
100
AcDbLine
 10
13.6983596607
 20
4.007197693399998
 30
0.0
 11
13.71323780079999
 21
4.0370772583
 31
0.0
  0
LINE
  5
45C
330
1F
100
AcDbEntity
  8
0
100
AcDbLine
 10
13.71323780079999
 20
4.0370772583
 30
0.0
 11
13.7270226503
 21
4.0645446185
 31
0.0
  0
LINE
  5
45D
330
1F
100
AcDbEntity
  8
0
100
AcDbLine
 10
13.7270226503
 20
4.0645446185
 30
0.0
 11
13.73947557829999
 21
4.089182163999998
 31
0.0
  0
LINE
  5
45E
330
1F
100
AcDbEntity
  8
0
100
AcDbLine
 10
13.73947557829999
 20
4.089182163999998
 30
0.0
 11
13.7508331063
 21
4.111509319599998
 31
0.0
  0
LINE
  5
45F
330
1F
100
AcDbEntity
  8
0
100
AcDbLine
 10
13.7508331063
 20
4.111509319599998
 30
0.0
 11
13.76107774869999
 21
4.131533227699998
 31
0.0
  0
LINE
  5
460
330
1F
100
AcDbEntity
  8
0
100
AcDbLine
 10
13.76107774869999
 20
4.131533227699998
 30
0.0
 11
13.7701938204
 21
4.149260346
 31
0.0
  0
LINE
  5
461
330
1F
100
AcDbEntity
  8
0
100
AcDbLine
 10
13.7701938204
 20
4.149260346
 30
0.0
 11
13.78472055619998
 21
4.177334883899998
 31
0.0
  0
LINE
  5
462
330
1F
100
AcDbEntity
  8
0
100
AcDbLine
 10
13.78472055619998
 20
4.177334883899998
 30
0.0
 11
13.8002380146
 21
4.207090961799997
 31
0.0
  0
LINE
  5
463
330
1F
100
AcDbEntity
  8
0
100
AcDbLine
 10
13.8002380146
 20
4.207090961799997
 30
0.0
 11
13.8167956342
 21
4.238579737
 31
0.0
  0
LINE
  5
464
330
1F
100
AcDbEntity
  8
0
100
AcDbLine
 10
13.8167956342
 20
4.238579737
 30
0.0
 11
13.8344133236
 21
4.2717925019
 31
0.0
  0
LINE
  5
465
330
1F
100
AcDbEntity
  8
0
100
AcDbLine
 10
13.8344133236
 20
4.2717925019
 30
0.0
 11
13.8531120197
 21
4.306719951699998
 31
0.0
  0
LINE
  5
466
330
1F
100
AcDbEntity
  8
0
100
AcDbLine
 10
13.8531120197
 20
4.306719951699998
 30
0.0
 11
13.8729136914
 21
4.343352167699998
 31
0.0
  0
LINE
  5
467
330
1F
100
AcDbEntity
  8
0
100
AcDbLine
 10
13.8729136914
 20
4.343352167699998
 30
0.0
 11
13.89769873119998
 21
4.388700042299998
 31
0.0
  0
LINE
  5
468
330
1F
100
AcDbEntity
  8
0
100
AcDbLine
 10
13.89769873119998
 20
4.388700042299998
 30
0.0
 11
13.92408653109999
 21
4.436381301399999
 31
0.0
  0
LINE
  5
469
330
1F
100
AcDbEntity
  8
0
100
AcDbLine
 10
13.92408653109999
 20
4.436381301399999
 30
0.0
 11
13.9520950299
 21
4.486334575399999
 31
0.0
  0
LINE
  5
46A
330
1F
100
AcDbEntity
  8
0
100
AcDbLine
 10
13.9520950299
 20
4.486334575399999
 30
0.0
 11
13.98175586599998
 21
4.538520110899999
 31
0.0
  0
LINE
  5
46B
330
1F
100
AcDbEntity
  8
0
100
AcDbLine
 10
13.98175586599998
 20
4.538520110899999
 30
0.0
 11
14.001511269
 21
4.5728813393
 31
0.0
  0
LINE
  5
46C
330
1F
100
AcDbEntity
  8
0
100
AcDbLine
 10
14.001511269
 20
4.5728813393
 30
0.0
 11
14.0219275904
 21
4.608052676999998
 31
0.0
  0
LINE
  5
46D
330
1F
100
AcDbEntity
  8
0
100
AcDbLine
 10
14.0219275904
 20
4.608052676999998
 30
0.0
 11
14.0436126739
 21
4.6428018798
 31
0.0
  0
LINE
  5
46E
330
1F
100
AcDbEntity
  8
0
100
AcDbLine
 10
14.0436126739
 20
4.6428018798
 30
0.0
 11
14.06783563839999
 21
4.677404008399999
 31
0.0
  0
LINE
  5
46F
330
1F
100
AcDbEntity
  8
0
100
AcDbLine
 10
14.06783563839999
 20
4.677404008399999
 30
0.0
 11
14.0844089414
 21
4.6989813172
 31
0.0
  0
LINE
  5
470
330
1F
100
AcDbEntity
  8
0
100
AcDbLine
 10
14.0844089414
 20
4.6989813172
 30
0.0
 11
14.1020523757
 21
4.720358448899999
 31
0.0
  0
LINE
  5
471
330
1F
100
AcDbEntity
  8
0
100
AcDbLine
 10
14.1020523757
 20
4.720358448899999
 30
0.0
 11
14.1212270305
 21
4.741954098099999
 31
0.0
  0
LINE
  5
472
330
1F
100
AcDbEntity
  8
0
100
AcDbLine
 10
14.1212270305
 20
4.741954098099999
 30
0.0
 11
14.1425937227
 21
4.764244506799999
 31
0.0
  0
LINE
  5
473
330
1F
100
AcDbEntity
  8
0
100
AcDbLine
 10
14.1425937227
 20
4.764244506799999
 30
0.0
 11
14.1602849213
 21
4.7812536196
 31
0.0
  0
LINE
  5
474
330
1F
100
AcDbEntity
  8
0
100
AcDbLine
 10
6.973945461799999
 20
1.968907384999999
 30
0.0
 11
7.474510119899998
 21
1.9595742848
 31
0.0
  0
LINE
  5
475
330
1F
100
AcDbEntity
  8
0
100
AcDbLine
 10
7.474510119899998
 20
1.9595742848
 30
0.0
 11
7.975085850399999
 21
1.950848056599999
 31
0.0
  0
LINE
  5
476
330
1F
100
AcDbEntity
  8
0
100
AcDbLine
 10
7.975085850399999
 20
1.950848056599999
 30
0.0
 11
8.225393272699998
 21
1.946877388999999
 31
0.0
  0
LINE
  5
477
330
1F
100
AcDbEntity
  8
0
100
AcDbLine
 10
8.225393272699998
 20
1.946877388999999
 30
0.0
 11
8.475711937899999
 21
1.943511626899999
 31
0.0
  0
LINE
  5
478
330
1F
100
AcDbEntity
  8
0
100
AcDbLine
 10
8.475711937899999
 20
1.943511626899999
 30
0.0
 11
8.7260393745
 21
1.941182754699999
 31
0.0
  0
LINE
  5
479
330
1F
100
AcDbEntity
  8
0
100
AcDbLine
 10
8.7260393745
 20
1.941182754699999
 30
0.0
 11
8.9763731108
 21
1.9403227574
 31
0.0
  0
LINE
  5
47A
330
1F
100
AcDbEntity
  8
0
100
AcDbLine
 10
8.9763731108
 20
1.9403227574
 30
0.0
 11
9.226058414099998
 21
1.9412111805
 31
0.0
  0
LINE
  5
47B
330
1F
100
AcDbEntity
  8
0
100
AcDbLine
 10
9.226058414099998
 20
1.9412111805
 30
0.0
 11
9.4757373032
 21
1.9435539728
 31
0.0
  0
LINE
  5
47C
330
1F
100
AcDbEntity
  8
0
100
AcDbLine
 10
9.4757373032
 20
1.9435539728
 30
0.0
 11
9.7254074299
 21
1.9469225805
 31
0.0
  0
LINE
  5
47D
330
1F
100
AcDbEntity
  8
0
100
AcDbLine
 10
9.7254074299
 20
1.9469225805
 30
0.0
 11
9.975066446399999
 21
1.950888449799998
 31
0.0
  0
LINE
  5
47E
330
1F
100
AcDbEntity
  8
0
100
AcDbLine
 10
9.975066446399999
 20
1.950888449799998
 30
0.0
 11
10.47441832679999
 21
1.9595968321
 31
0.0
  0
LINE
  5
47F
330
1F
100
AcDbEntity
  8
0
100
AcDbLine
 10
10.47441832679999
 20
1.9595968321
 30
0.0
 11
10.9737592166
 21
1.968907384999999
 31
0.0
  0
LINE
  5
480
330
1F
100
AcDbEntity
  8
0
100
AcDbLine
 10
12.9595875442
 20
2.0116313718
 30
0.0
 11
12.95888392369999
 21
2.011263278799999
 31
0.0
  0
LINE
  5
481
330
1F
100
AcDbEntity
  8
0
100
AcDbLine
 10
12.95888392369999
 20
2.011263278799999
 30
0.0
 11
12.9548967152
 21
2.010719716999998
 31
0.0
  0
LINE
  5
482
330
1F
100
AcDbEntity
  8
0
100
AcDbLine
 10
12.9548967152
 20
2.010719716999998
 30
0.0
 11
12.94792220839998
 21
2.010141681699999
 31
0.0
  0
LINE
  5
483
330
1F
100
AcDbEntity
  8
0
100
AcDbLine
 10
12.94792220839998
 20
2.010141681699999
 30
0.0
 11
12.9383913278
 21
2.0095518869
 31
0.0
  0
LINE
  5
484
330
1F
100
AcDbEntity
  8
0
100
AcDbLine
 10
12.9383913278
 20
2.0095518869
 30
0.0
 11
12.9261325491
 21
2.0089303143
 31
0.0
  0
LINE
  5
485
330
1F
100
AcDbEntity
  8
0
100
AcDbLine
 10
12.9261325491
 20
2.0089303143
 30
0.0
 11
12.9111771798
 21
2.008277764099998
 31
0.0
  0
LINE
  5
486
330
1F
100
AcDbEntity
  8
0
100
AcDbLine
 10
12.9111771798
 20
2.008277764099998
 30
0.0
 11
12.8935565275
 21
2.0075950366
 31
0.0
  0
LINE
  5
487
330
1F
100
AcDbEntity
  8
0
100
AcDbLine
 10
12.8935565275
 20
2.0075950366
 30
0.0
 11
12.8726794853
 21
2.006861822299998
 31
0.0
  0
LINE
  5
488
330
1F
100
AcDbEntity
  8
0
100
AcDbLine
 10
12.8726794853
 20
2.006861822299998
 30
0.0
 11
12.8490144418
 21
2.0060961474
 31
0.0
  0
LINE
  5
489
330
1F
100
AcDbEntity
  8
0
100
AcDbLine
 10
12.8490144418
 20
2.0060961474
 30
0.0
 11
12.8226306224
 21
2.0052991899
 31
0.0
  0
LINE
  5
48A
330
1F
100
AcDbEntity
  8
0
100
AcDbLine
 10
12.8226306224
 20
2.0052991899
 30
0.0
 11
12.79359725269999
 21
2.004472127899998
 31
0.0
  0
LINE
  5
48B
330
1F
100
AcDbEntity
  8
0
100
AcDbLine
 10
12.79359725269999
 20
2.004472127899998
 30
0.0
 11
12.7618667473
 21
2.0036129026
 31
0.0
  0
LINE
  5
48C
330
1F
100
AcDbEntity
  8
0
100
AcDbLine
 10
12.7618667473
 20
2.0036129026
 30
0.0
 11
12.7275405548
 21
2.0027231461
 31
0.0
  0
LINE
  5
48D
330
1F
100
AcDbEntity
  8
0
100
AcDbLine
 10
12.7275405548
 20
2.0027231461
 30
0.0
 11
12.69072560309999
 21
2.001804415
 31
0.0
  0
LINE
  5
48E
330
1F
100
AcDbEntity
  8
0
100
AcDbLine
 10
12.69072560309999
 20
2.001804415
 30
0.0
 11
12.65152881989999
 21
2.0008582658
 31
0.0
  0
LINE
  5
48F
330
1F
100
AcDbEntity
  8
0
100
AcDbLine
 10
12.65152881989999
 20
2.0008582658
 30
0.0
 11
12.6087866369
 21
1.9998568471
 31
0.0
  0
LINE
  5
490
330
1F
100
AcDbEntity
  8
0
100
AcDbLine
 10
12.6087866369
 20
1.9998568471
 30
0.0
 11
12.5636118998
 21
1.998826087799999
 31
0.0
  0
LINE
  5
491
330
1F
100
AcDbEntity
  8
0
100
AcDbLine
 10
12.5636118998
 20
1.998826087799999
 30
0.0
 11
12.5161513973
 21
1.997767983099999
 31
0.0
  0
LINE
  5
492
330
1F
100
AcDbEntity
  8
0
100
AcDbLine
 10
12.5161513973
 20
1.997767983099999
 30
0.0
 11
12.46655191829999
 21
1.9966845281
 31
0.0
  0
LINE
  5
493
330
1F
100
AcDbEntity
  8
0
100
AcDbLine
 10
12.46655191829999
 20
1.9966845281
 30
0.0
 11
12.3989047039
 21
1.9952344105
 31
0.0
  0
LINE
  5
494
330
1F
100
AcDbEntity
  8
0
100
AcDbLine
 10
12.3989047039
 20
1.9952344105
 30
0.0
 11
12.3295486718
 21
1.993774521499999
 31
0.0
  0
LINE
  5
495
330
1F
100
AcDbEntity
  8
0
100
AcDbLine
 10
12.3295486718
 20
1.993774521499999
 30
0.0
 11
12.2586484333
 21
1.9923077424
 31
0.0
  0
LINE
  5
496
330
1F
100
AcDbEntity
  8
0
100
AcDbLine
 10
12.2586484333
 20
1.9923077424
 30
0.0
 11
12.1863685995
 21
1.990836954699999
 31
0.0
  0
LINE
  5
497
330
1F
100
AcDbEntity
  8
0
100
AcDbLine
 10
12.1863685995
 20
1.990836954699999
 30
0.0
 11
12.1128737815
 21
1.9893650399
 31
0.0
  0
LINE
  5
498
330
1F
100
AcDbEntity
  8
0
100
AcDbLine
 10
12.1128737815
 20
1.9893650399
 30
0.0
 11
12.0381991668
 21
1.9878924849
 31
0.0
  0
LINE
  5
499
330
1F
100
AcDbEntity
  8
0
100
AcDbLine
 10
12.0381991668
 20
1.9878924849
 30
0.0
 11
11.96224559559998
 21
1.986417268199998
 31
0.0
  0
LINE
  5
49A
330
1F
100
AcDbEntity
  8
0
100
AcDbLine
 10
11.96224559559998
 20
1.986417268199998
 30
0.0
 11
11.88506362579998
 21
1.9849402461
 31
0.0
  0
LINE
  5
49B
330
1F
100
AcDbEntity
  8
0
100
AcDbLine
 10
11.88506362579998
 20
1.9849402461
 30
0.0
 11
11.80670381539999
 21
1.983462274999999
 31
0.0
  0
LINE
  5
49C
330
1F
100
AcDbEntity
  8
0
100
AcDbLine
 10
11.80670381539999
 20
1.983462274999999
 30
0.0
 11
11.7272167222
 21
1.981984211299998
 31
0.0
  0
LINE
  5
49D
330
1F
100
AcDbEntity
  8
0
100
AcDbLine
 10
11.7272167222
 20
1.981984211299998
 30
0.0
 11
11.64239329509999
 21
1.980429351399998
 31
0.0
  0
LINE
  5
49E
330
1F
100
AcDbEntity
  8
0
100
AcDbLine
 10
11.64239329509999
 20
1.980429351399998
 30
0.0
 11
11.55633935829998
 21
1.9788746759
 31
0.0
  0
LINE
  5
49F
330
1F
100
AcDbEntity
  8
0
100
AcDbLine
 10
11.55633935829998
 20
1.9788746759
 30
0.0
 11
11.4691219273
 21
1.9773215709
 31
0.0
  0
LINE
  5
4A0
330
1F
100
AcDbEntity
  8
0
100
AcDbLine
 10
11.4691219273
 20
1.9773215709
 30
0.0
 11
11.38080801769999
 21
1.9757714222
 31
0.0
  0
LINE
  5
4A1
330
1F
100
AcDbEntity
  8
0
100
AcDbLine
 10
11.38080801769999
 20
1.9757714222
 30
0.0
 11
11.291464645
 21
1.9742256158
 31
0.0
  0
LINE
  5
4A2
330
1F
100
AcDbEntity
  8
0
100
AcDbLine
 10
11.291464645
 20
1.9742256158
 30
0.0
 11
11.21317237059999
 21
1.972889211399998
 31
0.0
  0
LINE
  5
4A3
330
1F
100
AcDbEntity
  8
0
100
AcDbLine
 10
11.21317237059999
 20
1.972889211399998
 30
0.0
 11
11.13414593769999
 21
1.971557407899999
 31
0.0
  0
LINE
  5
4A4
330
1F
100
AcDbEntity
  8
0
100
AcDbLine
 10
11.13414593769999
 20
1.971557407899999
 30
0.0
 11
11.05428185799999
 21
1.9702287994
 31
0.0
  0
LINE
  5
4A5
330
1F
100
AcDbEntity
  8
0
100
AcDbLine
 10
11.05428185799999
 20
1.9702287994
 30
0.0
 11
10.9737592166
 21
1.968907384999999
 31
0.0
  0
LINE
  5
4AE
330
1F
100
AcDbEntity
  8
0
100
AcDbLine
 10
6.977090163599998
 20
10.0326208007
 30
0.0
 11
7.4768730512
 21
10.03424669199999
 31
0.0
  0
LINE
  5
4AF
330
1F
100
AcDbEntity
  8
0
100
AcDbLine
 10
7.4768730512
 20
10.03424669199999
 30
0.0
 11
7.976666676599998
 21
10.03577074309998
 31
0.0
  0
LINE
  5
4B0
330
1F
100
AcDbEntity
  8
0
100
AcDbLine
 10
7.976666676599998
 20
10.03577074309998
 30
0.0
 11
8.226582701899999
 21
10.0364674324
 31
0.0
  0
LINE
  5
4B1
330
1F
100
AcDbEntity
  8
0
100
AcDbLine
 10
8.226582701899999
 20
10.0364674324
 30
0.0
 11
8.476509996499999
 21
10.0370603924
 31
0.0
  0
LINE
  5
4B2
330
1F
100
AcDbEntity
  8
0
100
AcDbLine
 10
8.476509996499999
 20
10.0370603924
 30
0.0
 11
8.7264461871
 21
10.03747186659998
 31
0.0
  0
LINE
  5
4B3
330
1F
100
AcDbEntity
  8
0
100
AcDbLine
 10
8.7264461871
 20
10.03747186659998
 30
0.0
 11
8.976388900899998
 21
10.03762409859999
 31
0.0
  0
LINE
  5
4B4
330
1F
100
AcDbEntity
  8
0
100
AcDbLine
 10
8.976388900899998
 20
10.03762409859999
 30
0.0
 11
9.225679382
 21
10.0374667858
 31
0.0
  0
LINE
  5
4B5
330
1F
100
AcDbEntity
  8
0
100
AcDbLine
 10
9.225679382
 20
10.0374667858
 30
0.0
 11
9.474963221799999
 21
10.03705285669999
 31
0.0
  0
LINE
  5
4B6
330
1F
100
AcDbEntity
  8
0
100
AcDbLine
 10
9.474963221799999
 20
10.03705285669999
 30
0.0
 11
9.724238175099999
 21
10.0364594278
 31
0.0
  0
LINE
  5
4B7
330
1F
100
AcDbEntity
  8
0
100
AcDbLine
 10
9.724238175099999
 20
10.0364594278
 30
0.0
 11
9.973501996900001
 21
10.03576361549999
 31
0.0
  0
LINE
  5
4B8
330
1F
100
AcDbEntity
  8
0
100
AcDbLine
 10
9.973501996900001
 20
10.03576361549999
 30
0.0
 11
10.4720635845
 21
10.0342427284
 31
0.0
  0
LINE
  5
4B9
330
1F
100
AcDbEntity
  8
0
100
AcDbLine
 10
10.4720635845
 20
10.0342427284
 30
0.0
 11
10.97061451479999
 21
10.0326208007
 31
0.0
  0
LINE
  5
4BA
330
1F
100
AcDbEntity
  8
0
100
AcDbLine
 10
12.073669966
 20
9.5070590011
 30
0.0
 11
12.04341768809999
 21
9.5071050573
 31
0.0
  0
LINE
  5
4BB
330
1F
100
AcDbEntity
  8
0
100
AcDbLine
 10
12.04341768809999
 20
9.5071050573
 30
0.0
 11
11.2760406656
 21
9.5081404217
 31
0.0
  0
LINE
  5
4BC
330
1F
100
AcDbEntity
  8
0
100
AcDbLine
 10
11.2760406656
 20
9.5081404217
 30
0.0
 11
10.50865104659999
 21
9.508905654899999
 31
0.0
  0
LINE
  5
4BD
330
1F
100
AcDbEntity
  8
0
100
AcDbLine
 10
10.50865104659999
 20
9.508905654899999
 30
0.0
 11
9.741253916299999
 21
9.5093800098
 31
0.0
  0
LINE
  5
4BE
330
1F
100
AcDbEntity
  8
0
100
AcDbLine
 10
9.741253916299999
 20
9.5093800098
 30
0.0
 11
8.9738543598
 21
9.509542739199998
 31
0.0
  0
LINE
  5
4BF
330
1F
100
AcDbEntity
  8
0
100
AcDbLine
 10
8.9738543598
 20
9.509542739199998
 30
0.0
 11
8.206453792999999
 21
9.509380011099999
 31
0.0
  0
LINE
  5
4C0
330
1F
100
AcDbEntity
  8
0
100
AcDbLine
 10
8.206453792999999
 20
9.509380011099999
 30
0.0
 11
7.4390556524
 21
9.508905656499999
 31
0.0
  0
LINE
  5
4C1
330
1F
100
AcDbEntity
  8
0
100
AcDbLine
 10
7.4390556524
 20
9.508905656499999
 30
0.0
 11
6.6716650232
 21
9.5081404228
 31
0.0
  0
LINE
  5
4C2
330
1F
100
AcDbEntity
  8
0
100
AcDbLine
 10
6.6716650232
 20
9.5081404228
 30
0.0
 11
5.904286990399999
 21
9.5071050573
 31
0.0
  0
LINE
  5
4C3
330
1F
100
AcDbEntity
  8
0
100
AcDbLine
 10
5.904286990399999
 20
9.5071050573
 30
0.0
 11
5.8740347124
 21
9.5070590011
 31
0.0
  0
LINE
  5
4C4
330
1F
100
AcDbEntity
  8
0
100
AcDbLine
 10
12.93617248599999
 20
5.010438575299999
 30
0.0
 11
12.93542734519999
 21
5.010432245899998
 31
0.0
  0
LINE
  5
4C5
330
1F
100
AcDbEntity
  8
0
100
AcDbLine
 10
12.93542734519999
 20
5.010432245899998
 30
0.0
 11
12.9252959743
 21
5.0103693617
 31
0.0
  0
LINE
  5
4C6
330
1F
100
AcDbEntity
  8
0
100
AcDbLine
 10
12.9252959743
 20
5.0103693617
 30
0.0
 11
12.9169060457
 21
5.0103462448
 31
0.0
  0
LINE
  5
4C7
330
1F
100
AcDbEntity
  8
0
100
AcDbLine
 10
12.9169060457
 20
5.0103462448
 30
0.0
 11
12.5805174793
 21
5.010281652099998
 31
0.0
  0
LINE
  5
4C8
330
1F
100
AcDbEntity
  8
0
100
AcDbLine
 10
12.5805174793
 20
5.010281652099998
 30
0.0
 11
12.24581279569999
 21
5.010267252
 31
0.0
  0
LINE
  5
4C9
330
1F
100
AcDbEntity
  8
0
100
AcDbLine
 10
12.24581279569999
 20
5.010267252
 30
0.0
 11
11.9125941554
 21
5.0102968902
 31
0.0
  0
LINE
  5
4CA
330
1F
100
AcDbEntity
  8
0
100
AcDbLine
 10
11.9125941554
 20
5.0102968902
 30
0.0
 11
11.5806637192
 21
5.010364412099999
 31
0.0
  0
LINE
  5
4CB
330
1F
100
AcDbEntity
  8
0
100
AcDbLine
 10
11.5806637192
 20
5.010364412099999
 30
0.0
 11
11.2494825969
 21
5.010453396399999
 31
0.0
  0
LINE
  5
4CC
330
1F
100
AcDbEntity
  8
0
100
AcDbLine
 10
11.2494825969
 20
5.010453396399999
 30
0.0
 11
10.9178453041
 21
5.010528963699998
 31
0.0
  0
LINE
  5
4CD
330
1F
100
AcDbEntity
  8
0
100
AcDbLine
 10
10.9178453041
 20
5.010528963699998
 30
0.0
 11
10.8735215063
 21
5.010536923
 31
0.0
  0
LINE
  5
4CE
330
1F
100
AcDbEntity
  8
0
100
AcDbLine
 10
10.8735215063
 20
5.010536923
 30
0.0
 11
10.82895867089999
 21
5.0105382973
 31
0.0
  0
LINE
  5
4CF
330
1F
100
AcDbEntity
  8
0
100
AcDbLine
 10
10.82895867089999
 20
5.0105382973
 30
0.0
 11
10.7838251166
 21
5.0105223688
 31
0.0
  0
LINE
  5
4D0
330
1F
100
AcDbEntity
  8
0
100
AcDbLine
 10
10.7838251166
 20
5.0105223688
 30
0.0
 11
10.73778916209999
 21
5.0104784197
 31
0.0
  0
LINE
  5
4D1
330
1F
100
AcDbEntity
  8
0
100
AcDbLine
 10
10.73778916209999
 20
5.0104784197
 30
0.0
 11
10.69051912599999
 21
5.010395732
 31
0.0
  0
LINE
  5
4D2
330
1F
100
AcDbEntity
  8
0
100
AcDbLine
 10
10.69051912599999
 20
5.010395732
 30
0.0
 11
10.62947921559999
 21
5.010234425
 31
0.0
  0
LINE
  5
4D3
330
1F
100
AcDbEntity
  8
0
100
AcDbLine
 10
10.62947921559999
 20
5.010234425
 30
0.0
 11
10.56668676709999
 21
5.010015558
 31
0.0
  0
LINE
  5
4D4
330
1F
100
AcDbEntity
  8
0
100
AcDbLine
 10
10.56668676709999
 20
5.010015558
 30
0.0
 11
10.5022627852
 21
5.009739767
 31
0.0
  0
LINE
  5
4D5
330
1F
100
AcDbEntity
  8
0
100
AcDbLine
 10
10.5022627852
 20
5.009739767
 30
0.0
 11
10.4363282746
 21
5.009407688099998
 31
0.0
  0
LINE
  5
4E7
330
1F
100
AcDbEntity
  8
0
100
AcDbLine
 10
9.1471757455
 20
4.646092647099998
 30
0.0
 11
9.1467815926
 21
4.6362665268
 31
0.0
  0
LINE
  5
4E8
330
1F
100
AcDbEntity
  8
0
100
AcDbLine
 10
9.1467815926
 20
4.6362665268
 30
0.0
 11
9.1455712366
 21
4.6246671025
 31
0.0
  0
LINE
  5
4E9
330
1F
100
AcDbEntity
  8
0
100
AcDbLine
 10
9.1455712366
 20
4.6246671025
 30
0.0
 11
9.143560247799999
 21
4.6131760953
 31
0.0
  0
LINE
  5
4EA
330
1F
100
AcDbEntity
  8
0
100
AcDbLine
 10
9.143560247799999
 20
4.6131760953
 30
0.0
 11
9.1407580024
 21
4.601847081599999
 31
0.0
  0
LINE
  5
4EB
330
1F
100
AcDbEntity
  8
0
100
AcDbLine
 10
9.1407580024
 20
4.601847081599999
 30
0.0
 11
9.1371775657
 21
4.5907328824
 31
0.0
  0
LINE
  5
4EC
330
1F
100
AcDbEntity
  8
0
100
AcDbLine
 10
9.1371775657
 20
4.5907328824
 30
0.0
 11
9.132835631499998
 21
4.5798853172
 31
0.0
  0
LINE
  5
4ED
330
1F
100
AcDbEntity
  8
0
100
AcDbLine
 10
9.132835631499998
 20
4.5798853172
 30
0.0
 11
9.1277524438
 21
4.5693549625
 31
0.0
  0
LINE
  5
4EE
330
1F
100
AcDbEntity
  8
0
100
AcDbLine
 10
9.1277524438
 20
4.5693549625
 30
0.0
 11
9.1219517027
 21
4.5591909157
 31
0.0
  0
LINE
  5
4EF
330
1F
100
AcDbEntity
  8
0
100
AcDbLine
 10
9.1219517027
 20
4.5591909157
 30
0.0
 11
9.115460453999999
 21
4.5494405661
 31
0.0
  0
LINE
  5
4F0
330
1F
100
AcDbEntity
  8
0
100
AcDbLine
 10
9.115460453999999
 20
4.5494405661
 30
0.0
 11
9.108308962999998
 21
4.5401493744
 31
0.0
  0
LINE
  5
4F1
330
1F
100
AcDbEntity
  8
0
100
AcDbLine
 10
9.108308962999998
 20
4.5401493744
 30
0.0
 11
9.100530573
 21
4.531360660399998
 31
0.0
  0
LINE
  5
4F2
330
1F
100
AcDbEntity
  8
0
100
AcDbLine
 10
9.100530573
 20
4.531360660399998
 30
0.0
 11
9.0921615507
 21
4.5231154013
 31
0.0
  0
LINE
  5
4F3
330
1F
100
AcDbEntity
  8
0
100
AcDbLine
 10
9.0921615507
 20
4.5231154013
 30
0.0
 11
9.083240916299999
 21
4.515452040099999
 31
0.0
  0
LINE
  5
4F4
330
1F
100
AcDbEntity
  8
0
100
AcDbLine
 10
9.083240916299999
 20
4.515452040099999
 30
0.0
 11
9.0738102617
 21
4.508406306999999
 31
0.0
  0
LINE
  5
4F5
330
1F
100
AcDbEntity
  8
0
100
AcDbLine
 10
9.0738102617
 20
4.508406306999999
 30
0.0
 11
9.063913557200001
 21
4.5020110525
 31
0.0
  0
LINE
  5
4F6
330
1F
100
AcDbEntity
  8
0
100
AcDbLine
 10
9.063913557200001
 20
4.5020110525
 30
0.0
 11
9.0535969458
 21
4.496296094199998
 31
0.0
  0
LINE
  5
4F7
330
1F
100
AcDbEntity
  8
0
100
AcDbLine
 10
9.0535969458
 20
4.496296094199998
 30
0.0
 11
9.042908528099999
 21
4.4912880779
 31
0.0
  0
LINE
  5
4F8
330
1F
100
AcDbEntity
  8
0
100
AcDbLine
 10
9.042908528099999
 20
4.4912880779
 30
0.0
 11
9.0318981387
 21
4.487010353299999
 31
0.0
  0
LINE
  5
4F9
330
1F
100
AcDbEntity
  8
0
100
AcDbLine
 10
9.0318981387
 20
4.487010353299999
 30
0.0
 11
9.0206171129
 21
4.483482865
 31
0.0
  0
LINE
  5
4FA
330
1F
100
AcDbEntity
  8
0
100
AcDbLine
 10
9.0206171129
 20
4.483482865
 30
0.0
 11
9.009118048200001
 21
4.480722059899998
 31
0.0
  0
LINE
  5
4FB
330
1F
100
AcDbEntity
  8
0
100
AcDbLine
 10
9.009118048200001
 20
4.480722059899998
 30
0.0
 11
8.997454558400001
 21
4.478740810099999
 31
0.0
  0
LINE
  5
4FC
330
1F
100
AcDbEntity
  8
0
100
AcDbLine
 10
8.997454558400001
 20
4.478740810099999
 30
0.0
 11
8.985681024199998
 21
4.477548353199998
 31
0.0
  0
LINE
  5
4FD
330
1F
100
AcDbEntity
  8
0
100
AcDbLine
 10
8.985681024199998
 20
4.477548353199998
 30
0.0
 11
8.973852339199998
 21
4.4771502488
 31
0.0
  0
LINE
  5
4FE
330
1F
100
AcDbEntity
  8
0
100
AcDbLine
 10
8.973852339199998
 20
4.4771502488
 30
0.0
 11
8.962023654299997
 21
4.477548353199998
 31
0.0
  0
LINE
  5
4FF
330
1F
100
AcDbEntity
  8
0
100
AcDbLine
 10
8.962023654299997
 20
4.477548353199998
 30
0.0
 11
8.950250120099997
 21
4.478740810099999
 31
0.0
  0
LINE
  5
500
330
1F
100
AcDbEntity
  8
0
100
AcDbLine
 10
8.950250120099997
 20
4.478740810099999
 30
0.0
 11
8.938586630299997
 21
4.480722059899998
 31
0.0
  0
LINE
  5
501
330
1F
100
AcDbEntity
  8
0
100
AcDbLine
 10
8.938586630299997
 20
4.480722059899998
 30
0.0
 11
8.927087565599999
 21
4.483482865
 31
0.0
  0
LINE
  5
502
330
1F
100
AcDbEntity
  8
0
100
AcDbLine
 10
8.927087565599999
 20
4.483482865
 30
0.0
 11
8.9158065398
 21
4.487010353299999
 31
0.0
  0
LINE
  5
503
330
1F
100
AcDbEntity
  8
0
100
AcDbLine
 10
8.9158065398
 20
4.487010353299999
 30
0.0
 11
8.904796150299999
 21
4.4912880779
 31
0.0
  0
LINE
  5
504
330
1F
100
AcDbEntity
  8
0
100
AcDbLine
 10
8.904796150299999
 20
4.4912880779
 30
0.0
 11
8.8941077327
 21
4.496296094199998
 31
0.0
  0
LINE
  5
505
330
1F
100
AcDbEntity
  8
0
100
AcDbLine
 10
8.8941077327
 20
4.496296094199998
 30
0.0
 11
8.883791121199998
 21
4.5020110525
 31
0.0
  0
LINE
  5
506
330
1F
100
AcDbEntity
  8
0
100
AcDbLine
 10
8.883791121199998
 20
4.5020110525
 30
0.0
 11
8.873894416699998
 21
4.508406306999999
 31
0.0
  0
LINE
  5
507
330
1F
100
AcDbEntity
  8
0
100
AcDbLine
 10
8.873894416699998
 20
4.508406306999999
 30
0.0
 11
8.864463762199997
 21
4.515452040099999
 31
0.0
  0
LINE
  5
508
330
1F
100
AcDbEntity
  8
0
100
AcDbLine
 10
8.864463762199997
 20
4.515452040099999
 30
0.0
 11
8.855543127699998
 21
4.5231154013
 31
0.0
  0
LINE
  5
509
330
1F
100
AcDbEntity
  8
0
100
AcDbLine
 10
8.855543127699998
 20
4.5231154013
 30
0.0
 11
8.847174105399998
 21
4.531360660399998
 31
0.0
  0
LINE
  5
50A
330
1F
100
AcDbEntity
  8
0
100
AcDbLine
 10
8.847174105399998
 20
4.531360660399998
 30
0.0
 11
8.8393957155
 21
4.5401493744
 31
0.0
  0
LINE
  5
50B
330
1F
100
AcDbEntity
  8
0
100
AcDbLine
 10
8.8393957155
 20
4.5401493744
 30
0.0
 11
8.8322442245
 21
4.5494405661
 31
0.0
  0
LINE
  5
50C
330
1F
100
AcDbEntity
  8
0
100
AcDbLine
 10
8.8322442245
 20
4.5494405661
 30
0.0
 11
8.8257529758
 21
4.5591909157
 31
0.0
  0
LINE
  5
50D
330
1F
100
AcDbEntity
  8
0
100
AcDbLine
 10
8.8257529758
 20
4.5591909157
 30
0.0
 11
8.8199522347
 21
4.5693549625
 31
0.0
  0
LINE
  5
50E
330
1F
100
AcDbEntity
  8
0
100
AcDbLine
 10
8.8199522347
 20
4.5693549625
 30
0.0
 11
8.814869047
 21
4.5798853172
 31
0.0
  0
LINE
  5
50F
330
1F
100
AcDbEntity
  8
0
100
AcDbLine
 10
8.814869047
 20
4.5798853172
 30
0.0
 11
8.810527112699999
 21
4.5907328824
 31
0.0
  0
LINE
  5
510
330
1F
100
AcDbEntity
  8
0
100
AcDbLine
 10
8.810527112699999
 20
4.5907328824
 30
0.0
 11
8.8069466761
 21
4.601847081599999
 31
0.0
  0
LINE
  5
511
330
1F
100
AcDbEntity
  8
0
100
AcDbLine
 10
8.8069466761
 20
4.601847081599999
 30
0.0
 11
8.8041444307
 21
4.6131760953
 31
0.0
  0
LINE
  5
512
330
1F
100
AcDbEntity
  8
0
100
AcDbLine
 10
8.8041444307
 20
4.6131760953
 30
0.0
 11
8.8021334419
 21
4.6246671025
 31
0.0
  0
LINE
  5
513
330
1F
100
AcDbEntity
  8
0
100
AcDbLine
 10
8.8021334419
 20
4.6246671025
 30
0.0
 11
8.8009230859
 21
4.6362665268
 31
0.0
  0
LINE
  5
514
330
1F
100
AcDbEntity
  8
0
100
AcDbLine
 10
8.8009230859
 20
4.6362665268
 30
0.0
 11
8.800528932999998
 21
4.646092647099998
 31
0.0
  0
LINE
  5
515
330
1F
100
AcDbEntity
  8
0
100
AcDbLine
 10
9.077346187599999
 20
4.7812536196
 30
0.0
 11
9.083240916299999
 21
4.776733254099998
 31
0.0
  0
LINE
  5
516
330
1F
100
AcDbEntity
  8
0
100
AcDbLine
 10
9.083240916299999
 20
4.776733254099998
 30
0.0
 11
9.0921615507
 21
4.7690698929
 31
0.0
  0
LINE
  5
517
330
1F
100
AcDbEntity
  8
0
100
AcDbLine
 10
9.0921615507
 20
4.7690698929
 30
0.0
 11
9.100530573
 21
4.760824633799998
 31
0.0
  0
LINE
  5
518
330
1F
100
AcDbEntity
  8
0
100
AcDbLine
 10
9.100530573
 20
4.760824633799998
 30
0.0
 11
9.108308962999998
 21
4.752035919799999
 31
0.0
  0
LINE
  5
519
330
1F
100
AcDbEntity
  8
0
100
AcDbLine
 10
9.108308962999998
 20
4.752035919799999
 30
0.0
 11
9.115460453999999
 21
4.742744728099999
 31
0.0
  0
LINE
  5
51A
330
1F
100
AcDbEntity
  8
0
100
AcDbLine
 10
9.115460453999999
 20
4.742744728099999
 30
0.0
 11
9.1219517027
 21
4.732994378499999
 31
0.0
  0
LINE
  5
51B
330
1F
100
AcDbEntity
  8
0
100
AcDbLine
 10
9.1219517027
 20
4.732994378499999
 30
0.0
 11
9.1277524438
 21
4.722830331599999
 31
0.0
  0
LINE
  5
51C
330
1F
100
AcDbEntity
  8
0
100
AcDbLine
 10
9.1277524438
 20
4.722830331599999
 30
0.0
 11
9.132835631499998
 21
4.712299976999998
 31
0.0
  0
LINE
  5
51D
330
1F
100
AcDbEntity
  8
0
100
AcDbLine
 10
9.132835631499998
 20
4.712299976999998
 30
0.0
 11
9.1371775657
 21
4.7014524118
 31
0.0
  0
LINE
  5
51E
330
1F
100
AcDbEntity
  8
0
100
AcDbLine
 10
9.1371775657
 20
4.7014524118
 30
0.0
 11
9.1407580024
 21
4.690338212599999
 31
0.0
  0
LINE
  5
51F
330
1F
100
AcDbEntity
  8
0
100
AcDbLine
 10
9.1407580024
 20
4.690338212599999
 30
0.0
 11
9.143560247799999
 21
4.6790091989
 31
0.0
  0
LINE
  5
520
330
1F
100
AcDbEntity
  8
0
100
AcDbLine
 10
9.143560247799999
 20
4.6790091989
 30
0.0
 11
9.1455712366
 21
4.6675181917
 31
0.0
  0
LINE
  5
521
330
1F
100
AcDbEntity
  8
0
100
AcDbLine
 10
9.1455712366
 20
4.6675181917
 30
0.0
 11
9.1467815926
 21
4.6559187674
 31
0.0
  0
LINE
  5
522
330
1F
100
AcDbEntity
  8
0
100
AcDbLine
 10
9.1467815926
 20
4.6559187674
 30
0.0
 11
9.147185672599999
 21
4.6442650079
 31
0.0
  0
LINE
  5
523
330
1F
100
AcDbEntity
  8
0
100
AcDbLine
 10
9.147185672599999
 20
4.6442650079
 30
0.0
 11
9.1467815926
 21
4.632611248399999
 31
0.0
  0
LINE
  5
524
330
1F
100
AcDbEntity
  8
0
100
AcDbLine
 10
9.1467815926
 20
4.632611248399999
 30
0.0
 11
9.1455712366
 21
4.621011824099999
 31
0.0
  0
LINE
  5
525
330
1F
100
AcDbEntity
  8
0
100
AcDbLine
 10
9.1455712366
 20
4.621011824099999
 30
0.0
 11
9.143560247799999
 21
4.609520816899999
 31
0.0
  0
LINE
  5
526
330
1F
100
AcDbEntity
  8
0
100
AcDbLine
 10
9.143560247799999
 20
4.609520816899999
 30
0.0
 11
9.1407580024
 21
4.598191803199998
 31
0.0
  0
LINE
  5
527
330
1F
100
AcDbEntity
  8
0
100
AcDbLine
 10
9.1407580024
 20
4.598191803199998
 30
0.0
 11
9.1371775657
 21
4.587077604
 31
0.0
  0
LINE
  5
528
330
1F
100
AcDbEntity
  8
0
100
AcDbLine
 10
9.1371775657
 20
4.587077604
 30
0.0
 11
9.132835631499998
 21
4.5762300388
 31
0.0
  0
LINE
  5
529
330
1F
100
AcDbEntity
  8
0
100
AcDbLine
 10
9.132835631499998
 20
4.5762300388
 30
0.0
 11
9.1277524438
 21
4.5656996842
 31
0.0
  0
LINE
  5
52A
330
1F
100
AcDbEntity
  8
0
100
AcDbLine
 10
9.1277524438
 20
4.5656996842
 30
0.0
 11
9.1219517027
 21
4.5555356373
 31
0.0
  0
LINE
  5
52B
330
1F
100
AcDbEntity
  8
0
100
AcDbLine
 10
9.1219517027
 20
4.5555356373
 30
0.0
 11
9.115460453999999
 21
4.5457852877
 31
0.0
  0
LINE
  5
52C
330
1F
100
AcDbEntity
  8
0
100
AcDbLine
 10
9.115460453999999
 20
4.5457852877
 30
0.0
 11
9.108308962999998
 21
4.536494096
 31
0.0
  0
LINE
  5
52D
330
1F
100
AcDbEntity
  8
0
100
AcDbLine
 10
9.108308962999998
 20
4.536494096
 30
0.0
 11
9.100530573
 21
4.527705381999999
 31
0.0
  0
LINE
  5
52E
330
1F
100
AcDbEntity
  8
0
100
AcDbLine
 10
9.100530573
 20
4.527705381999999
 30
0.0
 11
9.0921615507
 21
4.519460122899999
 31
0.0
  0
LINE
  5
52F
330
1F
100
AcDbEntity
  8
0
100
AcDbLine
 10
9.0921615507
 20
4.519460122899999
 30
0.0
 11
9.083240916299999
 21
4.5117967617
 31
0.0
  0
LINE
  5
530
330
1F
100
AcDbEntity
  8
0
100
AcDbLine
 10
9.083240916299999
 20
4.5117967617
 30
0.0
 11
9.0738102617
 21
4.5047510286
 31
0.0
  0
LINE
  5
531
330
1F
100
AcDbEntity
  8
0
100
AcDbLine
 10
9.0738102617
 20
4.5047510286
 30
0.0
 11
9.063913557200001
 21
4.4983557741
 31
0.0
  0
LINE
  5
532
330
1F
100
AcDbEntity
  8
0
100
AcDbLine
 10
9.063913557200001
 20
4.4983557741
 30
0.0
 11
9.0535969458
 21
4.492640815899998
 31
0.0
  0
LINE
  5
533
330
1F
100
AcDbEntity
  8
0
100
AcDbLine
 10
9.0535969458
 20
4.492640815899998
 30
0.0
 11
9.042908528099999
 21
4.4876327995
 31
0.0
  0
LINE
  5
534
330
1F
100
AcDbEntity
  8
0
100
AcDbLine
 10
9.042908528099999
 20
4.4876327995
 30
0.0
 11
9.0318981387
 21
4.4833550749
 31
0.0
  0
LINE
  5
535
330
1F
100
AcDbEntity
  8
0
100
AcDbLine
 10
9.0318981387
 20
4.4833550749
 30
0.0
 11
9.0206171129
 21
4.479827586599999
 31
0.0
  0
LINE
  5
536
330
1F
100
AcDbEntity
  8
0
100
AcDbLine
 10
9.0206171129
 20
4.479827586599999
 30
0.0
 11
9.009118048200001
 21
4.477066781499999
 31
0.0
  0
LINE
  5
537
330
1F
100
AcDbEntity
  8
0
100
AcDbLine
 10
9.009118048200001
 20
4.477066781499999
 30
0.0
 11
8.997454558400001
 21
4.4750855317
 31
0.0
  0
LINE
  5
538
330
1F
100
AcDbEntity
  8
0
100
AcDbLine
 10
8.997454558400001
 20
4.4750855317
 30
0.0
 11
8.985681024199998
 21
4.4738930748
 31
0.0
  0
LINE
  5
539
330
1F
100
AcDbEntity
  8
0
100
AcDbLine
 10
8.985681024199998
 20
4.4738930748
 30
0.0
 11
8.973852339199998
 21
4.473494970399999
 31
0.0
  0
LINE
  5
53A
330
1F
100
AcDbEntity
  8
0
100
AcDbLine
 10
8.973852339199998
 20
4.473494970399999
 30
0.0
 11
8.962023654299997
 21
4.4738930748
 31
0.0
  0
LINE
  5
53B
330
1F
100
AcDbEntity
  8
0
100
AcDbLine
 10
8.962023654299997
 20
4.4738930748
 30
0.0
 11
8.950250120099997
 21
4.4750855317
 31
0.0
  0
LINE
  5
53C
330
1F
100
AcDbEntity
  8
0
100
AcDbLine
 10
8.950250120099997
 20
4.4750855317
 30
0.0
 11
8.938586630299997
 21
4.477066781499999
 31
0.0
  0
LINE
  5
53D
330
1F
100
AcDbEntity
  8
0
100
AcDbLine
 10
8.938586630299997
 20
4.477066781499999
 30
0.0
 11
8.927087565599999
 21
4.479827586599999
 31
0.0
  0
LINE
  5
53E
330
1F
100
AcDbEntity
  8
0
100
AcDbLine
 10
8.927087565599999
 20
4.479827586599999
 30
0.0
 11
8.9158065398
 21
4.4833550749
 31
0.0
  0
LINE
  5
53F
330
1F
100
AcDbEntity
  8
0
100
AcDbLine
 10
8.9158065398
 20
4.4833550749
 30
0.0
 11
8.904796150299999
 21
4.4876327995
 31
0.0
  0
LINE
  5
540
330
1F
100
AcDbEntity
  8
0
100
AcDbLine
 10
8.904796150299999
 20
4.4876327995
 30
0.0
 11
8.8941077327
 21
4.492640815899998
 31
0.0
  0
LINE
  5
541
330
1F
100
AcDbEntity
  8
0
100
AcDbLine
 10
8.8941077327
 20
4.492640815899998
 30
0.0
 11
8.883791121199998
 21
4.4983557741
 31
0.0
  0
LINE
  5
542
330
1F
100
AcDbEntity
  8
0
100
AcDbLine
 10
8.883791121199998
 20
4.4983557741
 30
0.0
 11
8.873894416699998
 21
4.5047510286
 31
0.0
  0
LINE
  5
543
330
1F
100
AcDbEntity
  8
0
100
AcDbLine
 10
8.873894416699998
 20
4.5047510286
 30
0.0
 11
8.864463762199997
 21
4.5117967617
 31
0.0
  0
LINE
  5
544
330
1F
100
AcDbEntity
  8
0
100
AcDbLine
 10
8.864463762199997
 20
4.5117967617
 30
0.0
 11
8.855543127699998
 21
4.519460122899999
 31
0.0
  0
LINE
  5
545
330
1F
100
AcDbEntity
  8
0
100
AcDbLine
 10
8.855543127699998
 20
4.519460122899999
 30
0.0
 11
8.847174105399998
 21
4.527705381999999
 31
0.0
  0
LINE
  5
546
330
1F
100
AcDbEntity
  8
0
100
AcDbLine
 10
8.847174105399998
 20
4.527705381999999
 30
0.0
 11
8.8393957155
 21
4.536494096
 31
0.0
  0
LINE
  5
547
330
1F
100
AcDbEntity
  8
0
100
AcDbLine
 10
8.8393957155
 20
4.536494096
 30
0.0
 11
8.8322442245
 21
4.5457852877
 31
0.0
  0
LINE
  5
548
330
1F
100
AcDbEntity
  8
0
100
AcDbLine
 10
8.8322442245
 20
4.5457852877
 30
0.0
 11
8.8257529758
 21
4.5555356373
 31
0.0
  0
LINE
  5
549
330
1F
100
AcDbEntity
  8
0
100
AcDbLine
 10
8.8257529758
 20
4.5555356373
 30
0.0
 11
8.8199522347
 21
4.5656996842
 31
0.0
  0
LINE
  5
54A
330
1F
100
AcDbEntity
  8
0
100
AcDbLine
 10
8.8199522347
 20
4.5656996842
 30
0.0
 11
8.814869047
 21
4.5762300388
 31
0.0
  0
LINE
  5
54B
330
1F
100
AcDbEntity
  8
0
100
AcDbLine
 10
8.814869047
 20
4.5762300388
 30
0.0
 11
8.810527112699999
 21
4.587077604
 31
0.0
  0
LINE
  5
54C
330
1F
100
AcDbEntity
  8
0
100
AcDbLine
 10
8.810527112699999
 20
4.587077604
 30
0.0
 11
8.8069466761
 21
4.598191803199998
 31
0.0
  0
LINE
  5
54D
330
1F
100
AcDbEntity
  8
0
100
AcDbLine
 10
8.8069466761
 20
4.598191803199998
 30
0.0
 11
8.8041444307
 21
4.609520816899999
 31
0.0
  0
LINE
  5
54E
330
1F
100
AcDbEntity
  8
0
100
AcDbLine
 10
8.8041444307
 20
4.609520816899999
 30
0.0
 11
8.8021334419
 21
4.621011824099999
 31
0.0
  0
LINE
  5
54F
330
1F
100
AcDbEntity
  8
0
100
AcDbLine
 10
8.8021334419
 20
4.621011824099999
 30
0.0
 11
8.8009230859
 21
4.632611248399999
 31
0.0
  0
LINE
  5
550
330
1F
100
AcDbEntity
  8
0
100
AcDbLine
 10
8.8009230859
 20
4.632611248399999
 30
0.0
 11
8.8005190059
 21
4.6442650079
 31
0.0
  0
LINE
  5
551
330
1F
100
AcDbEntity
  8
0
100
AcDbLine
 10
8.8005190059
 20
4.6442650079
 30
0.0
 11
8.8009230859
 21
4.6559187674
 31
0.0
  0
LINE
  5
552
330
1F
100
AcDbEntity
  8
0
100
AcDbLine
 10
8.8009230859
 20
4.6559187674
 30
0.0
 11
8.8021334419
 21
4.6675181917
 31
0.0
  0
LINE
  5
553
330
1F
100
AcDbEntity
  8
0
100
AcDbLine
 10
8.8021334419
 20
4.6675181917
 30
0.0
 11
8.8041444307
 21
4.6790091989
 31
0.0
  0
LINE
  5
554
330
1F
100
AcDbEntity
  8
0
100
AcDbLine
 10
8.8041444307
 20
4.6790091989
 30
0.0
 11
8.8069466761
 21
4.690338212599999
 31
0.0
  0
LINE
  5
555
330
1F
100
AcDbEntity
  8
0
100
AcDbLine
 10
8.8069466761
 20
4.690338212599999
 30
0.0
 11
8.810527112699999
 21
4.7014524118
 31
0.0
  0
LINE
  5
556
330
1F
100
AcDbEntity
  8
0
100
AcDbLine
 10
8.810527112699999
 20
4.7014524118
 30
0.0
 11
8.814869047
 21
4.712299976999998
 31
0.0
  0
LINE
  5
557
330
1F
100
AcDbEntity
  8
0
100
AcDbLine
 10
8.814869047
 20
4.712299976999998
 30
0.0
 11
8.8199522347
 21
4.722830331599999
 31
0.0
  0
LINE
  5
558
330
1F
100
AcDbEntity
  8
0
100
AcDbLine
 10
8.8199522347
 20
4.722830331599999
 30
0.0
 11
8.8257529758
 21
4.732994378499999
 31
0.0
  0
LINE
  5
559
330
1F
100
AcDbEntity
  8
0
100
AcDbLine
 10
8.8257529758
 20
4.732994378499999
 30
0.0
 11
8.8322442245
 21
4.742744728099999
 31
0.0
  0
LINE
  5
55A
330
1F
100
AcDbEntity
  8
0
100
AcDbLine
 10
8.8322442245
 20
4.742744728099999
 30
0.0
 11
8.8393957155
 21
4.752035919799999
 31
0.0
  0
LINE
  5
55B
330
1F
100
AcDbEntity
  8
0
100
AcDbLine
 10
8.8393957155
 20
4.752035919799999
 30
0.0
 11
8.847174105399998
 21
4.760824633799998
 31
0.0
  0
LINE
  5
55C
330
1F
100
AcDbEntity
  8
0
100
AcDbLine
 10
8.847174105399998
 20
4.760824633799998
 30
0.0
 11
8.855543127699998
 21
4.7690698929
 31
0.0
  0
LINE
  5
55D
330
1F
100
AcDbEntity
  8
0
100
AcDbLine
 10
8.855543127699998
 20
4.7690698929
 30
0.0
 11
8.864463762199997
 21
4.776733254099998
 31
0.0
  0
LINE
  5
55E
330
1F
100
AcDbEntity
  8
0
100
AcDbLine
 10
8.864463762199997
 20
4.776733254099998
 30
0.0
 11
8.870358490800001
 21
4.7812536196
 31
0.0
  0
LINE
  5
55F
330
1F
100
AcDbEntity
  8
0
100
AcDbLine
 10
6.977090163599998
 20
10.0326208007
 30
0.0
 11
6.967007055199998
 21
10.0043349275
 31
0.0
  0
LINE
  5
560
330
1F
100
AcDbEntity
  8
0
100
AcDbLine
 10
6.967007055199998
 20
10.0043349275
 30
0.0
 11
6.9541937412
 21
9.976077625
 31
0.0
  0
LINE
  5
561
330
1F
100
AcDbEntity
  8
0
100
AcDbLine
 10
6.9541937412
 20
9.976077625
 30
0.0
 11
6.938655678399999
 21
9.947860482399999
 31
0.0
  0
LINE
  5
562
330
1F
100
AcDbEntity
  8
0
100
AcDbLine
 10
6.938655678399999
 20
9.947860482399999
 30
0.0
 11
6.920398323599998
 21
9.919695088799999
 31
0.0
  0
LINE
  5
563
330
1F
100
AcDbEntity
  8
0
100
AcDbLine
 10
6.920398323599998
 20
9.919695088799999
 30
0.0
 11
6.899324283799998
 21
9.8914614805
 31
0.0
  0
LINE
  5
564
330
1F
100
AcDbEntity
  8
0
100
AcDbLine
 10
6.899324283799998
 20
9.8914614805
 30
0.0
 11
6.875512545
 21
9.8632878633
 31
0.0
  0
LINE
  5
565
330
1F
100
AcDbEntity
  8
0
100
AcDbLine
 10
6.875512545
 20
9.8632878633
 30
0.0
 11
6.8489736464
 21
9.835185879299999
 31
0.0
  0
LINE
  5
566
330
1F
100
AcDbEntity
  8
0
100
AcDbLine
 10
6.8489736464
 20
9.835185879299999
 30
0.0
 11
6.819718127299998
 21
9.807167170899999
 31
0.0
  0
LINE
  5
567
330
1F
100
AcDbEntity
  8
0
100
AcDbLine
 10
6.819718127299998
 20
9.807167170899999
 30
0.0
 11
6.7861648026
 21
9.7779130771
 31
0.0
  0
LINE
  5
568
330
1F
100
AcDbEntity
  8
0
100
AcDbLine
 10
6.7861648026
 20
9.7779130771
 30
0.0
 11
6.749640187799998
 21
9.7487590325
 31
0.0
  0
LINE
  5
569
330
1F
100
AcDbEntity
  8
0
100
AcDbLine
 10
6.749640187799998
 20
9.7487590325
 30
0.0
 11
6.710161628599998
 21
9.719718246499999
 31
0.0
  0
LINE
  5
56A
330
1F
100
AcDbEntity
  8
0
100
AcDbLine
 10
6.710161628599998
 20
9.719718246499999
 30
0.0
 11
6.667746470599999
 21
9.690803928499999
 31
0.0
  0
LINE
  5
56B
330
1F
100
AcDbEntity
  8
0
100
AcDbLine
 10
6.667746470599999
 20
9.690803928499999
 30
0.0
 11
6.622170657799998
 21
9.661880233399999
 31
0.0
  0
LINE
  5
56C
330
1F
100
AcDbEntity
  8
0
100
AcDbLine
 10
6.622170657799998
 20
9.661880233399999
 30
0.0
 11
6.5736426524
 21
9.633093105499998
 31
0.0
  0
LINE
  5
56D
330
1F
100
AcDbEntity
  8
0
100
AcDbLine
 10
6.5736426524
 20
9.633093105499998
 30
0.0
 11
6.5221855664
 21
9.604455701
 31
0.0
  0
LINE
  5
56E
330
1F
100
AcDbEntity
  8
0
100
AcDbLine
 10
6.5221855664
 20
9.604455701
 30
0.0
 11
6.467822511799999
 21
9.5759811757
 31
0.0
  0
LINE
  5
56F
330
1F
100
AcDbEntity
  8
0
100
AcDbLine
 10
6.467822511799999
 20
9.5759811757
 30
0.0
 11
6.453755169799999
 21
9.5695613495
 31
0.0
  0
LINE
  5
570
330
1F
100
AcDbEntity
  8
0
100
AcDbLine
 10
6.453755169799999
 20
9.5695613495
 30
0.0
 11
6.4371330246
 21
9.5632976249
 31
0.0
  0
LINE
  5
571
330
1F
100
AcDbEntity
  8
0
100
AcDbLine
 10
6.4371330246
 20
9.5632976249
 30
0.0
 11
6.418084806399998
 21
9.557231074299998
 31
0.0
  0
LINE
  5
572
330
1F
100
AcDbEntity
  8
0
100
AcDbLine
 10
6.418084806399998
 20
9.557231074299998
 30
0.0
 11
6.396739245499999
 21
9.551402770199999
 31
0.0
  0
LINE
  5
573
330
1F
100
AcDbEntity
  8
0
100
AcDbLine
 10
6.396739245499999
 20
9.551402770199999
 30
0.0
 11
6.373225072
 21
9.545853785
 31
0.0
  0
LINE
  5
574
330
1F
100
AcDbEntity
  8
0
100
AcDbLine
 10
6.373225072
 20
9.545853785
 30
0.0
 11
6.347548227499999
 21
9.540593755099999
 31
0.0
  0
LINE
  5
575
330
1F
100
AcDbEntity
  8
0
100
AcDbLine
 10
6.347548227499999
 20
9.540593755099999
 30
0.0
 11
6.3197624807
 21
9.535625882099999
 31
0.0
  0
LINE
  5
576
330
1F
100
AcDbEntity
  8
0
100
AcDbLine
 10
6.3197624807
 20
9.535625882099999
 30
0.0
 11
6.290068527999999
 21
9.530981636599999
 31
0.0
  0
LINE
  5
577
330
1F
100
AcDbEntity
  8
0
100
AcDbLine
 10
6.290068527999999
 20
9.530981636599999
 30
0.0
 11
6.2586670661
 21
9.5266924894
 31
0.0
  0
LINE
  5
578
330
1F
100
AcDbEntity
  8
0
100
AcDbLine
 10
6.2586670661
 20
9.5266924894
 30
0.0
 11
6.225758791799999
 21
9.522789911
 31
0.0
  0
LINE
  5
579
330
1F
100
AcDbEntity
  8
0
100
AcDbLine
 10
6.225758791799999
 20
9.522789911
 30
0.0
 11
6.195450956599998
 21
9.519667199
 31
0.0
  0
LINE
  5
57A
330
1F
100
AcDbEntity
  8
0
100
AcDbLine
 10
6.195450956599998
 20
9.519667199
 30
0.0
 11
6.1641142594
 21
9.5168584182
 31
0.0
  0
LINE
  5
57B
330
1F
100
AcDbEntity
  8
0
100
AcDbLine
 10
9.1359716369
 20
9.559876906900001
 30
0.0
 11
9.132835631499998
 21
9.561200149999999
 31
0.0
  0
LINE
  5
57C
330
1F
100
AcDbEntity
  8
0
100
AcDbLine
 10
9.132835631499998
 20
9.561200149999999
 30
0.0
 11
9.1277524438
 21
9.5630315161
 31
0.0
  0
LINE
  5
57D
330
1F
100
AcDbEntity
  8
0
100
AcDbLine
 10
9.1277524438
 20
9.5630315161
 30
0.0
 11
9.1219517027
 21
9.564799176399999
 31
0.0
  0
LINE
  5
57E
330
1F
100
AcDbEntity
  8
0
100
AcDbLine
 10
9.1219517027
 20
9.564799176399999
 30
0.0
 11
9.115460453999999
 21
9.566494889400001
 31
0.0
  0
LINE
  5
57F
330
1F
100
AcDbEntity
  8
0
100
AcDbLine
 10
9.115460453999999
 20
9.566494889400001
 30
0.0
 11
9.108308962999998
 21
9.5681107488
 31
0.0
  0
LINE
  5
580
330
1F
100
AcDbEntity
  8
0
100
AcDbLine
 10
9.108308962999998
 20
9.5681107488
 30
0.0
 11
9.100530573
 21
9.5696392208
 31
0.0
  0
LINE
  5
581
330
1F
100
AcDbEntity
  8
0
100
AcDbLine
 10
9.100530573
 20
9.5696392208
 30
0.0
 11
9.0921615507
 21
9.571073178899997
 31
0.0
  0
LINE
  5
582
330
1F
100
AcDbEntity
  8
0
100
AcDbLine
 10
9.0921615507
 20
9.571073178899997
 30
0.0
 11
9.083240916299999
 21
9.572405937399999
 31
0.0
  0
LINE
  5
583
330
1F
100
AcDbEntity
  8
0
100
AcDbLine
 10
9.083240916299999
 20
9.572405937399999
 30
0.0
 11
9.0738102617
 21
9.5736312822
 31
0.0
  0
LINE
  5
584
330
1F
100
AcDbEntity
  8
0
100
AcDbLine
 10
9.0738102617
 20
9.5736312822
 30
0.0
 11
9.063913557200001
 21
9.5747435004
 31
0.0
  0
LINE
  5
585
330
1F
100
AcDbEntity
  8
0
100
AcDbLine
 10
9.063913557200001
 20
9.5747435004
 30
0.0
 11
9.0535969458
 21
9.5757374062
 31
0.0
  0
LINE
  5
586
330
1F
100
AcDbEntity
  8
0
100
AcDbLine
 10
9.0535969458
 20
9.5757374062
 30
0.0
 11
9.042908528099999
 21
9.5766083656
 31
0.0
  0
LINE
  5
587
330
1F
100
AcDbEntity
  8
0
100
AcDbLine
 10
9.042908528099999
 20
9.5766083656
 30
0.0
 11
9.0318981387
 21
9.577352317699999
 31
0.0
  0
LINE
  5
588
330
1F
100
AcDbEntity
  8
0
100
AcDbLine
 10
9.0318981387
 20
9.577352317699999
 30
0.0
 11
9.0206171129
 21
9.5779657939
 31
0.0
  0
LINE
  5
589
330
1F
100
AcDbEntity
  8
0
100
AcDbLine
 10
9.0206171129
 20
9.5779657939
 30
0.0
 11
9.009118048200001
 21
9.578445933899999
 31
0.0
  0
LINE
  5
58A
330
1F
100
AcDbEntity
  8
0
100
AcDbLine
 10
9.009118048200001
 20
9.578445933899999
 30
0.0
 11
8.997454558400001
 21
9.5787904991
 31
0.0
  0
LINE
  5
58B
330
1F
100
AcDbEntity
  8
0
100
AcDbLine
 10
8.997454558400001
 20
9.5787904991
 30
0.0
 11
8.985681024199998
 21
9.578997882899999
 31
0.0
  0
LINE
  5
58C
330
1F
100
AcDbEntity
  8
0
100
AcDbLine
 10
8.985681024199998
 20
9.578997882899999
 30
0.0
 11
8.973852339199998
 21
9.579067118499999
 31
0.0
  0
LINE
  5
58D
330
1F
100
AcDbEntity
  8
0
100
AcDbLine
 10
8.973852339199998
 20
9.579067118499999
 30
0.0
 11
8.962023654299997
 21
9.578997882899999
 31
0.0
  0
LINE
  5
58E
330
1F
100
AcDbEntity
  8
0
100
AcDbLine
 10
8.962023654299997
 20
9.578997882899999
 30
0.0
 11
8.950250120099997
 21
9.5787904991
 31
0.0
  0
LINE
  5
58F
330
1F
100
AcDbEntity
  8
0
100
AcDbLine
 10
8.950250120099997
 20
9.5787904991
 30
0.0
 11
8.938586630299997
 21
9.578445933899999
 31
0.0
  0
LINE
  5
590
330
1F
100
AcDbEntity
  8
0
100
AcDbLine
 10
8.938586630299997
 20
9.578445933899999
 30
0.0
 11
8.927087565599999
 21
9.5779657939
 31
0.0
  0
LINE
  5
591
330
1F
100
AcDbEntity
  8
0
100
AcDbLine
 10
8.927087565599999
 20
9.5779657939
 30
0.0
 11
8.9158065398
 21
9.577352317699999
 31
0.0
  0
LINE
  5
592
330
1F
100
AcDbEntity
  8
0
100
AcDbLine
 10
8.9158065398
 20
9.577352317699999
 30
0.0
 11
8.904796150299999
 21
9.5766083656
 31
0.0
  0
LINE
  5
593
330
1F
100
AcDbEntity
  8
0
100
AcDbLine
 10
8.904796150299999
 20
9.5766083656
 30
0.0
 11
8.8941077327
 21
9.5757374062
 31
0.0
  0
LINE
  5
594
330
1F
100
AcDbEntity
  8
0
100
AcDbLine
 10
8.8941077327
 20
9.5757374062
 30
0.0
 11
8.883791121199998
 21
9.5747435004
 31
0.0
  0
LINE
  5
595
330
1F
100
AcDbEntity
  8
0
100
AcDbLine
 10
8.883791121199998
 20
9.5747435004
 30
0.0
 11
8.873894416699998
 21
9.5736312822
 31
0.0
  0
LINE
  5
596
330
1F
100
AcDbEntity
  8
0
100
AcDbLine
 10
8.873894416699998
 20
9.5736312822
 30
0.0
 11
8.864463762199997
 21
9.572405937399999
 31
0.0
  0
LINE
  5
597
330
1F
100
AcDbEntity
  8
0
100
AcDbLine
 10
8.864463762199997
 20
9.572405937399999
 30
0.0
 11
8.855543127699998
 21
9.571073178899997
 31
0.0
  0
LINE
  5
598
330
1F
100
AcDbEntity
  8
0
100
AcDbLine
 10
8.855543127699998
 20
9.571073178899997
 30
0.0
 11
8.847174105399998
 21
9.5696392208
 31
0.0
  0
LINE
  5
599
330
1F
100
AcDbEntity
  8
0
100
AcDbLine
 10
8.847174105399998
 20
9.5696392208
 30
0.0
 11
8.8393957155
 21
9.5681107488
 31
0.0
  0
LINE
  5
59A
330
1F
100
AcDbEntity
  8
0
100
AcDbLine
 10
8.8393957155
 20
9.5681107488
 30
0.0
 11
8.8322442245
 21
9.566494889400001
 31
0.0
  0
LINE
  5
59B
330
1F
100
AcDbEntity
  8
0
100
AcDbLine
 10
8.8322442245
 20
9.566494889400001
 30
0.0
 11
8.8257529758
 21
9.564799176399999
 31
0.0
  0
LINE
  5
59C
330
1F
100
AcDbEntity
  8
0
100
AcDbLine
 10
8.8257529758
 20
9.564799176399999
 30
0.0
 11
8.8199522347
 21
9.5630315161
 31
0.0
  0
LINE
  5
59D
330
1F
100
AcDbEntity
  8
0
100
AcDbLine
 10
8.8199522347
 20
9.5630315161
 30
0.0
 11
8.814869047
 21
9.561200149999999
 31
0.0
  0
LINE
  5
59E
330
1F
100
AcDbEntity
  8
0
100
AcDbLine
 10
8.814869047
 20
9.561200149999999
 30
0.0
 11
8.8117330416
 21
9.559876906900001
 31
0.0
  0
LINE
  5
59F
330
1F
100
AcDbEntity
  8
0
100
AcDbLine
 10
8.973852339199998
 20
9.540686695299999
 30
0.0
 11
8.985681024199998
 21
9.540755930899999
 31
0.0
  0
LINE
  5
5A0
330
1F
100
AcDbEntity
  8
0
100
AcDbLine
 10
8.985681024199998
 20
9.540755930899999
 30
0.0
 11
8.997454558400001
 21
9.5409633147
 31
0.0
  0
LINE
  5
5A1
330
1F
100
AcDbEntity
  8
0
100
AcDbLine
 10
8.997454558400001
 20
9.5409633147
 30
0.0
 11
9.009118048200001
 21
9.541307879899999
 31
0.0
  0
LINE
  5
5A2
330
1F
100
AcDbEntity
  8
0
100
AcDbLine
 10
9.009118048200001
 20
9.541307879899999
 30
0.0
 11
9.0206171129
 21
9.5417880199
 31
0.0
  0
LINE
  5
5A3
330
1F
100
AcDbEntity
  8
0
100
AcDbLine
 10
9.0206171129
 20
9.5417880199
 30
0.0
 11
9.0318981387
 21
9.5424014961
 31
0.0
  0
LINE
  5
5A4
330
1F
100
AcDbEntity
  8
0
100
AcDbLine
 10
9.0318981387
 20
9.5424014961
 30
0.0
 11
9.042908528099999
 21
9.5431454482
 31
0.0
  0
LINE
  5
5A5
330
1F
100
AcDbEntity
  8
0
100
AcDbLine
 10
9.042908528099999
 20
9.5431454482
 30
0.0
 11
9.0535969458
 21
9.544016407599999
 31
0.0
  0
LINE
  5
5A6
330
1F
100
AcDbEntity
  8
0
100
AcDbLine
 10
9.0535969458
 20
9.544016407599999
 30
0.0
 11
9.063913557200001
 21
9.5450103134
 31
0.0
  0
LINE
  5
5A7
330
1F
100
AcDbEntity
  8
0
100
AcDbLine
 10
9.063913557200001
 20
9.5450103134
 30
0.0
 11
9.0738102617
 21
9.5461225315
 31
0.0
  0
LINE
  5
5A8
330
1F
100
AcDbEntity
  8
0
100
AcDbLine
 10
9.0738102617
 20
9.5461225315
 30
0.0
 11
9.083240916299999
 21
9.547347876399999
 31
0.0
  0
LINE
  5
5A9
330
1F
100
AcDbEntity
  8
0
100
AcDbLine
 10
9.083240916299999
 20
9.547347876399999
 30
0.0
 11
9.0921615507
 21
9.5486806349
 31
0.0
  0
LINE
  5
5AA
330
1F
100
AcDbEntity
  8
0
100
AcDbLine
 10
9.0921615507
 20
9.5486806349
 30
0.0
 11
9.100530573
 21
9.550114592999999
 31
0.0
  0
LINE
  5
5AB
330
1F
100
AcDbEntity
  8
0
100
AcDbLine
 10
9.100530573
 20
9.550114592999999
 30
0.0
 11
9.108308962999998
 21
9.551643065
 31
0.0
  0
LINE
  5
5AC
330
1F
100
AcDbEntity
  8
0
100
AcDbLine
 10
9.108308962999998
 20
9.551643065
 30
0.0
 11
9.115460453999999
 21
9.553258924399999
 31
0.0
  0
LINE
  5
5AD
330
1F
100
AcDbEntity
  8
0
100
AcDbLine
 10
9.115460453999999
 20
9.553258924399999
 30
0.0
 11
9.1219517027
 21
9.554954637399999
 31
0.0
  0
LINE
  5
5AE
330
1F
100
AcDbEntity
  8
0
100
AcDbLine
 10
9.1219517027
 20
9.554954637399999
 30
0.0
 11
9.1277524438
 21
9.5567222977
 31
0.0
  0
LINE
  5
5AF
330
1F
100
AcDbEntity
  8
0
100
AcDbLine
 10
9.1277524438
 20
9.5567222977
 30
0.0
 11
9.132835631499998
 21
9.558553663699999
 31
0.0
  0
LINE
  5
5B0
330
1F
100
AcDbEntity
  8
0
100
AcDbLine
 10
9.132835631499998
 20
9.558553663699999
 30
0.0
 11
9.1371775657
 21
9.5604401968
 31
0.0
  0
LINE
  5
5B1
330
1F
100
AcDbEntity
  8
0
100
AcDbLine
 10
9.1371775657
 20
9.5604401968
 30
0.0
 11
9.1407580024
 21
9.562373101
 31
0.0
  0
LINE
  5
5B2
330
1F
100
AcDbEntity
  8
0
100
AcDbLine
 10
9.1407580024
 20
9.562373101
 30
0.0
 11
9.143560247799999
 21
9.564343364299999
 31
0.0
  0
LINE
  5
5B3
330
1F
100
AcDbEntity
  8
0
100
AcDbLine
 10
9.143560247799999
 20
9.564343364299999
 30
0.0
 11
9.1455712366
 21
9.5663418003
 31
0.0
  0
LINE
  5
5B4
330
1F
100
AcDbEntity
  8
0
100
AcDbLine
 10
9.1455712366
 20
9.5663418003
 30
0.0
 11
9.1467815926
 21
9.568359091499999
 31
0.0
  0
LINE
  5
5B5
330
1F
100
AcDbEntity
  8
0
100
AcDbLine
 10
9.1467815926
 20
9.568359091499999
 30
0.0
 11
9.147185672599999
 21
9.570385832299999
 31
0.0
  0
LINE
  5
5B6
330
1F
100
AcDbEntity
  8
0
100
AcDbLine
 10
9.147185672599999
 20
9.570385832299999
 30
0.0
 11
9.1467815926
 21
9.572412573099999
 31
0.0
  0
LINE
  5
5B7
330
1F
100
AcDbEntity
  8
0
100
AcDbLine
 10
9.1467815926
 20
9.572412573099999
 30
0.0
 11
9.1455712366
 21
9.574429864199998
 31
0.0
  0
LINE
  5
5B8
330
1F
100
AcDbEntity
  8
0
100
AcDbLine
 10
9.1455712366
 20
9.574429864199998
 30
0.0
 11
9.143560247799999
 21
9.576428300299999
 31
0.0
  0
LINE
  5
5B9
330
1F
100
AcDbEntity
  8
0
100
AcDbLine
 10
9.143560247799999
 20
9.576428300299999
 30
0.0
 11
9.1407580024
 21
9.5783985635
 31
0.0
  0
LINE
  5
5BA
330
1F
100
AcDbEntity
  8
0
100
AcDbLine
 10
9.1407580024
 20
9.5783985635
 30
0.0
 11
9.1371775657
 21
9.5803314677
 31
0.0
  0
LINE
  5
5BB
330
1F
100
AcDbEntity
  8
0
100
AcDbLine
 10
9.1371775657
 20
9.5803314677
 30
0.0
 11
9.132835631499998
 21
9.582218000800001
 31
0.0
  0
LINE
  5
5BC
330
1F
100
AcDbEntity
  8
0
100
AcDbLine
 10
9.132835631499998
 20
9.582218000800001
 30
0.0
 11
9.1277524438
 21
9.584049366799998
 31
0.0
  0
LINE
  5
5BD
330
1F
100
AcDbEntity
  8
0
100
AcDbLine
 10
9.1277524438
 20
9.584049366799998
 30
0.0
 11
9.1219517027
 21
9.5858170272
 31
0.0
  0
LINE
  5
5BE
330
1F
100
AcDbEntity
  8
0
100
AcDbLine
 10
9.1219517027
 20
9.5858170272
 30
0.0
 11
9.115460453999999
 21
9.587512740099999
 31
0.0
  0
LINE
  5
5BF
330
1F
100
AcDbEntity
  8
0
100
AcDbLine
 10
9.115460453999999
 20
9.587512740099999
 30
0.0
 11
9.108308962999998
 21
9.5891285996
 31
0.0
  0
LINE
  5
5C0
330
1F
100
AcDbEntity
  8
0
100
AcDbLine
 10
9.108308962999998
 20
9.5891285996
 30
0.0
 11
9.100530573
 21
9.590657071599999
 31
0.0
  0
LINE
  5
5C1
330
1F
100
AcDbEntity
  8
0
100
AcDbLine
 10
9.100530573
 20
9.590657071599999
 30
0.0
 11
9.0921615507
 21
9.5920910297
 31
0.0
  0
LINE
  5
5C2
330
1F
100
AcDbEntity
  8
0
100
AcDbLine
 10
9.0921615507
 20
9.5920910297
 30
0.0
 11
9.083240916299999
 21
9.593423788099999
 31
0.0
  0
LINE
  5
5C3
330
1F
100
AcDbEntity
  8
0
100
AcDbLine
 10
9.083240916299999
 20
9.593423788099999
 30
0.0
 11
9.0738102617
 21
9.594649132999998
 31
0.0
  0
LINE
  5
5C4
330
1F
100
AcDbEntity
  8
0
100
AcDbLine
 10
9.0738102617
 20
9.594649132999998
 30
0.0
 11
9.063913557200001
 21
9.5957613512
 31
0.0
  0
LINE
  5
5C5
330
1F
100
AcDbEntity
  8
0
100
AcDbLine
 10
9.063913557200001
 20
9.5957613512
 30
0.0
 11
9.0535969458
 21
9.596755256999999
 31
0.0
  0
LINE
  5
5C6
330
1F
100
AcDbEntity
  8
0
100
AcDbLine
 10
9.0535969458
 20
9.596755256999999
 30
0.0
 11
9.042908528099999
 21
9.5976262163
 31
0.0
  0
LINE
  5
5C7
330
1F
100
AcDbEntity
  8
0
100
AcDbLine
 10
9.042908528099999
 20
9.5976262163
 30
0.0
 11
9.0318981387
 21
9.5983701684
 31
0.0
  0
LINE
  5
5C8
330
1F
100
AcDbEntity
  8
0
100
AcDbLine
 10
9.0318981387
 20
9.5983701684
 30
0.0
 11
9.0206171129
 21
9.5989836447
 31
0.0
  0
LINE
  5
5C9
330
1F
100
AcDbEntity
  8
0
100
AcDbLine
 10
9.0206171129
 20
9.5989836447
 30
0.0
 11
9.009118048200001
 21
9.599463784700001
 31
0.0
  0
LINE
  5
5CA
330
1F
100
AcDbEntity
  8
0
100
AcDbLine
 10
9.009118048200001
 20
9.599463784700001
 30
0.0
 11
8.997454558400001
 21
9.599808349899999
 31
0.0
  0
LINE
  5
5CB
330
1F
100
AcDbEntity
  8
0
100
AcDbLine
 10
8.997454558400001
 20
9.599808349899999
 30
0.0
 11
8.985681024199998
 21
9.600015733699999
 31
0.0
  0
LINE
  5
5CC
330
1F
100
AcDbEntity
  8
0
100
AcDbLine
 10
8.985681024199998
 20
9.600015733699999
 30
0.0
 11
8.973852339199998
 21
9.600084969199999
 31
0.0
  0
LINE
  5
5CD
330
1F
100
AcDbEntity
  8
0
100
AcDbLine
 10
8.973852339199998
 20
9.600084969199999
 30
0.0
 11
8.962023654299997
 21
9.600015733699999
 31
0.0
  0
LINE
  5
5CE
330
1F
100
AcDbEntity
  8
0
100
AcDbLine
 10
8.962023654299997
 20
9.600015733699999
 30
0.0
 11
8.950250120099997
 21
9.599808349899999
 31
0.0
  0
LINE
  5
5CF
330
1F
100
AcDbEntity
  8
0
100
AcDbLine
 10
8.950250120099997
 20
9.599808349899999
 30
0.0
 11
8.938586630299997
 21
9.599463784700001
 31
0.0
  0
LINE
  5
5D0
330
1F
100
AcDbEntity
  8
0
100
AcDbLine
 10
8.938586630299997
 20
9.599463784700001
 30
0.0
 11
8.927087565599999
 21
9.5989836447
 31
0.0
  0
LINE
  5
5D1
330
1F
100
AcDbEntity
  8
0
100
AcDbLine
 10
8.927087565599999
 20
9.5989836447
 30
0.0
 11
8.9158065398
 21
9.5983701684
 31
0.0
  0
LINE
  5
5D2
330
1F
100
AcDbEntity
  8
0
100
AcDbLine
 10
8.9158065398
 20
9.5983701684
 30
0.0
 11
8.904796150299999
 21
9.5976262163
 31
0.0
  0
LINE
  5
5D3
330
1F
100
AcDbEntity
  8
0
100
AcDbLine
 10
8.904796150299999
 20
9.5976262163
 30
0.0
 11
8.8941077327
 21
9.596755256999999
 31
0.0
  0
LINE
  5
5D4
330
1F
100
AcDbEntity
  8
0
100
AcDbLine
 10
8.8941077327
 20
9.596755256999999
 30
0.0
 11
8.883791121199998
 21
9.5957613512
 31
0.0
  0
LINE
  5
5D5
330
1F
100
AcDbEntity
  8
0
100
AcDbLine
 10
8.883791121199998
 20
9.5957613512
 30
0.0
 11
8.873894416699998
 21
9.594649132999998
 31
0.0
  0
LINE
  5
5D6
330
1F
100
AcDbEntity
  8
0
100
AcDbLine
 10
8.873894416699998
 20
9.594649132999998
 30
0.0
 11
8.864463762199997
 21
9.593423788099999
 31
0.0
  0
LINE
  5
5D7
330
1F
100
AcDbEntity
  8
0
100
AcDbLine
 10
8.864463762199997
 20
9.593423788099999
 30
0.0
 11
8.855543127699998
 21
9.5920910297
 31
0.0
  0
LINE
  5
5D8
330
1F
100
AcDbEntity
  8
0
100
AcDbLine
 10
8.855543127699998
 20
9.5920910297
 30
0.0
 11
8.847174105399998
 21
9.590657071599999
 31
0.0
  0
LINE
  5
5D9
330
1F
100
AcDbEntity
  8
0
100
AcDbLine
 10
8.847174105399998
 20
9.590657071599999
 30
0.0
 11
8.8393957155
 21
9.5891285996
 31
0.0
  0
LINE
  5
5DA
330
1F
100
AcDbEntity
  8
0
100
AcDbLine
 10
8.8393957155
 20
9.5891285996
 30
0.0
 11
8.8322442245
 21
9.587512740099999
 31
0.0
  0
LINE
  5
5DB
330
1F
100
AcDbEntity
  8
0
100
AcDbLine
 10
8.8322442245
 20
9.587512740099999
 30
0.0
 11
8.8257529758
 21
9.5858170272
 31
0.0
  0
LINE
  5
5DC
330
1F
100
AcDbEntity
  8
0
100
AcDbLine
 10
8.8257529758
 20
9.5858170272
 30
0.0
 11
8.8199522347
 21
9.584049366799998
 31
0.0
  0
LINE
  5
5DD
330
1F
100
AcDbEntity
  8
0
100
AcDbLine
 10
8.8199522347
 20
9.584049366799998
 30
0.0
 11
8.814869047
 21
9.582218000800001
 31
0.0
  0
LINE
  5
5DE
330
1F
100
AcDbEntity
  8
0
100
AcDbLine
 10
8.814869047
 20
9.582218000800001
 30
0.0
 11
8.810527112699999
 21
9.5803314677
 31
0.0
  0
LINE
  5
5DF
330
1F
100
AcDbEntity
  8
0
100
AcDbLine
 10
8.810527112699999
 20
9.5803314677
 30
0.0
 11
8.8069466761
 21
9.5783985635
 31
0.0
  0
LINE
  5
5E0
330
1F
100
AcDbEntity
  8
0
100
AcDbLine
 10
8.8069466761
 20
9.5783985635
 30
0.0
 11
8.8041444307
 21
9.576428300299999
 31
0.0
  0
LINE
  5
5E1
330
1F
100
AcDbEntity
  8
0
100
AcDbLine
 10
8.8041444307
 20
9.576428300299999
 30
0.0
 11
8.8021334419
 21
9.574429864199998
 31
0.0
  0
LINE
  5
5E2
330
1F
100
AcDbEntity
  8
0
100
AcDbLine
 10
8.8021334419
 20
9.574429864199998
 30
0.0
 11
8.8009230859
 21
9.572412573099999
 31
0.0
  0
LINE
  5
5E3
330
1F
100
AcDbEntity
  8
0
100
AcDbLine
 10
8.8009230859
 20
9.572412573099999
 30
0.0
 11
8.8005190059
 21
9.570385832299999
 31
0.0
  0
LINE
  5
5E4
330
1F
100
AcDbEntity
  8
0
100
AcDbLine
 10
8.8005190059
 20
9.570385832299999
 30
0.0
 11
8.8009230859
 21
9.568359091499999
 31
0.0
  0
LINE
  5
5E5
330
1F
100
AcDbEntity
  8
0
100
AcDbLine
 10
8.8009230859
 20
9.568359091499999
 30
0.0
 11
8.8021334419
 21
9.5663418003
 31
0.0
  0
LINE
  5
5E6
330
1F
100
AcDbEntity
  8
0
100
AcDbLine
 10
8.8021334419
 20
9.5663418003
 30
0.0
 11
8.8041444307
 21
9.564343364299999
 31
0.0
  0
LINE
  5
5E7
330
1F
100
AcDbEntity
  8
0
100
AcDbLine
 10
8.8041444307
 20
9.564343364299999
 30
0.0
 11
8.8069466761
 21
9.562373101
 31
0.0
  0
LINE
  5
5E8
330
1F
100
AcDbEntity
  8
0
100
AcDbLine
 10
8.8069466761
 20
9.562373101
 30
0.0
 11
8.810527112699999
 21
9.5604401968
 31
0.0
  0
LINE
  5
5E9
330
1F
100
AcDbEntity
  8
0
100
AcDbLine
 10
8.810527112699999
 20
9.5604401968
 30
0.0
 11
8.814869047
 21
9.558553663699999
 31
0.0
  0
LINE
  5
5EA
330
1F
100
AcDbEntity
  8
0
100
AcDbLine
 10
8.814869047
 20
9.558553663699999
 30
0.0
 11
8.8199522347
 21
9.5567222977
 31
0.0
  0
LINE
  5
5EB
330
1F
100
AcDbEntity
  8
0
100
AcDbLine
 10
8.8199522347
 20
9.5567222977
 30
0.0
 11
8.8257529758
 21
9.554954637399999
 31
0.0
  0
LINE
  5
5EC
330
1F
100
AcDbEntity
  8
0
100
AcDbLine
 10
8.8257529758
 20
9.554954637399999
 30
0.0
 11
8.8322442245
 21
9.553258924399999
 31
0.0
  0
LINE
  5
5ED
330
1F
100
AcDbEntity
  8
0
100
AcDbLine
 10
8.8322442245
 20
9.553258924399999
 30
0.0
 11
8.8393957155
 21
9.551643065
 31
0.0
  0
LINE
  5
5EE
330
1F
100
AcDbEntity
  8
0
100
AcDbLine
 10
8.8393957155
 20
9.551643065
 30
0.0
 11
8.847174105399998
 21
9.550114592999999
 31
0.0
  0
LINE
  5
5EF
330
1F
100
AcDbEntity
  8
0
100
AcDbLine
 10
8.847174105399998
 20
9.550114592999999
 30
0.0
 11
8.855543127699998
 21
9.5486806349
 31
0.0
  0
LINE
  5
5F0
330
1F
100
AcDbEntity
  8
0
100
AcDbLine
 10
8.855543127699998
 20
9.5486806349
 30
0.0
 11
8.864463762199997
 21
9.547347876399999
 31
0.0
  0
LINE
  5
5F1
330
1F
100
AcDbEntity
  8
0
100
AcDbLine
 10
8.864463762199997
 20
9.547347876399999
 30
0.0
 11
8.873894416699998
 21
9.5461225315
 31
0.0
  0
LINE
  5
5F2
330
1F
100
AcDbEntity
  8
0
100
AcDbLine
 10
8.873894416699998
 20
9.5461225315
 30
0.0
 11
8.883791121199998
 21
9.5450103134
 31
0.0
  0
LINE
  5
5F3
330
1F
100
AcDbEntity
  8
0
100
AcDbLine
 10
8.883791121199998
 20
9.5450103134
 30
0.0
 11
8.8941077327
 21
9.544016407599999
 31
0.0
  0
LINE
  5
5F4
330
1F
100
AcDbEntity
  8
0
100
AcDbLine
 10
8.8941077327
 20
9.544016407599999
 30
0.0
 11
8.904796150299999
 21
9.5431454482
 31
0.0
  0
LINE
  5
5F5
330
1F
100
AcDbEntity
  8
0
100
AcDbLine
 10
8.904796150299999
 20
9.5431454482
 30
0.0
 11
8.9158065398
 21
9.5424014961
 31
0.0
  0
LINE
  5
5F6
330
1F
100
AcDbEntity
  8
0
100
AcDbLine
 10
8.9158065398
 20
9.5424014961
 30
0.0
 11
8.927087565599999
 21
9.5417880199
 31
0.0
  0
LINE
  5
5F7
330
1F
100
AcDbEntity
  8
0
100
AcDbLine
 10
8.927087565599999
 20
9.5417880199
 30
0.0
 11
8.938586630299997
 21
9.541307879899999
 31
0.0
  0
LINE
  5
5F8
330
1F
100
AcDbEntity
  8
0
100
AcDbLine
 10
8.938586630299997
 20
9.541307879899999
 30
0.0
 11
8.950250120099997
 21
9.5409633147
 31
0.0
  0
LINE
  5
5F9
330
1F
100
AcDbEntity
  8
0
100
AcDbLine
 10
8.950250120099997
 20
9.5409633147
 30
0.0
 11
8.962023654299997
 21
9.540755930899999
 31
0.0
  0
LINE
  5
5FA
330
1F
100
AcDbEntity
  8
0
100
AcDbLine
 10
8.962023654299997
 20
9.540755930899999
 30
0.0
 11
8.973852339199998
 21
9.540686695299999
 31
0.0
  0
LINE
  5
5FB
330
1F
100
AcDbEntity
  8
0
100
AcDbLine
 10
14.3616286172
 20
5.014540514
 30
0.0
 11
14.3590151914
 21
5.0145402558
 31
0.0
  0
LINE
  5
5FC
330
1F
100
AcDbEntity
  8
0
100
AcDbLine
 10
14.3590151914
 20
5.0145402558
 30
0.0
 11
14.3485263705
 21
5.0145403035
 31
0.0
  0
LINE
  5
5FD
330
1F
100
AcDbEntity
  8
0
100
AcDbLine
 10
14.3485263705
 20
5.0145403035
 30
0.0
 11
14.3392354747
 21
5.014540348199998
 31
0.0
  0
LINE
  5
5FE
330
1F
100
AcDbEntity
  8
0
100
AcDbLine
 10
14.3392354747
 20
5.014540348199998
 30
0.0
 11
14.3312346498
 21
5.014540389399998
 31
0.0
  0
LINE
  5
5FF
330
1F
100
AcDbEntity
  8
0
100
AcDbLine
 10
14.3312346498
 20
5.014540389399998
 30
0.0
 11
14.3246160415
 21
5.014540427
 31
0.0
  0
LINE
  5
600
330
1F
100
AcDbEntity
  8
0
100
AcDbLine
 10
14.3246160415
 20
5.014540427
 30
0.0
 11
14.3194717957
 21
5.0145404606
 31
0.0
  0
LINE
  5
601
330
1F
100
AcDbEntity
  8
0
100
AcDbLine
 10
14.3194717957
 20
5.0145404606
 30
0.0
 11
14.3158940582
 21
5.014540489899999
 31
0.0
  0
LINE
  5
602
330
1F
100
AcDbEntity
  8
0
100
AcDbLine
 10
14.3158940582
 20
5.014540489899999
 30
0.0
 11
14.3139749748
 21
5.0145405146
 31
0.0
  0
LINE
  5
603
330
1F
100
AcDbEntity
  8
0
100
AcDbLine
 10
14.3139749748
 20
5.0145405146
 30
0.0
 11
14.3138066913
 21
5.0145405345
 31
0.0
  0
LINE
  5
604
330
1F
100
AcDbEntity
  8
0
100
AcDbLine
 10
14.3138066913
 20
5.0145405345
 30
0.0
 11
14.31548135359999
 21
5.0145405491
 31
0.0
  0
LINE
  5
605
330
1F
100
AcDbEntity
  8
0
100
AcDbLine
 10
14.31548135359999
 20
5.0145405491
 30
0.0
 11
14.3190911075
 21
5.0145405582
 31
0.0
  0
LINE
  5
606
330
1F
100
AcDbEntity
  8
0
100
AcDbLine
 10
14.3190911075
 20
5.0145405582
 30
0.0
 11
14.3247280987
 21
5.014540561499999
 31
0.0
  0
LINE
  5
607
330
1F
100
AcDbEntity
  8
0
100
AcDbLine
 10
14.3247280987
 20
5.014540561499999
 30
0.0
 11
14.3324844732
 21
5.0145405588
 31
0.0
  0
LINE
  5
608
330
1F
100
AcDbEntity
  8
0
100
AcDbLine
 10
14.3324844732
 20
5.0145405588
 30
0.0
 11
14.3402407926
 21
5.014540554299999
 31
0.0
  0
LINE
  5
609
330
1F
100
AcDbEntity
  8
0
100
AcDbLine
 10
14.3402407926
 20
5.014540554299999
 30
0.0
 11
14.3458776227
 21
5.014540552899998
 31
0.0
  0
LINE
  5
60A
330
1F
100
AcDbEntity
  8
0
100
AcDbLine
 10
14.3458776227
 20
5.014540552899998
 30
0.0
 11
14.3494871144
 21
5.014540554199999
 31
0.0
  0
LINE
  5
60B
330
1F
100
AcDbEntity
  8
0
100
AcDbLine
 10
14.3494871144
 20
5.014540554199999
 30
0.0
 11
14.3511614192
 21
5.0145405583
 31
0.0
  0
LINE
  5
60C
330
1F
100
AcDbEntity
  8
0
100
AcDbLine
 10
14.3511614192
 20
5.0145405583
 30
0.0
 11
14.3509926881
 21
5.014540564899998
 31
0.0
  0
LINE
  5
60D
330
1F
100
AcDbEntity
  8
0
100
AcDbLine
 10
14.3509926881
 20
5.014540564899998
 30
0.0
 11
14.3490730726
 21
5.014540573799998
 31
0.0
  0
LINE
  5
60E
330
1F
100
AcDbEntity
  8
0
100
AcDbLine
 10
14.3490730726
 20
5.014540573799998
 30
0.0
 11
14.34549472359998
 21
5.014540584999998
 31
0.0
  0
LINE
  5
60F
330
1F
100
AcDbEntity
  8
0
100
AcDbLine
 10
14.34549472359998
 20
5.014540584999998
 30
0.0
 11
14.34034979259999
 21
5.014540598299999
 31
0.0
  0
LINE
  5
610
330
1F
100
AcDbEntity
  8
0
100
AcDbLine
 10
14.34034979259999
 20
5.014540598299999
 30
0.0
 11
14.3337304307
 21
5.0145406136
 31
0.0
  0
LINE
  5
611
330
1F
100
AcDbEntity
  8
0
100
AcDbLine
 10
14.3337304307
 20
5.0145406136
 30
0.0
 11
14.3257287892
 21
5.0145406307
 31
0.0
  0
LINE
  5
612
330
1F
100
AcDbEntity
  8
0
100
AcDbLine
 10
14.3257287892
 20
5.0145406307
 30
0.0
 11
14.3164370193
 21
5.014540649399998
 31
0.0
  0
LINE
  5
613
330
1F
100
AcDbEntity
  8
0
100
AcDbLine
 10
14.3164370193
 20
5.014540649399998
 30
0.0
 11
14.3059472721
 21
5.0145406697
 31
0.0
  0
LINE
  5
614
330
1F
100
AcDbEntity
  8
0
100
AcDbLine
 10
14.3059472721
 20
5.0145406697
 30
0.0
 11
14.294351699
 21
5.014540691399999
 31
0.0
  0
LINE
  5
615
330
1F
100
AcDbEntity
  8
0
100
AcDbLine
 10
14.294351699
 20
5.014540691399999
 30
0.0
 11
14.2817424512
 21
5.014540714299998
 31
0.0
  0
LINE
  5
616
330
1F
100
AcDbEntity
  8
0
100
AcDbLine
 10
14.2817424512
 20
5.014540714299998
 30
0.0
 11
14.2682116799
 21
5.0145407383
 31
0.0
  0
LINE
  5
617
330
1F
100
AcDbEntity
  8
0
100
AcDbLine
 10
14.2682116799
 20
5.0145407383
 30
0.0
 11
14.25385153619998
 21
5.0145407632
 31
0.0
  0
LINE
  5
618
330
1F
100
AcDbEntity
  8
0
100
AcDbLine
 10
14.25385153619998
 20
5.0145407632
 30
0.0
 11
14.2387541716
 21
5.014540788999998
 31
0.0
  0
LINE
  5
619
330
1F
100
AcDbEntity
  8
0
100
AcDbLine
 10
14.2387541716
 20
5.014540788999998
 30
0.0
 11
14.2230117371
 21
5.0145408155
 31
0.0
  0
LINE
  5
61A
330
1F
100
AcDbEntity
  8
0
100
AcDbLine
 10
14.2230117371
 20
5.0145408155
 30
0.0
 11
14.206716384
 21
5.014540842499998
 31
0.0
  0
LINE
  5
61B
330
1F
100
AcDbEntity
  8
0
100
AcDbLine
 10
14.206716384
 20
5.014540842499998
 30
0.0
 11
14.1899602635
 21
5.0145408698
 31
0.0
  0
LINE
  5
61C
330
1F
100
AcDbEntity
  8
0
100
AcDbLine
 10
14.1899602635
 20
5.0145408698
 30
0.0
 11
14.1728355269
 21
5.014540897399998
 31
0.0
  0
LINE
  5
61D
330
1F
100
AcDbEntity
  8
0
100
AcDbLine
 10
14.1728355269
 20
5.014540897399998
 30
0.0
 11
14.15543432539998
 21
5.014540925099999
 31
0.0
  0
LINE
  5
61E
330
1F
100
AcDbEntity
  8
0
100
AcDbLine
 10
14.15543432539998
 20
5.014540925099999
 30
0.0
 11
14.13784881019999
 21
5.0145409528
 31
0.0
  0
LINE
  5
61F
330
1F
100
AcDbEntity
  8
0
100
AcDbLine
 10
14.13784881019999
 20
5.0145409528
 30
0.0
 11
14.1201711326
 21
5.014540980199999
 31
0.0
  0
LINE
  5
620
330
1F
100
AcDbEntity
  8
0
100
AcDbLine
 10
14.1201711326
 20
5.014540980199999
 30
0.0
 11
14.10249344369999
 21
5.0145410073
 31
0.0
  0
LINE
  5
621
330
1F
100
AcDbEntity
  8
0
100
AcDbLine
 10
14.10249344369999
 20
5.0145410073
 30
0.0
 11
13.9634009827
 21
5.010827019499998
 31
0.0
  0
LINE
  5
622
330
1F
100
AcDbEntity
  8
0
100
AcDbLine
 10
10.97061451479999
 20
10.0326208007
 30
0.0
 11
10.98069762329999
 21
10.0043349275
 31
0.0
  0
LINE
  5
623
330
1F
100
AcDbEntity
  8
0
100
AcDbLine
 10
10.98069762329999
 20
10.0043349275
 30
0.0
 11
10.99351093729999
 21
9.976077625
 31
0.0
  0
LINE
  5
624
330
1F
100
AcDbEntity
  8
0
100
AcDbLine
 10
10.99351093729999
 20
9.976077625
 30
0.0
 11
11.00904900009999
 21
9.947860482399999
 31
0.0
  0
LINE
  5
625
330
1F
100
AcDbEntity
  8
0
100
AcDbLine
 10
11.00904900009999
 20
9.947860482399999
 30
0.0
 11
11.0273063549
 21
9.919695088799999
 31
0.0
  0
LINE
  5
626
330
1F
100
AcDbEntity
  8
0
100
AcDbLine
 10
11.0273063549
 20
9.919695088799999
 30
0.0
 11
11.0483803947
 21
9.8914614805
 31
0.0
  0
LINE
  5
627
330
1F
100
AcDbEntity
  8
0
100
AcDbLine
 10
11.0483803947
 20
9.8914614805
 30
0.0
 11
11.0721921335
 21
9.8632878633
 31
0.0
  0
LINE
  5
628
330
1F
100
AcDbEntity
  8
0
100
AcDbLine
 10
11.0721921335
 20
9.8632878633
 30
0.0
 11
11.09873103209999
 21
9.835185879299999
 31
0.0
  0
LINE
  5
629
330
1F
100
AcDbEntity
  8
0
100
AcDbLine
 10
11.09873103209999
 20
9.835185879299999
 30
0.0
 11
11.12798655119998
 21
9.807167170899999
 31
0.0
  0
LINE
  5
62A
330
1F
100
AcDbEntity
  8
0
100
AcDbLine
 10
11.12798655119998
 20
9.807167170899999
 30
0.0
 11
11.16153987589999
 21
9.7779130771
 31
0.0
  0
LINE
  5
62B
330
1F
100
AcDbEntity
  8
0
100
AcDbLine
 10
11.16153987589999
 20
9.7779130771
 30
0.0
 11
11.1980644906
 21
9.7487590325
 31
0.0
  0
LINE
  5
62C
330
1F
100
AcDbEntity
  8
0
100
AcDbLine
 10
11.1980644906
 20
9.7487590325
 30
0.0
 11
11.2375430499
 21
9.719718246499999
 31
0.0
  0
LINE
  5
62D
330
1F
100
AcDbEntity
  8
0
100
AcDbLine
 10
11.2375430499
 20
9.719718246499999
 30
0.0
 11
11.2799582079
 21
9.690803928499999
 31
0.0
  0
LINE
  5
62E
330
1F
100
AcDbEntity
  8
0
100
AcDbLine
 10
11.2799582079
 20
9.690803928499999
 30
0.0
 11
11.32553402069998
 21
9.661880233399999
 31
0.0
  0
LINE
  5
62F
330
1F
100
AcDbEntity
  8
0
100
AcDbLine
 10
11.32553402069998
 20
9.661880233399999
 30
0.0
 11
11.3740620261
 21
9.633093105499998
 31
0.0
  0
LINE
  5
630
330
1F
100
AcDbEntity
  8
0
100
AcDbLine
 10
11.3740620261
 20
9.633093105499998
 30
0.0
 11
11.42551911209999
 21
9.604455701
 31
0.0
  0
LINE
  5
631
330
1F
100
AcDbEntity
  8
0
100
AcDbLine
 10
11.42551911209999
 20
9.604455701
 30
0.0
 11
11.4798821667
 21
9.5759811757
 31
0.0
  0
LINE
  5
632
330
1F
100
AcDbEntity
  8
0
100
AcDbLine
 10
11.4798821667
 20
9.5759811757
 30
0.0
 11
11.49394950869998
 21
9.5695613495
 31
0.0
  0
LINE
  5
633
330
1F
100
AcDbEntity
  8
0
100
AcDbLine
 10
11.49394950869998
 20
9.5695613495
 30
0.0
 11
11.5105716539
 21
9.5632976249
 31
0.0
  0
LINE
  5
634
330
1F
100
AcDbEntity
  8
0
100
AcDbLine
 10
11.5105716539
 20
9.5632976249
 30
0.0
 11
11.529619872
 21
9.557231074299998
 31
0.0
  0
LINE
  5
635
330
1F
100
AcDbEntity
  8
0
100
AcDbLine
 10
11.529619872
 20
9.557231074299998
 30
0.0
 11
11.550965433
 21
9.551402770199999
 31
0.0
  0
LINE
  5
636
330
1F
100
AcDbEntity
  8
0
100
AcDbLine
 10
11.550965433
 20
9.551402770199999
 30
0.0
 11
11.5744796065
 21
9.545853785
 31
0.0
  0
LINE
  5
637
330
1F
100
AcDbEntity
  8
0
100
AcDbLine
 10
11.5744796065
 20
9.545853785
 30
0.0
 11
11.60015645099998
 21
9.540593755099999
 31
0.0
  0
LINE
  5
638
330
1F
100
AcDbEntity
  8
0
100
AcDbLine
 10
11.60015645099998
 20
9.540593755099999
 30
0.0
 11
11.6279421978
 21
9.535625882099999
 31
0.0
  0
LINE
  5
639
330
1F
100
AcDbEntity
  8
0
100
AcDbLine
 10
11.6279421978
 20
9.535625882099999
 30
0.0
 11
11.6576361505
 21
9.530981636599999
 31
0.0
  0
LINE
  5
63A
330
1F
100
AcDbEntity
  8
0
100
AcDbLine
 10
11.6576361505
 20
9.530981636599999
 30
0.0
 11
11.68903761229999
 21
9.5266924894
 31
0.0
  0
LINE
  5
63B
330
1F
100
AcDbEntity
  8
0
100
AcDbLine
 10
11.68903761229999
 20
9.5266924894
 30
0.0
 11
11.7219458867
 21
9.522789911
 31
0.0
  0
LINE
  5
63C
330
1F
100
AcDbEntity
  8
0
100
AcDbLine
 10
11.7219458867
 20
9.522789911
 30
0.0
 11
11.7522537219
 21
9.519667199
 31
0.0
  0
LINE
  5
63D
330
1F
100
AcDbEntity
  8
0
100
AcDbLine
 10
11.7522537219
 20
9.519667199
 30
0.0
 11
11.7835904191
 21
9.5168584182
 31
0.0
  0
LINE
  5
644
330
1F
100
AcDbEntity
  8
0
100
AcDbLine
 10
3.485373914499998
 20
12.7690423736
 30
0.0
 11
3.502985471399998
 21
12.8229758791
 31
0.0
  0
LINE
  5
645
330
1F
100
AcDbEntity
  8
0
100
AcDbLine
 10
3.502985471399998
 20
12.8229758791
 30
0.0
 11
3.5228250925
 21
12.8762385151
 31
0.0
  0
LINE
  5
646
330
1F
100
AcDbEntity
  8
0
100
AcDbLine
 10
3.5228250925
 20
12.8762385151
 30
0.0
 11
3.5448570354
 21
12.9286837873
 31
0.0
  0
LINE
  5
647
330
1F
100
AcDbEntity
  8
0
100
AcDbLine
 10
3.5448570354
 20
12.9286837873
 30
0.0
 11
3.569045557599998
 21
12.9801652019
 31
0.0
  0
LINE
  5
648
330
1F
100
AcDbEntity
  8
0
100
AcDbLine
 10
3.569045557599998
 20
12.9801652019
 30
0.0
 11
3.5953549167
 21
13.0305362646
 31
0.0
  0
LINE
  5
649
330
1F
100
AcDbEntity
  8
0
100
AcDbLine
 10
3.5953549167
 20
13.0305362646
 30
0.0
 11
3.6237493701
 21
13.0796504815
 31
0.0
  0
LINE
  5
64A
330
1F
100
AcDbEntity
  8
0
100
AcDbLine
 10
3.6237493701
 20
13.0796504815
 30
0.0
 11
3.654162508899998
 21
13.127331652
 31
0.0
  0
LINE
  5
64B
330
1F
100
AcDbEntity
  8
0
100
AcDbLine
 10
3.654162508899998
 20
13.127331652
 30
0.0
 11
3.686684974299998
 21
13.1737043327
 31
0.0
  0
LINE
  5
64C
330
1F
100
AcDbEntity
  8
0
100
AcDbLine
 10
3.686684974299998
 20
13.1737043327
 30
0.0
 11
3.721238623
 21
13.21861558619999
 31
0.0
  0
LINE
  5
64D
330
1F
100
AcDbEntity
  8
0
100
AcDbLine
 10
3.721238623
 20
13.21861558619999
 30
0.0
 11
3.757745312099998
 21
13.2619124746
 31
0.0
  0
LINE
  5
64E
330
1F
100
AcDbEntity
  8
0
100
AcDbLine
 10
3.757745312099998
 20
13.2619124746
 30
0.0
 11
3.796126898299998
 21
13.3034420604
 31
0.0
  0
LINE
  5
64F
330
1F
100
AcDbEntity
  8
0
100
AcDbLine
 10
3.796126898299998
 20
13.3034420604
 30
0.0
 11
3.847008227399998
 21
13.35474847049999
 31
0.0
  0
LINE
  5
650
330
1F
100
AcDbEntity
  8
0
100
AcDbLine
 10
3.847008227399998
 20
13.35474847049999
 30
0.0
 11
3.898352926299999
 21
13.4055982342
 31
0.0
  0
LINE
  5
651
330
1F
100
AcDbEntity
  8
0
100
AcDbLine
 10
3.898352926299999
 20
13.4055982342
 30
0.0
 11
3.9949439007
 21
13.5017436803
 31
0.0
  0
LINE
  5
652
330
1F
100
AcDbEntity
  8
0
100
AcDbLine
 10
3.9949439007
 20
13.5017436803
 30
0.0
 11
4.205943943299998
 21
13.71151104089999
 31
0.0
  0
LINE
  5
653
330
1F
100
AcDbEntity
  8
0
100
AcDbLine
 10
4.205943943299998
 20
13.71151104089999
 30
0.0
 11
4.5608016198
 21
14.06298142369998
 31
0.0
  0
LINE
  5
654
330
1F
100
AcDbEntity
  8
0
100
AcDbLine
 10
4.5608016198
 20
14.06298142369998
 30
0.0
 11
4.775499038799998
 21
14.27449630829999
 31
0.0
  0
LINE
  5
655
330
1F
100
AcDbEntity
  8
0
100
AcDbLine
 10
4.775499038799998
 20
14.27449630829999
 30
0.0
 11
4.9902732586
 21
14.48593333599998
 31
0.0
  0
LINE
  5
656
330
1F
100
AcDbEntity
  8
0
100
AcDbLine
 10
4.9902732586
 20
14.48593333599998
 30
0.0
 11
5.2047411861
 21
14.6976818108
 31
0.0
  0
LINE
  5
657
330
1F
100
AcDbEntity
  8
0
100
AcDbLine
 10
5.2047411861
 20
14.6976818108
 30
0.0
 11
5.418760293099999
 21
14.9098837188
 31
0.0
  0
LINE
  5
658
330
1F
100
AcDbEntity
  8
0
100
AcDbLine
 10
5.418760293099999
 20
14.9098837188
 30
0.0
 11
5.7382333147
 21
15.22887054949999
 31
0.0
  0
LINE
  5
659
330
1F
100
AcDbEntity
  8
0
100
AcDbLine
 10
5.7382333147
 20
15.22887054949999
 30
0.0
 11
6.0565523958
 21
15.5490119828
 31
0.0
  0
LINE
  5
65A
330
1F
100
AcDbEntity
  8
0
100
AcDbLine
 10
6.0565523958
 20
15.5490119828
 30
0.0
 11
6.374121805199998
 21
15.8699005466
 31
0.0
  0
LINE
  5
65B
330
1F
100
AcDbEntity
  8
0
100
AcDbLine
 10
6.374121805199998
 20
15.8699005466
 30
0.0
 11
6.691345811699999
 21
16.1911287691
 31
0.0
  0
LINE
  5
65C
330
1F
100
AcDbEntity
  8
0
100
AcDbLine
 10
6.691345811699999
 20
16.1911287691
 30
0.0
 11
6.9077821649
 21
16.4099565462
 31
0.0
  0
LINE
  5
65D
330
1F
100
AcDbEntity
  8
0
100
AcDbLine
 10
6.9077821649
 20
16.4099565462
 30
0.0
 11
7.124568680299998
 21
16.6284373989
 31
0.0
  0
LINE
  5
65E
330
1F
100
AcDbEntity
  8
0
100
AcDbLine
 10
7.124568680299998
 20
16.6284373989
 30
0.0
 11
7.1685626569
 21
16.6717177899
 31
0.0
  0
LINE
  5
65F
330
1F
100
AcDbEntity
  8
0
100
AcDbLine
 10
7.1685626569
 20
16.6717177899
 30
0.0
 11
7.213601216499998
 21
16.7139650022
 31
0.0
  0
LINE
  5
660
330
1F
100
AcDbEntity
  8
0
100
AcDbLine
 10
7.213601216499998
 20
16.7139650022
 30
0.0
 11
7.2597352395
 21
16.7550145003
 31
0.0
  0
LINE
  5
661
330
1F
100
AcDbEntity
  8
0
100
AcDbLine
 10
7.2597352395
 20
16.7550145003
 30
0.0
 11
7.307015606499998
 21
16.79470174859999
 31
0.0
  0
LINE
  5
662
330
1F
100
AcDbEntity
  8
0
100
AcDbLine
 10
7.307015606499998
 20
16.79470174859999
 30
0.0
 11
7.355493197899999
 21
16.8328622115
 31
0.0
  0
LINE
  5
663
330
1F
100
AcDbEntity
  8
0
100
AcDbLine
 10
7.355493197899999
 20
16.8328622115
 30
0.0
 11
7.4191060974
 21
16.87939819569999
 31
0.0
  0
LINE
  5
664
330
1F
100
AcDbEntity
  8
0
100
AcDbLine
 10
7.4191060974
 20
16.87939819569999
 30
0.0
 11
7.484438569099998
 21
16.923581552
 31
0.0
  0
LINE
  5
665
330
1F
100
AcDbEntity
  8
0
100
AcDbLine
 10
7.484438569099998
 20
16.923581552
 30
0.0
 11
7.5513385197
 21
16.96535728619998
 31
0.0
  0
LINE
  5
666
330
1F
100
AcDbEntity
  8
0
100
AcDbLine
 10
7.5513385197
 20
16.96535728619998
 30
0.0
 11
7.6196538559
 21
17.0046704038
 31
0.0
  0
LINE
  5
667
330
1F
100
AcDbEntity
  8
0
100
AcDbLine
 10
7.6196538559
 20
17.0046704038
 30
0.0
 11
7.6907082634
 21
17.0422272402
 31
0.0
  0
LINE
  5
668
330
1F
100
AcDbEntity
  8
0
100
AcDbLine
 10
7.6907082634
 20
17.0422272402
 30
0.0
 11
7.763121727
 21
17.0772589978
 31
0.0
  0
LINE
  5
669
330
1F
100
AcDbEntity
  8
0
100
AcDbLine
 10
7.763121727
 20
17.0772589978
 30
0.0
 11
7.836745302899999
 21
17.1097378415
 31
0.0
  0
LINE
  5
66A
330
1F
100
AcDbEntity
  8
0
100
AcDbLine
 10
7.836745302899999
 20
17.1097378415
 30
0.0
 11
7.9114300473
 21
17.13963593619999
 31
0.0
  0
LINE
  5
66B
330
1F
100
AcDbEntity
  8
0
100
AcDbLine
 10
7.9114300473
 20
17.13963593619999
 30
0.0
 11
7.987027016399999
 21
17.1669254467
 31
0.0
  0
LINE
  5
66C
330
1F
100
AcDbEntity
  8
0
100
AcDbLine
 10
7.987027016399999
 20
17.1669254467
 30
0.0
 11
8.0659015394
 21
17.1923471554
 31
0.0
  0
LINE
  5
66D
330
1F
100
AcDbEntity
  8
0
100
AcDbLine
 10
8.0659015394
 20
17.1923471554
 30
0.0
 11
8.1456822777
 21
17.2150299931
 31
0.0
  0
LINE
  5
66E
330
1F
100
AcDbEntity
  8
0
100
AcDbLine
 10
8.1456822777
 20
17.2150299931
 30
0.0
 11
8.2262217501
 21
17.2349571466
 31
0.0
  0
LINE
  5
66F
330
1F
100
AcDbEntity
  8
0
100
AcDbLine
 10
8.2262217501
 20
17.2349571466
 30
0.0
 11
8.307372475499999
 21
17.25211180279999
 31
0.0
  0
LINE
  5
670
330
1F
100
AcDbEntity
  8
0
100
AcDbLine
 10
8.307372475499999
 20
17.25211180279999
 30
0.0
 11
8.388986972599997
 21
17.2664771486
 31
0.0
  0
LINE
  5
671
330
1F
100
AcDbEntity
  8
0
100
AcDbLine
 10
3.4921831668
 20
11.6020083518
 30
0.0
 11
3.478356897599998
 21
11.64927857609999
 31
0.0
  0
LINE
  5
672
330
1F
100
AcDbEntity
  8
0
100
AcDbLine
 10
3.478356897599998
 20
11.64927857609999
 30
0.0
 11
3.465609410699998
 21
11.6968514316
 31
0.0
  0
LINE
  5
673
330
1F
100
AcDbEntity
  8
0
100
AcDbLine
 10
3.465609410699998
 20
11.6968514316
 30
0.0
 11
3.4539403907
 21
11.7448084425
 31
0.0
  0
LINE
  5
674
330
1F
100
AcDbEntity
  8
0
100
AcDbLine
 10
3.4539403907
 20
11.7448084425
 30
0.0
 11
3.4433957063
 21
11.79302550739999
 31
0.0
  0
LINE
  5
675
330
1F
100
AcDbEntity
  8
0
100
AcDbLine
 10
3.4433957063
 20
11.79302550739999
 30
0.0
 11
3.430719688399998
 21
11.85994983589998
 31
0.0
  0
LINE
  5
676
330
1F
100
AcDbEntity
  8
0
100
AcDbLine
 10
3.430719688399998
 20
11.85994983589998
 30
0.0
 11
3.420239965899998
 21
11.92729139529999
 31
0.0
  0
LINE
  5
677
330
1F
100
AcDbEntity
  8
0
100
AcDbLine
 10
3.420239965899998
 20
11.92729139529999
 30
0.0
 11
3.4119924724
 21
11.994941912
 31
0.0
  0
LINE
  5
678
330
1F
100
AcDbEntity
  8
0
100
AcDbLine
 10
3.4119924724
 20
11.994941912
 30
0.0
 11
3.406013141499998
 21
12.0627931125
 31
0.0
  0
LINE
  5
679
330
1F
100
AcDbEntity
  8
0
100
AcDbLine
 10
3.406013141499998
 20
12.0627931125
 30
0.0
 11
3.4022921063
 21
12.1320888346
 31
0.0
  0
LINE
  5
67A
330
1F
100
AcDbEntity
  8
0
100
AcDbLine
 10
3.4022921063
 20
12.1320888346
 30
0.0
 11
3.400994388199998
 21
12.20151560829999
 31
0.0
  0
LINE
  5
67B
330
1F
100
AcDbEntity
  8
0
100
AcDbLine
 10
3.400994388199998
 20
12.20151560829999
 30
0.0
 11
3.402146824799998
 21
12.2709432124
 31
0.0
  0
LINE
  5
67C
330
1F
100
AcDbEntity
  8
0
100
AcDbLine
 10
3.402146824799998
 20
12.2709432124
 30
0.0
 11
3.405776253999998
 21
12.3402414252
 31
0.0
  0
LINE
  5
67D
330
1F
100
AcDbEntity
  8
0
100
AcDbLine
 10
3.405776253999998
 20
12.3402414252
 30
0.0
 11
3.412234754599998
 21
12.41231705069999
 31
0.0
  0
LINE
  5
67E
330
1F
100
AcDbEntity
  8
0
100
AcDbLine
 10
3.412234754599998
 20
12.41231705069999
 30
0.0
 11
3.421407676299998
 21
12.4841235167
 31
0.0
  0
LINE
  5
67F
330
1F
100
AcDbEntity
  8
0
100
AcDbLine
 10
3.421407676299998
 20
12.4841235167
 30
0.0
 11
3.4332499055
 21
12.5555122534
 31
0.0
  0
LINE
  5
680
330
1F
100
AcDbEntity
  8
0
100
AcDbLine
 10
3.4332499055
 20
12.5555122534
 30
0.0
 11
3.447952307699998
 21
12.6273150218
 31
0.0
  0
LINE
  5
681
330
1F
100
AcDbEntity
  8
0
100
AcDbLine
 10
3.447952307699998
 20
12.6273150218
 30
0.0
 11
3.4653504085
 21
12.698538817
 31
0.0
  0
LINE
  5
682
330
1F
100
AcDbEntity
  8
0
100
AcDbLine
 10
3.4653504085
 20
12.698538817
 30
0.0
 11
3.485373914499998
 21
12.7690423736
 31
0.0
  0
LINE
  5
683
330
1F
100
AcDbEntity
  8
0
100
AcDbLine
 10
3.7997225902
 20
11.06424604289999
 30
0.0
 11
3.767313305199998
 21
11.09994866869999
 31
0.0
  0
LINE
  5
684
330
1F
100
AcDbEntity
  8
0
100
AcDbLine
 10
3.767313305199998
 20
11.09994866869999
 30
0.0
 11
3.7362612897
 21
11.13686042829999
 31
0.0
  0
LINE
  5
685
330
1F
100
AcDbEntity
  8
0
100
AcDbLine
 10
3.7362612897
 20
11.13686042829999
 30
0.0
 11
3.7066269956
 21
11.17489818849999
 31
0.0
  0
LINE
  5
686
330
1F
100
AcDbEntity
  8
0
100
AcDbLine
 10
3.7066269956
 20
11.17489818849999
 30
0.0
 11
3.678083668299998
 21
11.2145254656
 31
0.0
  0
LINE
  5
687
330
1F
100
AcDbEntity
  8
0
100
AcDbLine
 10
3.678083668299998
 20
11.2145254656
 30
0.0
 11
3.6510309142
 21
11.255205558
 31
0.0
  0
LINE
  5
688
330
1F
100
AcDbEntity
  8
0
100
AcDbLine
 10
3.6510309142
 20
11.255205558
 30
0.0
 11
3.6255050242
 21
11.2968412033
 31
0.0
  0
LINE
  5
689
330
1F
100
AcDbEntity
  8
0
100
AcDbLine
 10
3.6255050242
 20
11.2968412033
 30
0.0
 11
3.598485097799998
 21
11.34500865809999
 31
0.0
  0
LINE
  5
68A
330
1F
100
AcDbEntity
  8
0
100
AcDbLine
 10
3.598485097799998
 20
11.34500865809999
 30
0.0
 11
3.573417307799998
 21
11.3942457039
 31
0.0
  0
LINE
  5
68B
330
1F
100
AcDbEntity
  8
0
100
AcDbLine
 10
3.573417307799998
 20
11.3942457039
 30
0.0
 11
3.550323453299998
 21
11.4444151517
 31
0.0
  0
LINE
  5
68C
330
1F
100
AcDbEntity
  8
0
100
AcDbLine
 10
3.550323453299998
 20
11.4444151517
 30
0.0
 11
3.5289152129
 21
11.4961753836
 31
0.0
  0
LINE
  5
68D
330
1F
100
AcDbEntity
  8
0
100
AcDbLine
 10
3.5289152129
 20
11.4961753836
 30
0.0
 11
3.5095299008
 21
11.5487491889
 31
0.0
  0
LINE
  5
68E
330
1F
100
AcDbEntity
  8
0
100
AcDbLine
 10
3.5095299008
 20
11.5487491889
 30
0.0
 11
3.4921831668
 21
11.6020083518
 31
0.0
  0
LINE
  5
68F
330
1F
100
AcDbEntity
  8
0
100
AcDbLine
 10
9.558717705800001
 20
17.2664771486
 30
0.0
 11
9.6315542107
 21
17.2537987959
 31
0.0
  0
LINE
  5
690
330
1F
100
AcDbEntity
  8
0
100
AcDbLine
 10
9.6315542107
 20
17.2537987959
 30
0.0
 11
9.704006830499999
 21
17.23890837449999
 31
0.0
  0
LINE
  5
691
330
1F
100
AcDbEntity
  8
0
100
AcDbLine
 10
9.704006830499999
 20
17.23890837449999
 30
0.0
 11
9.7759712177
 21
17.2218137457
 31
0.0
  0
LINE
  5
692
330
1F
100
AcDbEntity
  8
0
100
AcDbLine
 10
9.7759712177
 20
17.2218137457
 30
0.0
 11
9.8473430248
 21
17.2025227711
 31
0.0
  0
LINE
  5
693
330
1F
100
AcDbEntity
  8
0
100
AcDbLine
 10
9.8473430248
 20
17.2025227711
 30
0.0
 11
9.919186188200001
 21
17.1806765146
 31
0.0
  0
LINE
  5
694
330
1F
100
AcDbEntity
  8
0
100
AcDbLine
 10
9.919186188200001
 20
17.1806765146
 30
0.0
 11
9.9903401101
 21
17.1565593755
 31
0.0
  0
LINE
  5
695
330
1F
100
AcDbEntity
  8
0
100
AcDbLine
 10
9.9903401101
 20
17.1565593755
 30
0.0
 11
10.06068978799999
 21
17.13018971529999
 31
0.0
  0
LINE
  5
696
330
1F
100
AcDbEntity
  8
0
100
AcDbLine
 10
10.06068978799999
 20
17.13018971529999
 30
0.0
 11
10.1301202195
 21
17.1015858953
 31
0.0
  0
LINE
  5
697
330
1F
100
AcDbEntity
  8
0
100
AcDbLine
 10
10.1301202195
 20
17.1015858953
 30
0.0
 11
10.20062815009999
 21
17.06977254979999
 31
0.0
  0
LINE
  5
698
330
1F
100
AcDbEntity
  8
0
100
AcDbLine
 10
10.20062815009999
 20
17.06977254979999
 30
0.0
 11
10.27005762029999
 21
17.03556516869999
 31
0.0
  0
LINE
  5
699
330
1F
100
AcDbEntity
  8
0
100
AcDbLine
 10
10.27005762029999
 20
17.03556516869999
 30
0.0
 11
10.338269446
 21
16.9989936564
 31
0.0
  0
LINE
  5
69A
330
1F
100
AcDbEntity
  8
0
100
AcDbLine
 10
10.338269446
 20
16.9989936564
 30
0.0
 11
10.405124443
 21
16.9600879171
 31
0.0
  0
LINE
  5
69B
330
1F
100
AcDbEntity
  8
0
100
AcDbLine
 10
10.405124443
 20
16.9600879171
 30
0.0
 11
10.4713800391
 21
16.9182963332
 31
0.0
  0
LINE
  5
69C
330
1F
100
AcDbEntity
  8
0
100
AcDbLine
 10
10.4713800391
 20
16.9182963332
 30
0.0
 11
10.5360727898
 21
16.87412398859999
 31
0.0
  0
LINE
  5
69D
330
1F
100
AcDbEntity
  8
0
100
AcDbLine
 10
10.5360727898
 20
16.87412398859999
 30
0.0
 11
10.5976203544
 21
16.8287332043
 31
0.0
  0
LINE
  5
69E
330
1F
100
AcDbEntity
  8
0
100
AcDbLine
 10
10.5976203544
 20
16.8287332043
 30
0.0
 11
10.6574857859
 21
16.7811457355
 31
0.0
  0
LINE
  5
69F
330
1F
100
AcDbEntity
  8
0
100
AcDbLine
 10
10.6574857859
 20
16.7811457355
 30
0.0
 11
10.7083075922
 21
16.73748181619998
 31
0.0
  0
LINE
  5
6A0
330
1F
100
AcDbEntity
  8
0
100
AcDbLine
 10
10.7083075922
 20
16.73748181619998
 30
0.0
 11
10.7576410716
 21
16.6921108977
 31
0.0
  0
LINE
  5
6A1
330
1F
100
AcDbEntity
  8
0
100
AcDbLine
 10
10.7576410716
 20
16.6921108977
 30
0.0
 11
10.8058777548
 21
16.6455126673
 31
0.0
  0
LINE
  5
6A2
330
1F
100
AcDbEntity
  8
0
100
AcDbLine
 10
10.8058777548
 20
16.6455126673
 30
0.0
 11
10.85340917259999
 21
16.59816681219999
 31
0.0
  0
LINE
  5
6A3
330
1F
100
AcDbEntity
  8
0
100
AcDbLine
 10
10.85340917259999
 20
16.59816681219999
 30
0.0
 11
10.90062685579999
 21
16.5505530198
 31
0.0
  0
LINE
  5
6A4
330
1F
100
AcDbEntity
  8
0
100
AcDbLine
 10
10.90062685579999
 20
16.5505530198
 30
0.0
 11
11.2330453271
 21
16.2146284302
 31
0.0
  0
LINE
  5
6A5
330
1F
100
AcDbEntity
  8
0
100
AcDbLine
 10
11.2330453271
 20
16.2146284302
 30
0.0
 11
11.5651195468
 21
15.8783631571
 31
0.0
  0
LINE
  5
6A6
330
1F
100
AcDbEntity
  8
0
100
AcDbLine
 10
11.5651195468
 20
15.8783631571
 30
0.0
 11
11.89772860769999
 21
15.5424122121
 31
0.0
  0
LINE
  5
6A7
330
1F
100
AcDbEntity
  8
0
100
AcDbLine
 10
11.89772860769999
 20
15.5424122121
 30
0.0
 11
12.2312751244
 21
15.20738867299999
 31
0.0
  0
LINE
  5
6A8
330
1F
100
AcDbEntity
  8
0
100
AcDbLine
 10
12.2312751244
 20
15.20738867299999
 30
0.0
 11
12.5659140596
 21
14.87345821769999
 31
0.0
  0
LINE
  5
6A9
330
1F
100
AcDbEntity
  8
0
100
AcDbLine
 10
12.5659140596
 20
14.87345821769999
 30
0.0
 11
12.90180037579998
 21
14.5407865244
 31
0.0
  0
LINE
  5
6AA
330
1F
100
AcDbEntity
  8
0
100
AcDbLine
 10
12.90180037579998
 20
14.5407865244
 30
0.0
 11
13.24091102549999
 21
14.2068437667
 31
0.0
  0
LINE
  5
6AB
330
1F
100
AcDbEntity
  8
0
100
AcDbLine
 10
13.24091102549999
 20
14.2068437667
 30
0.0
 11
13.5795612002
 21
13.8724332521
 31
0.0
  0
LINE
  5
6AC
330
1F
100
AcDbEntity
  8
0
100
AcDbLine
 10
13.5795612002
 20
13.8724332521
 30
0.0
 11
13.9172528186
 21
13.5370553808
 31
0.0
  0
LINE
  5
6AD
330
1F
100
AcDbEntity
  8
0
100
AcDbLine
 10
13.9172528186
 20
13.5370553808
 30
0.0
 11
14.0858968953
 21
13.3691263524
 31
0.0
  0
LINE
  5
6AE
330
1F
100
AcDbEntity
  8
0
100
AcDbLine
 10
14.0858968953
 20
13.3691263524
 30
0.0
 11
14.1195338148
 21
13.3353102675
 31
0.0
  0
LINE
  5
6AF
330
1F
100
AcDbEntity
  8
0
100
AcDbLine
 10
14.1195338148
 20
13.3353102675
 30
0.0
 11
14.1528020333
 21
13.3010808567
 31
0.0
  0
LINE
  5
6B0
330
1F
100
AcDbEntity
  8
0
100
AcDbLine
 10
14.1528020333
 20
13.3010808567
 30
0.0
 11
14.18531214869998
 21
13.2661579723
 31
0.0
  0
LINE
  5
6B1
330
1F
100
AcDbEntity
  8
0
100
AcDbLine
 10
14.18531214869998
 20
13.2661579723
 30
0.0
 11
14.2166747588
 21
13.2302614666
 31
0.0
  0
LINE
  5
6B2
330
1F
100
AcDbEntity
  8
0
100
AcDbLine
 10
14.2166747588
 20
13.2302614666
 30
0.0
 11
14.2465004613
 21
13.1931111916
 31
0.0
  0
LINE
  5
6B3
330
1F
100
AcDbEntity
  8
0
100
AcDbLine
 10
14.2465004613
 20
13.1931111916
 30
0.0
 11
14.2810987495
 21
13.1455830001
 31
0.0
  0
LINE
  5
6B4
330
1F
100
AcDbEntity
  8
0
100
AcDbLine
 10
14.2810987495
 20
13.1455830001
 30
0.0
 11
14.31352936509999
 21
13.0964782688
 31
0.0
  0
LINE
  5
6B5
330
1F
100
AcDbEntity
  8
0
100
AcDbLine
 10
14.31352936509999
 20
13.0964782688
 30
0.0
 11
14.34372429729999
 21
13.045965397
 31
0.0
  0
LINE
  5
6B6
330
1F
100
AcDbEntity
  8
0
100
AcDbLine
 10
14.34372429729999
 20
13.045965397
 30
0.0
 11
14.3716155352
 21
12.9942127838
 31
0.0
  0
LINE
  5
6B7
330
1F
100
AcDbEntity
  8
0
100
AcDbLine
 10
14.3716155352
 20
12.9942127838
 30
0.0
 11
14.398005932
 21
12.939513378
 31
0.0
  0
LINE
  5
6B8
330
1F
100
AcDbEntity
  8
0
100
AcDbLine
 10
14.398005932
 20
12.939513378
 30
0.0
 11
14.4219472394
 21
12.883633962
 31
0.0
  0
LINE
  5
6B9
330
1F
100
AcDbEntity
  8
0
100
AcDbLine
 10
14.4219472394
 20
12.883633962
 30
0.0
 11
14.443401502
 21
12.8267513543
 31
0.0
  0
LINE
  5
6BA
330
1F
100
AcDbEntity
  8
0
100
AcDbLine
 10
14.443401502
 20
12.8267513543
 30
0.0
 11
14.462330764
 21
12.7690423736
 31
0.0
  0
LINE
  5
6BB
330
1F
100
AcDbEntity
  8
0
100
AcDbLine
 10
14.462330764
 20
12.7690423736
 30
0.0
 11
14.4814275954
 21
12.7020514212
 31
0.0
  0
LINE
  5
6BC
330
1F
100
AcDbEntity
  8
0
100
AcDbLine
 10
14.4814275954
 20
12.7020514212
 30
0.0
 11
14.49814793599998
 21
12.6344275322
 31
0.0
  0
LINE
  5
6BD
330
1F
100
AcDbEntity
  8
0
100
AcDbLine
 10
14.49814793599998
 20
12.6344275322
 30
0.0
 11
14.5125013619
 21
12.56589675759999
 31
0.0
  0
LINE
  5
6BE
330
1F
100
AcDbEntity
  8
0
100
AcDbLine
 10
14.5125013619
 20
12.56589675759999
 30
0.0
 11
14.5243784632
 21
12.4968927025
 31
0.0
  0
LINE
  5
6BF
330
1F
100
AcDbEntity
  8
0
100
AcDbLine
 10
14.5243784632
 20
12.4968927025
 30
0.0
 11
14.5318818971
 21
12.4430323267
 31
0.0
  0
LINE
  5
6C0
330
1F
100
AcDbEntity
  8
0
100
AcDbLine
 10
14.5318818971
 20
12.4430323267
 30
0.0
 11
14.53786342
 21
12.3889705745
 31
0.0
  0
LINE
  5
6C1
330
1F
100
AcDbEntity
  8
0
100
AcDbLine
 10
14.53786342
 20
12.3889705745
 30
0.0
 11
14.54230610729999
 21
12.3347715241
 31
0.0
  0
LINE
  5
6C2
330
1F
100
AcDbEntity
  8
0
100
AcDbLine
 10
14.54230610729999
 20
12.3347715241
 30
0.0
 11
14.5452314719
 21
12.2800741355
 31
0.0
  0
LINE
  5
6C3
330
1F
100
AcDbEntity
  8
0
100
AcDbLine
 10
14.5452314719
 20
12.2800741355
 30
0.0
 11
14.5466172828
 21
12.2253051221
 31
0.0
  0
LINE
  5
6C4
330
1F
100
AcDbEntity
  8
0
100
AcDbLine
 10
14.5466172828
 20
12.2253051221
 30
0.0
 11
14.54646081559999
 21
12.17052966819998
 31
0.0
  0
LINE
  5
6C5
330
1F
100
AcDbEntity
  8
0
100
AcDbLine
 10
14.54646081559999
 20
12.17052966819998
 30
0.0
 11
14.54395363299999
 21
12.0991126788
 31
0.0
  0
LINE
  5
6C6
330
1F
100
AcDbEntity
  8
0
100
AcDbLine
 10
14.54395363299999
 20
12.0991126788
 30
0.0
 11
14.53888855759999
 21
12.02778655609999
 31
0.0
  0
LINE
  5
6C7
330
1F
100
AcDbEntity
  8
0
100
AcDbLine
 10
14.53888855759999
 20
12.02778655609999
 30
0.0
 11
14.5313171216
 21
11.95668061249999
 31
0.0
  0
LINE
  5
6C8
330
1F
100
AcDbEntity
  8
0
100
AcDbLine
 10
14.5313171216
 20
11.95668061249999
 30
0.0
 11
14.5212908576
 21
11.8859241603
 31
0.0
  0
LINE
  5
6C9
330
1F
100
AcDbEntity
  8
0
100
AcDbLine
 10
14.5212908576
 20
11.8859241603
 30
0.0
 11
14.5085493965
 21
11.8141560072
 31
0.0
  0
LINE
  5
6CA
330
1F
100
AcDbEntity
  8
0
100
AcDbLine
 10
14.5085493965
 20
11.8141560072
 30
0.0
 11
14.49329465349999
 21
11.7428357446
 31
0.0
  0
LINE
  5
6CB
330
1F
100
AcDbEntity
  8
0
100
AcDbLine
 10
14.49329465349999
 20
11.7428357446
 30
0.0
 11
14.47559567609999
 21
11.6720807377
 31
0.0
  0
LINE
  5
6CC
330
1F
100
AcDbEntity
  8
0
100
AcDbLine
 10
14.47559567609999
 20
11.6720807377
 30
0.0
 11
14.4555215117
 21
11.6020083518
 31
0.0
  0
LINE
  5
6CD
330
1F
100
AcDbEntity
  8
0
100
AcDbLine
 10
14.4555215117
 20
11.6020083518
 30
0.0
 11
14.4447343206
 21
11.56808580749999
 31
0.0
  0
LINE
  5
6CE
330
1F
100
AcDbEntity
  8
0
100
AcDbLine
 10
14.4447343206
 20
11.56808580749999
 30
0.0
 11
14.43312660359999
 21
11.53443498839999
 31
0.0
  0
LINE
  5
6CF
330
1F
100
AcDbEntity
  8
0
100
AcDbLine
 10
14.43312660359999
 20
11.53443498839999
 30
0.0
 11
14.4206668065
 21
11.50099869539998
 31
0.0
  0
LINE
  5
6D0
330
1F
100
AcDbEntity
  8
0
100
AcDbLine
 10
14.4206668065
 20
11.50099869539998
 30
0.0
 11
14.40738248359998
 21
11.4678811517
 31
0.0
  0
LINE
  5
6D1
330
1F
100
AcDbEntity
  8
0
100
AcDbLine
 10
14.40738248359998
 20
11.4678811517
 30
0.0
 11
14.3834860493
 21
11.4136193577
 31
0.0
  0
LINE
  5
6D2
330
1F
100
AcDbEntity
  8
0
100
AcDbLine
 10
14.3834860493
 20
11.4136193577
 30
0.0
 11
14.35729831459999
 21
11.360364269
 31
0.0
  0
LINE
  5
6D3
330
1F
100
AcDbEntity
  8
0
100
AcDbLine
 10
14.35729831459999
 20
11.360364269
 30
0.0
 11
14.32885000609998
 21
11.30828568539999
 31
0.0
  0
LINE
  5
6D4
330
1F
100
AcDbEntity
  8
0
100
AcDbLine
 10
14.32885000609998
 20
11.30828568539999
 30
0.0
 11
14.2981718506
 21
11.2575534069
 31
0.0
  0
LINE
  5
6D5
330
1F
100
AcDbEntity
  8
0
100
AcDbLine
 10
14.2981718506
 20
11.2575534069
 30
0.0
 11
14.26411062619999
 21
11.2066459865
 31
0.0
  0
LINE
  5
6D6
330
1F
100
AcDbEntity
  8
0
100
AcDbLine
 10
14.26411062619999
 20
11.2066459865
 30
0.0
 11
14.2276547411
 21
11.1573391743
 31
0.0
  0
LINE
  5
6D7
330
1F
100
AcDbEntity
  8
0
100
AcDbLine
 10
14.2276547411
 20
11.1573391743
 30
0.0
 11
14.1889099702
 21
11.1098126374
 31
0.0
  0
LINE
  5
6D8
330
1F
100
AcDbEntity
  8
0
100
AcDbLine
 10
14.1889099702
 20
11.1098126374
 30
0.0
 11
14.14798208829999
 21
11.06424604289999
 31
0.0
  0
ENDSEC
  0
SECTION
  2
OBJECTS
  0
DICTIONARY
  5
C
330
0
100
AcDbDictionary
  3
ACAD_GROUP
350
D
  3
ACAD_LAYOUT
350
1A
  3
ACAD_MLINESTYLE
350
17
  3
ACAD_PLOTSETTINGS
350
19
  3
ACAD_PLOTSTYLENAME
350
E
  3
ACDBHEADERROUNDTRIPXREC
350
C55
  3
ACDBVARIABLEDICTIONARY
350
C0F
  0
DICTIONARY
  5
C17
330
1F
100
AcDbDictionary
280
     1
  3
ACAD_LAYOUTSELFREF
360
C77
  0
DICTIONARY
  5
C19
330
1B
100
AcDbDictionary
280
     1
  3
ACAD_LAYOUTSELFREF
360
C76
  0
DICTIONARY
  5
D
102
{ACAD_REACTORS
330
C
102
}
330
C
100
AcDbDictionary
  0
DICTIONARY
  5
1A
102
{ACAD_REACTORS
330
C
102
}
330
C
100
AcDbDictionary
  0
DICTIONARY
  5
17
102
{ACAD_REACTORS
330
C
102
}
330
C
100
AcDbDictionary
  3
STANDARD
350
18
  0
DICTIONARY
  5
19
102
{ACAD_REACTORS
330
C
102
}
330
C
100
AcDbDictionary
  0
ACDBDICTIONARYWDFLT
  5
E
102
{ACAD_REACTORS
330
C
102
}
330
C
100
AcDbDictionary
281
     1
  3
Normal
350
F
100
AcDbDictionaryWithDefault
340
F
  0
DICTIONARY
  5
C55
102
{ACAD_REACTORS
330
C
102
}
330
C
100
AcDbDictionary
  3
CEPSNTYPE
350
C5F
  3
DIMSTYLEDATA
350
C63
  3
FINGERPRINTGUID
350
C60
  3
HYPERLINKBASE
350
C58
  3
INSUNITS
350
C5E
  3
LAYOUTDICT
350
C5A
  3
LWETCUNION
350
C5D
  3
PLOTSETDICT
350
C5B
  3
PLOTSTYLNAMDICT
350
C5C
  3
PSVPSCALE
350
C62
  3
PUCSBASE
350
C66
  3
PUCSORGBACK
350
C6C
  3
PUCSORGBOTTOM
350
C68
  3
PUCSORGFRONT
350
C6B
  3
PUCSORGLEFT
350
C69
  3
PUCSORGRIGHT
350
C6A
  3
PUCSORGTOP
350
C67
  3
PUCSORTHOREF
350
C64
  3
PUCSORTHOVIEW
350
C65
  3
STYLESHEET
350
C59
  3
TSTACKALIGN
350
C56
  3
TSTACKSIZE
350
C57
  3
UCSBASE
350
C6F
  3
UCSORGBACK
350
C75
  3
UCSORGBOTTOM
350
C71
  3
UCSORGFRONT
350
C74
  3
UCSORGLEFT
350
C72
  3
UCSORGRIGHT
350
C73
  3
UCSORGTOP
350
C70
  3
UCSORTHOREF
350
C6D
  3
UCSORTHOVIEW
350
C6E
  3
VERSIONGUID
350
C61
  0
DICTIONARY
  5
C0F
102
{ACAD_REACTORS
330
C
102
}
330
C
100
AcDbDictionary
  3
DIMASSOC
350
C10
  0
XRECORD
  5
C77
102
{ACAD_REACTORS
330
C17
102
}
330
C17
100
AcDbXrecord
340
1F
  0
XRECORD
  5
C76
102
{ACAD_REACTORS
330
C19
102
}
330
C19
100
AcDbXrecord
340
1B
  0
MLINESTYLE
  5
18
102
{ACAD_REACTORS
330
17
102
}
330
17
100
AcDbMlineStyle
  2
STANDARD
 70
     0
  3

 62
   256
 51
90.0
 52
90.0
 71
     2
 49
0.5
 62
   256
  6
BYLAYER
 49
-0.5
 62
   256
  6
BYLAYER
  0
ACDBPLACEHOLDER
  5
F
102
{ACAD_REACTORS
330
E
102
}
330
E
100
AcDbPlaceHolder
280
     0
  0
XRECORD
  5
C5F
102
{ACAD_REACTORS
330
C55
102
}
330
C55
100
AcDbXrecord
 90
        0
  0
XRECORD
  5
C63
102
{ACAD_REACTORS
330
C55
102
}
330
C55
100
AcDbXrecord
1000
DSTYLE
1002
{
1070
   278
 70
    44
1002
}
  0
XRECORD
  5
C60
102
{ACAD_REACTORS
330
C55
102
}
330
C55
100
AcDbXrecord
  1
{9DC1030B-1F6F-4F64-AF61-F6F5F2D38AD9}
  0
XRECORD
  5
C58
102
{ACAD_REACTORS
330
C55
102
}
330
C55
100
AcDbXrecord
  1

  0
XRECORD
  5
C5E
102
{ACAD_REACTORS
330
C55
102
}
330
C55
100
AcDbXrecord
 90
        4
  0
XRECORD
  5
C5A
102
{ACAD_REACTORS
330
C55
102
}
330
C55
100
AcDbXrecord
340
1A
  0
XRECORD
  5
C5D
102
{ACAD_REACTORS
330
C55
102
}
330
C55
100
AcDbXrecord
 90
    10781
  0
XRECORD
  5
C5B
102
{ACAD_REACTORS
330
C55
102
}
330
C55
100
AcDbXrecord
340
19
  0
XRECORD
  5
C5C
102
{ACAD_REACTORS
330
C55
102
}
330
C55
100
AcDbXrecord
340
E
  0
XRECORD
  5
C62
102
{ACAD_REACTORS
330
C55
102
}
330
C55
100
AcDbXrecord
 40
0.0
  0
XRECORD
  5
C66
102
{ACAD_REACTORS
330
C55
102
}
330
C55
100
AcDbXrecord
340
0
  0
XRECORD
  5
C6C
102
{ACAD_REACTORS
330
C55
102
}
330
C55
100
AcDbXrecord
 10
0.0
 20
0.0
 30
0.0
  0
XRECORD
  5
C68
102
{ACAD_REACTORS
330
C55
102
}
330
C55
100
AcDbXrecord
 10
0.0
 20
0.0
 30
0.0
  0
XRECORD
  5
C6B
102
{ACAD_REACTORS
330
C55
102
}
330
C55
100
AcDbXrecord
 10
0.0
 20
0.0
 30
0.0
  0
XRECORD
  5
C69
102
{ACAD_REACTORS
330
C55
102
}
330
C55
100
AcDbXrecord
 10
0.0
 20
0.0
 30
0.0
  0
XRECORD
  5
C6A
102
{ACAD_REACTORS
330
C55
102
}
330
C55
100
AcDbXrecord
 10
0.0
 20
0.0
 30
0.0
  0
XRECORD
  5
C67
102
{ACAD_REACTORS
330
C55
102
}
330
C55
100
AcDbXrecord
 10
0.0
 20
0.0
 30
0.0
  0
XRECORD
  5
C64
102
{ACAD_REACTORS
330
C55
102
}
330
C55
100
AcDbXrecord
340
0
  0
XRECORD
  5
C65
102
{ACAD_REACTORS
330
C55
102
}
330
C55
100
AcDbXrecord
 70
     0
  0
XRECORD
  5
C59
102
{ACAD_REACTORS
330
C55
102
}
330
C55
100
AcDbXrecord
  1

  0
XRECORD
  5
C56
102
{ACAD_REACTORS
330
C55
102
}
330
C55
100
AcDbXrecord
 90
        1
  0
XRECORD
  5
C57
102
{ACAD_REACTORS
330
C55
102
}
330
C55
100
AcDbXrecord
 90
       70
  0
XRECORD
  5
C6F
102
{ACAD_REACTORS
330
C55
102
}
330
C55
100
AcDbXrecord
340
0
  0
XRECORD
  5
C75
102
{ACAD_REACTORS
330
C55
102
}
330
C55
100
AcDbXrecord
 10
0.0
 20
0.0
 30
0.0
  0
XRECORD
  5
C71
102
{ACAD_REACTORS
330
C55
102
}
330
C55
100
AcDbXrecord
 10
0.0
 20
0.0
 30
0.0
  0
XRECORD
  5
C74
102
{ACAD_REACTORS
330
C55
102
}
330
C55
100
AcDbXrecord
 10
0.0
 20
0.0
 30
0.0
  0
XRECORD
  5
C72
102
{ACAD_REACTORS
330
C55
102
}
330
C55
100
AcDbXrecord
 10
0.0
 20
0.0
 30
0.0
  0
XRECORD
  5
C73
102
{ACAD_REACTORS
330
C55
102
}
330
C55
100
AcDbXrecord
 10
0.0
 20
0.0
 30
0.0
  0
XRECORD
  5
C70
102
{ACAD_REACTORS
330
C55
102
}
330
C55
100
AcDbXrecord
 10
0.0
 20
0.0
 30
0.0
  0
XRECORD
  5
C6D
102
{ACAD_REACTORS
330
C55
102
}
330
C55
100
AcDbXrecord
340
0
  0
XRECORD
  5
C6E
102
{ACAD_REACTORS
330
C55
102
}
330
C55
100
AcDbXrecord
 70
     0
  0
XRECORD
  5
C61
102
{ACAD_REACTORS
330
C55
102
}
330
C55
100
AcDbXrecord
  1
{72C5A93E-3BD8-4970-9532-951211EF8F23}
  0
DICTIONARYVAR
  5
C10
102
{ACAD_REACTORS
330
C0F
102
}
330
C0F
100
DictionaryVariables
280
     0
  1
1
  0
ENDSEC
  0
EOF
