  0
SECTION
  2
HEADER
  9
$ACADVER
  1
AC1014
  9
$ACADMAINTVER
 70
     9
  9
$DWGCODEPAGE
  3
ANSI_1250
  9
$INSBASE
 10
0.0
 20
0.0
 30
0.0
  9
$EXTMIN
 10
3.133616739999999
 20
5.035227385799998
 30
0.0
  9
$EXTMAX
 10
14.46695039119998
 20
16.913343895
 30
0.0
  9
$LIMMIN
 10
0.0
 20
0.0
  9
$LIMMAX
 10
0.0
 20
0.0
  9
$ORTHOMODE
 70
     0
  9
$REGENMODE
 70
     1
  9
$FILLMODE
 70
     1
  9
$QTEXTMODE
 70
     0
  9
$MIRRTEXT
 70
     1
  9
$DRAGMODE
 70
     2
  9
$LTSCALE
 40
1.0
  9
$OSMODE
 70
  3007
  9
$ATTMODE
 70
     1
  9
$TEXTSIZE
 40
2.5
  9
$TRACEWID
 40
1.0
  9
$TEXTSTYLE
  7
STANDARD
  9
$CLAYER
  8
0
  9
$CELTYPE
  6
BYLAYER
  9
$CECOLOR
 62
   256
  9
$CELTSCALE
 40
1.0
  9
$DELOBJ
 70
     1
  9
$DISPSILH
 70
     0
  9
$DIMSCALE
 40
1.0
  9
$DIMASZ
 40
0.3
  9
$DIMEXO
 40
0.1
  9
$DIMDLI
 40
3.75
  9
$DIMRND
 40
0.0
  9
$DIMDLE
 40
0.0
  9
$DIMEXE
 40
0.1
  9
$DIMTP
 40
0.0
  9
$DIMTM
 40
0.0
  9
$DIMTXT
 40
0.2822222222
  9
$DIMCEN
 40
2.5
  9
$DIMTSZ
 40
0.0
  9
$DIMTOL
 70
     0
  9
$DIMLIM
 70
     0
  9
$DIMTIH
 70
     1
  9
$DIMTOH
 70
     1
  9
$DIMSE1
 70
     0
  9
$DIMSE2
 70
     0
  9
$DIMTAD
 70
     1
  9
$DIMZIN
 70
     0
  9
$DIMBLK
  1

  9
$DIMASO
 70
     1
  9
$DIMSHO
 70
     1
  9
$DIMPOST
  1

  9
$DIMAPOST
  1

  9
$DIMALT
 70
     0
  9
$DIMALTD
 70
     3
  9
$DIMALTF
 40
0.3937007874
  9
$DIMLFAC
 40
15.0
  9
$DIMTOFL
 70
     1
  9
$DIMTVP
 40
0.0
  9
$DIMTIX
 70
     0
  9
$DIMSOXD
 70
     0
  9
$DIMSAH
 70
     0
  9
$DIMBLK1
  1

  9
$DIMBLK2
  1

  9
$DIMSTYLE
  2
ISO-25
  9
$DIMCLRD
 70
     0
  9
$DIMCLRE
 70
     0
  9
$DIMCLRT
 70
     0
  9
$DIMTFAC
 40
1.0
  9
$DIMGAP
 40
0.1524
  9
$DIMJUST
 70
     0
  9
$DIMSD1
 70
     0
  9
$DIMSD2
 70
     0
  9
$DIMTOLJ
 70
     0
  9
$DIMTZIN
 70
     0
  9
$DIMALTZ
 70
     0
  9
$DIMALTTZ
 70
     0
  9
$DIMFIT
 70
     3
  9
$DIMUPT
 70
     0
  9
$DIMUNIT
 70
     2
  9
$DIMDEC
 70
     2
  9
$DIMTDEC
 70
     2
  9
$DIMALTU
 70
     2
  9
$DIMALTTD
 70
     3
  9
$DIMTXSTY
  7
STANDARD
  9
$DIMAUNIT
 70
     0
  9
$LUNITS
 70
     2
  9
$LUPREC
 70
     2
  9
$SKETCHINC
 40
1.0
  9
$FILLETRAD
 40
10.0
  9
$AUNITS
 70
     0
  9
$AUPREC
 70
     0
  9
$MENU
  1
.
  9
$ELEVATION
 40
0.0
  9
$PELEVATION
 40
0.0
  9
$THICKNESS
 40
0.0
  9
$LIMCHECK
 70
     0
  9
$BLIPMODE
 70
     0
  9
$CHAMFERA
 40
10.0
  9
$CHAMFERB
 40
10.0
  9
$CHAMFERC
 40
20.0
  9
$CHAMFERD
 40
0.0
  9
$SKPOLY
 70
     0
  9
$TDCREATE
 40
2453930.499121088
  9
$TDUPDATE
 40
2453966.372027986
  9
$TDINDWG
 40
0.0136695370
  9
$TDUSRTIMER
 40
0.0136691782
  9
$USRTIMER
 70
     1
  9
$ANGBASE
 50
0.0
  9
$ANGDIR
 70
     0
  9
$PDMODE
 70
     0
  9
$PDSIZE
 40
-1.0
  9
$PLINEWID
 40
0.0
  9
$COORDS
 70
     2
  9
$SPLFRAME
 70
     0
  9
$SPLINETYPE
 70
     6
  9
$SPLINESEGS
 70
     8
  9
$ATTDIA
 70
     0
  9
$ATTREQ
 70
     1
  9
$HANDLING
 70
 22529
  9
$HANDSEED
  5
75F
  9
$SURFTAB1
 70
     6
  9
$SURFTAB2
 70
     6
  9
$SURFTYPE
 70
     6
  9
$SURFU
 70
     6
  9
$SURFV
 70
     6
  9
$UCSNAME
  2

  9
$UCSORG
 10
0.0
 20
0.0
 30
0.0
  9
$UCSXDIR
 10
1.0
 20
0.0
 30
0.0
  9
$UCSYDIR
 10
0.0
 20
1.0
 30
0.0
  9
$PUCSNAME
  2

  9
$PUCSORG
 10
0.0
 20
0.0
 30
0.0
  9
$PUCSXDIR
 10
1.0
 20
0.0
 30
0.0
  9
$PUCSYDIR
 10
0.0
 20
1.0
 30
0.0
  9
$USERI1
 70
     0
  9
$USERI2
 70
     0
  9
$USERI3
 70
     0
  9
$USERI4
 70
     0
  9
$USERI5
 70
     0
  9
$USERR1
 40
0.0
  9
$USERR2
 40
0.0
  9
$USERR3
 40
0.0
  9
$USERR4
 40
0.0
  9
$USERR5
 40
0.0
  9
$WORLDVIEW
 70
     1
  9
$SHADEDGE
 70
     3
  9
$SHADEDIF
 70
    70
  9
$TILEMODE
 70
     1
  9
$MAXACTVP
 70
    48
  9
$PINSBASE
 10
0.0
 20
0.0
 30
0.0
  9
$PLIMCHECK
 70
     0
  9
$PEXTMIN
 10
1.000000000000000E+20
 20
1.000000000000000E+20
 30
1.000000000000000E+20
  9
$PEXTMAX
 10
-1.000000000000000E+20
 20
-1.000000000000000E+20
 30
-1.000000000000000E+20
  9
$PLIMMIN
 10
0.0
 20
0.0
  9
$PLIMMAX
 10
420.0
 20
297.0
  9
$UNITMODE
 70
     0
  9
$VISRETAIN
 70
     1
  9
$PLINEGEN
 70
     0
  9
$PSLTSCALE
 70
     1
  9
$TREEDEPTH
 70
  3020
  9
$PICKSTYLE
 70
     1
  9
$CMLSTYLE
  2
STANDARD
  9
$CMLJUST
 70
     0
  9
$CMLSCALE
 40
20.0
  9
$PROXYGRAPHICS
 70
     1
  9
$MEASUREMENT
 70
     1
  0
ENDSEC
  0
SECTION
  2
CLASSES
  0
CLASS
  1
ACDBDICTIONARYWDFLT
  2
AcDbDictionaryWithDefault
  3
AutoCAD 2000
 90
        0
280
     0
281
     0
  0
CLASS
  1
ACDBPLACEHOLDER
  2
AcDbPlaceHolder
  3
AutoCAD 2000
 90
        0
280
     0
281
     0
  0
CLASS
  1
LAYOUT
  2
AcDbLayout
  3
AutoCAD 2000
 90
        0
280
     0
281
     0
  0
CLASS
  1
DICTIONARYVAR
  2
AcDbDictionaryVar
  3
AutoCAD 2000
 90
        0
280
     0
281
     0
  0
CLASS
  1
LONG_TRANSACTION
  2
AcDbLongTransaction
  3
AutoCAD 2000
 90
        0
280
     0
281
     0
  0
CLASS
  1
LWPOLYLINE
  2
AcDbPolyline
  3
AutoCAD 2000
 90
        0
280
     0
281
     1
  0
CLASS
  1
HATCH
  2
AcDbHatch
  3
AutoCAD 2000
 90
        0
280
     0
281
     1
  0
CLASS
  1
XRECORD
  2
AcDbXrecord
  3
AutoCAD 2000
 90
        0
280
     0
281
     0
  0
CLASS
  1
LONG_TRANSACTION
  2
AcDbLongTransaction
  3
AutoCAD 2000
 90
        0
280
     0
281
     0
  0
CLASS
  1
LWPOLYLINE
  2
AcDbPolyline
  3
AutoCAD 2000
 90
        0
280
     0
281
     1
  0
CLASS
  1
HATCH
  2
AcDbHatch
  3
AutoCAD 2000
 90
        0
280
     0
281
     1
  0
CLASS
  1
XRECORD
  2
AcDbXrecord
  3
AutoCAD 2000
 90
        0
280
     0
281
     0
  0
ENDSEC
  0
SECTION
  2
TABLES
  0
TABLE
  2
VPORT
  5
8
330
0
100
AcDbSymbolTable
 70
     2
  0
VPORT
  5
73A
330
8
100
AcDbSymbolTableRecord
100
AcDbViewportTableRecord
  2
*ACTIVE
 70
     0
 10
0.0
 20
0.0
 11
1.0
 21
1.0
 12
8.799793606748846
 22
10.97390151933926
 13
0.0
 23
0.0
 14
10.0
 24
10.0
 15
10.0
 25
10.0
 16
0.0
 26
0.0
 36
1.0
 17
0.0
 27
0.0
 37
0.0
 40
11.99271247284749
 41
1.674961119751166
 42
50.0
 43
0.0
 44
0.0
 50
0.0
 51
0.0
 71
     0
 72
  2000
 73
     1
 74
     3
 75
     0
 76
     0
 77
     0
 78
     0
  0
ENDTAB
  0
TABLE
  2
LTYPE
  5
5
330
0
100
AcDbSymbolTable
 70
     1
  0
LTYPE
  5
14
330
5
100
AcDbSymbolTableRecord
100
AcDbLinetypeTableRecord
  2
BYBLOCK
 70
     0
  3

 72
    65
 73
     0
 40
0.0
  0
LTYPE
  5
15
330
5
100
AcDbSymbolTableRecord
100
AcDbLinetypeTableRecord
  2
BYLAYER
 70
     0
  3

 72
    65
 73
     0
 40
0.0
  0
LTYPE
  5
16
330
5
100
AcDbSymbolTableRecord
100
AcDbLinetypeTableRecord
  2
CONTINUOUS
 70
     0
  3
Solid line
 72
    65
 73
     0
 40
0.0
  0
ENDTAB
  0
TABLE
  2
LAYER
  5
2
330
0
100
AcDbSymbolTable
 70
     1
  0
LAYER
  5
10
330
2
100
AcDbSymbolTableRecord
100
AcDbLayerTableRecord
  2
0
 70
     0
 62
     7
  6
CONTINUOUS
  0
ENDTAB
  0
TABLE
  2
STYLE
  5
3
330
0
100
AcDbSymbolTable
 70
     1
  0
STYLE
  5
11
330
3
100
AcDbSymbolTableRecord
100
AcDbTextStyleTableRecord
  2
STANDARD
 70
     0
 40
0.0
 41
1.0
 50
0.0
 71
     0
 42
2.5
  3
ARIAL.TTF
  4

1001
ACAD
1000
Arial
1071
       34
  0
ENDTAB
  0
TABLE
  2
VIEW
  5
6
330
0
100
AcDbSymbolTable
 70
     0
  0
ENDTAB
  0
TABLE
  2
UCS
  5
7
330
0
100
AcDbSymbolTable
 70
     0
  0
ENDTAB
  0
TABLE
  2
APPID
  5
9
330
0
100
AcDbSymbolTable
 70
     1
  0
APPID
  5
12
330
9
100
AcDbSymbolTableRecord
100
AcDbRegAppTableRecord
  2
ACAD
 70
     0
  0
ENDTAB
  0
TABLE
  2
DIMSTYLE
  5
A
330
0
100
AcDbSymbolTable
 70
     1
  0
DIMSTYLE
105
27
330
A
100
AcDbSymbolTableRecord
100
AcDbDimStyleTableRecord
  2
ISO-25
 70
     0
  3

  4

  5

  6

  7

 40
1.0
 41
2.5
 42
0.625
 43
3.75
 44
1.25
 45
0.0
 46
0.0
 47
0.0
 48
0.0
140
2.5
141
2.5
142
0.0
143
0.0393700787
144
1.0
145
0.0
146
1.0
147
0.625
 71
     0
 72
     0
 73
     0
 74
     0
 75
     0
 76
     0
 77
     1
 78
     8
170
     0
171
     3
172
     1
173
     0
174
     0
175
     0
176
     0
177
     0
178
     0
270
     2
271
     2
272
     2
273
     2
274
     3
340
11
275
     0
280
     0
281
     0
282
     0
283
     0
284
     8
285
     0
286
     0
287
     3
288
     0
  0
ENDTAB
  0
TABLE
  2
BLOCK_RECORD
  5
1
330
0
100
AcDbSymbolTable
 70
     1
  0
BLOCK_RECORD
  5
1F
102
{ACAD_XDICTIONARY
360
6FD
102
}
330
1
100
AcDbSymbolTableRecord
100
AcDbBlockTableRecord
  2
*MODEL_SPACE
  0
BLOCK_RECORD
  5
1B
102
{ACAD_XDICTIONARY
360
6FF
102
}
330
1
100
AcDbSymbolTableRecord
100
AcDbBlockTableRecord
  2
*PAPER_SPACE
  0
ENDTAB
  0
ENDSEC
  0
SECTION
  2
BLOCKS
  0
BLOCK
  5
20
330
1F
100
AcDbEntity
  8
0
100
AcDbBlockBegin
  2
*MODEL_SPACE
 70
     0
 10
0.0
 20
0.0
 30
0.0
  3
*MODEL_SPACE
  1

  0
ENDBLK
  5
21
330
1F
100
AcDbEntity
  8
0
100
AcDbBlockEnd
  0
BLOCK
  5
1C
330
1B
100
AcDbEntity
 67
     1
  8
0
100
AcDbBlockBegin
  2
*PAPER_SPACE
 70
     0
 10
0.0
 20
0.0
 30
0.0
  3
*PAPER_SPACE
  1

  0
ENDBLK
  5
1D
330
1B
100
AcDbEntity
 67
     1
  8
0
100
AcDbBlockEnd
  0
ENDSEC
  0
SECTION
  2
ENTITIES
  0
ARC
  5
57
330
1F
100
AcDbEntity
  8
0
100
AcDbCircle
 10
6.5255184083
 20
14.58147414119999
 30
0.0
 40
3.133267919708587
100
AcDbArc
 50
180.0267626825998
 51
218.1048688249
  0
ARC
  5
5A
330
1F
100
AcDbEntity
  8
0
100
AcDbCircle
 10
10.9869666771
 20
14.5796681752
 30
0.0
 40
2.352635434784751
100
AcDbArc
 50
0.1888527868
 51
10.70669400169999
  0
ARC
  5
5B
330
1F
100
AcDbEntity
  8
0
100
AcDbCircle
 10
11.37957642469999
 20
14.5799344889
 30
0.0
 40
2.685172181874281
100
AcDbArc
 50
0.2092556845
 51
17.4756032831
  0
ARC
  5
5D
330
1F
100
AcDbEntity
  8
0
100
AcDbCircle
 10
12.4064015186
 20
14.9033793838
 30
0.0
 40
1.608609907649293
100
AcDbArc
 50
17.4698679857
 51
89.9021005085
  0
LINE
  5
5E
330
1F
100
AcDbEntity
  8
0
100
AcDbLine
 10
11.62138411849998
 20
16.5116509085
 30
0.0
 11
12.4091500983
 21
16.5117140894
 31
0.0
  0
ARC
  5
5F
330
1F
100
AcDbEntity
  8
0
100
AcDbCircle
 10
11.38005188189999
 20
14.5800132923
 30
0.0
 40
2.684695658864677
100
AcDbArc
 50
342.5172063949
 51
359.7970488720998
  0
ARC
  5
60
330
1F
100
AcDbEntity
  8
0
100
AcDbCircle
 10
10.9867640074
 20
14.5803698027
 30
0.0
 40
2.352837719715334
100
AcDbArc
 50
349.2891832101
 51
359.814020398
  0
ARC
  5
62
330
1F
100
AcDbEntity
  8
0
100
AcDbCircle
 10
12.4063156714
 20
14.25677301589999
 30
0.0
 40
1.608730212375186
100
AcDbArc
 50
270.1582667949999
 51
342.5171842675
  0
LINE
  5
64
330
1F
100
AcDbEntity
  8
0
100
AcDbLine
 10
5.979183211399998
 20
12.6483702943
 30
0.0
 11
11.6213843172
 21
12.6483702943
 31
0.0
  0
ARC
  5
68
330
1F
100
AcDbEntity
  8
0
100
AcDbCircle
 10
12.1500265445
 20
14.3596682626
 30
0.0
 40
1.168824198228049
100
AcDbArc
 50
270.1630918571999
 51
349.3216154004
  0
ARC
  5
69
330
1F
100
AcDbEntity
  8
0
100
AcDbCircle
 10
12.1500166725
 20
14.8003383213
 30
0.0
 40
1.168836694986392
100
AcDbArc
 50
10.6696623645
 51
89.89402432979998
  0
LINE
  5
6C
330
1F
100
AcDbEntity
  8
0
100
AcDbLine
 10
11.62138411849998
 20
16.5116509085
 30
0.0
 11
5.979183211399998
 21
16.5116509085
 31
0.0
  0
LINE
  5
6E
330
1F
100
AcDbEntity
  8
0
100
AcDbLine
 10
3.3922508304
 20
14.5800106014
 30
0.0
 11
3.384747003
 21
14.5800106014
 31
0.0
  0
LINE
  5
6F
330
1F
100
AcDbEntity
  8
0
100
AcDbLine
 10
14.46695039119998
 20
16.913343895
 30
0.0
 11
3.133616739999999
 21
16.913343895
 31
0.0
  0
LINE
  5
70
330
1F
100
AcDbEntity
  8
0
100
AcDbLine
 10
3.133616739999999
 20
16.913343895
 30
0.0
 11
3.133616739999999
 21
12.2466773078
 31
0.0
  0
LINE
  5
71
330
1F
100
AcDbEntity
  8
0
100
AcDbLine
 10
14.46695039119998
 20
12.2466773078
 30
0.0
 11
14.46695039119998
 21
16.913343895
 31
0.0
  0
LINE
  5
72
330
1F
100
AcDbEntity
  8
0
100
AcDbLine
 10
3.133616739999999
 20
12.2466773078
 30
0.0
 11
14.46695039119998
 21
12.2466773078
 31
0.0
  0
ARC
  5
76
330
1F
100
AcDbEntity
  8
0
100
AcDbCircle
 10
6.680270317
 20
14.5775198317
 30
0.0
 40
1.410494448782705
100
AcDbArc
 50
91.48522737530001
 51
179.8988222425999
  0
CIRCLE
  5
77
330
1F
100
AcDbEntity
  8
0
100
AcDbCircle
 10
12.40028356559998
 20
14.5800106014
 30
0.0
 40
0.3665179007108037
  0
CIRCLE
  5
78
330
1F
100
AcDbEntity
  8
0
100
AcDbCircle
 10
12.40028356559998
 20
14.5800106014
 30
0.0
 40
0.1733333333333338
  0
LINE
  5
142
330
1F
100
AcDbEntity
  8
0
100
AcDbLine
 10
11.8965320065
 20
5.157298150699999
 30
0.0
 11
11.8965320065
 21
5.035227385799998
 31
0.0
  0
LINE
  5
143
330
1F
100
AcDbEntity
  8
0
100
AcDbLine
 10
11.8965320065
 20
5.035227385799998
 30
0.0
 11
5.945873377199998
 21
5.130932347499999
 31
0.0
  0
LINE
  5
144
330
1F
100
AcDbEntity
  8
0
100
AcDbLine
 10
5.820181232
 20
5.280774756299998
 30
0.0
 11
5.945873377199998
 21
5.130932347499999
 31
0.0
  0
POINT
  5
145
330
1F
100
AcDbEntity
  8
0
100
AcDbPoint
 10
13.9761001614
 20
7.501894052399999
 30
0.0
  0
LINE
  5
146
330
1F
100
AcDbEntity
  8
0
100
AcDbLine
 10
5.253349437799998
 20
5.290161768199999
 30
0.0
 11
12.025832429
 21
5.1547121998
 31
0.0
  0
LINE
  5
147
330
1F
100
AcDbEntity
  8
0
100
AcDbLine
 10
12.7747347896
 20
5.1547121998
 30
0.0
 11
13.3560461745
 21
5.1663382844
 31
0.0
  0
ARC
  5
148
330
1F
100
AcDbEntity
  8
0
100
AcDbCircle
 10
12.40028356559998
 20
5.6080666659
 30
0.0
 40
0.5880000000000009
100
AcDbArc
 50
287.144620329
 51
309.5552288033
  0
ARC
  5
149
330
1F
100
AcDbEntity
  8
0
100
AcDbCircle
 10
12.40028356559998
 20
5.6080666659
 30
0.0
 40
0.5880000000000003
100
AcDbArc
 50
230.4447711966999
 51
252.8553796709999
  0
LINE
  5
14A
330
1F
100
AcDbEntity
  8
0
100
AcDbLine
 10
3.133616739999999
 20
7.668560718099999
 30
0.0
 11
3.133616739999999
 21
7.9018940524
 31
0.0
  0
LINE
  5
14B
330
1F
100
AcDbEntity
  8
0
100
AcDbLine
 10
14.46695039119998
 20
7.668560718099999
 30
0.0
 11
3.133616739999999
 21
7.668560718099999
 31
0.0
  0
LINE
  5
14C
330
1F
100
AcDbEntity
  8
0
100
AcDbLine
 10
14.46695039119998
 20
7.668560718099999
 30
0.0
 11
14.46695039119998
 21
7.9018940524
 31
0.0
  0
LINE
  5
14D
330
1F
100
AcDbEntity
  8
0
100
AcDbLine
 10
3.133616739999999
 20
7.9018940524
 30
0.0
 11
14.46695039119998
 21
7.9018940524
 31
0.0
  0
ARC
  5
150
330
1F
100
AcDbEntity
  8
0
100
AcDbCircle
 10
3.371496912699998
 20
6.798695271499998
 30
0.0
 40
1.075747791920102
100
AcDbArc
 50
35.4432169636
 51
53.9654861663
  0
ARC
  5
151
330
1F
100
AcDbEntity
  8
0
100
AcDbCircle
 10
4.312150641
 20
6.547724526199998
 30
0.0
 40
1.26677996838721
100
AcDbArc
 50
46.0341971976
 51
62.2258783542
  0
ARC
  5
152
330
1F
100
AcDbEntity
  8
0
100
AcDbCircle
 10
0.6162842477
 20
2.8330853382
 30
0.0
 40
6.506311579889917
100
AcDbArc
 50
21.9648279457
 51
45.3149075889
  0
ARC
  5
154
330
1F
100
AcDbEntity
  8
0
100
AcDbCircle
 10
-2.066910367599998
 20
-453.4912745647
 30
0.0
 40
458.8398331959901
100
AcDbArc
 50
88.9114045932
 51
89.08587320530001
  0
ARC
  5
155
330
1F
100
AcDbEntity
  8
0
100
AcDbCircle
 10
-1.1649803218
 20
3.566999747099998
 30
0.0
 40
6.645620404017522
100
AcDbArc
 50
15.028176122
 51
35.4617341075
  0
ARC
  5
156
330
1F
100
AcDbEntity
  8
0
100
AcDbCircle
 10
12.6683793189
 20
-18.05615089759998
 30
0.0
 40
23.23266894373631
100
AcDbArc
 50
88.30384687719998
 51
88.40480378709999
  0
LINE
  5
157
330
1F
100
AcDbEntity
  8
0
100
AcDbLine
 10
12.025832429
 20
5.1547121998
 30
0.0
 11
12.7747347896
 21
5.1547121998
 31
0.0
  0
LINE
  5
158
330
1F
100
AcDbEntity
  8
0
100
AcDbLine
 10
13.3560461745
 20
5.1663382844
 30
0.0
 11
13.93551498109999
 21
7.328945447599998
 31
0.0
  0
LINE
  5
159
330
1F
100
AcDbEntity
  8
0
100
AcDbLine
 10
14.02523904489999
 20
7.6637997226
 30
0.0
 11
14.0265145843
 21
7.668560718099999
 31
0.0
  0
ARC
  5
15A
330
1F
100
AcDbEntity
  8
0
100
AcDbCircle
 10
16.5845093617
 20
6.7983520844
 30
0.0
 40
2.701641013991074
100
AcDbArc
 50
161.3164235556999
 51
168.670339397
  0
LINE
  5
15B
330
1F
100
AcDbEntity
  8
0
100
AcDbLine
 10
12.40028370869999
 20
5.046195188799998
 30
0.0
 11
12.22695022279999
 21
5.046195188799998
 31
0.0
  0
LINE
  5
15C
330
1F
100
AcDbEntity
  8
0
100
AcDbLine
 10
12.5736167972
 20
5.046195188799998
 30
0.0
 11
12.40028370869999
 21
5.046195188799998
 31
0.0
  0
LINE
  5
285
330
1F
100
AcDbEntity
  8
0
100
AcDbLine
 10
5.191585912799999
 20
7.458958824099998
 30
0.0
 11
5.186447992399998
 21
7.456687440099998
 31
0.0
  0
LINE
  5
286
330
1F
100
AcDbEntity
  8
0
100
AcDbLine
 10
5.186447992399998
 20
7.456687440099998
 30
0.0
 11
5.186447992399998
 21
7.4566873408
 31
0.0
  0
LINE
  5
287
330
1F
100
AcDbEntity
  8
0
100
AcDbLine
 10
12.151009137
 20
5.175792375799999
 30
0.0
 11
11.79385969489999
 21
5.177869796399999
 31
0.0
  0
LINE
  5
288
330
1F
100
AcDbEntity
  8
0
100
AcDbLine
 10
11.79385969489999
 20
5.177869796399999
 30
0.0
 11
11.436720783
 21
5.181340376199998
 31
0.0
  0
LINE
  5
289
330
1F
100
AcDbEntity
  8
0
100
AcDbLine
 10
11.436720783
 20
5.181340376199998
 30
0.0
 11
11.0795798843
 21
5.185836950599998
 31
0.0
  0
LINE
  5
28A
330
1F
100
AcDbEntity
  8
0
100
AcDbLine
 10
11.0795798843
 20
5.185836950599998
 30
0.0
 11
10.7224489197
 21
5.1910507675
 31
0.0
  0
LINE
  5
28B
330
1F
100
AcDbEntity
  8
0
100
AcDbLine
 10
10.7224489197
 20
5.1910507675
 30
0.0
 11
10.21341551789999
 21
5.199270049299999
 31
0.0
  0
LINE
  5
28C
330
1F
100
AcDbEntity
  8
0
100
AcDbLine
 10
10.21341551789999
 20
5.199270049299999
 30
0.0
 11
9.704392546900001
 21
5.2080984907
 31
0.0
  0
LINE
  5
28D
330
1F
100
AcDbEntity
  8
0
100
AcDbLine
 10
9.704392546900001
 20
5.2080984907
 30
0.0
 11
8.6863613074
 21
5.226722955299998
 31
0.0
  0
LINE
  5
28E
330
1F
100
AcDbEntity
  8
0
100
AcDbLine
 10
8.6863613074
 20
5.226722955299998
 30
0.0
 11
6.6503265446
 21
5.265699426
 31
0.0
  0
LINE
  5
296
330
1F
100
AcDbEntity
  8
0
100
AcDbLine
 10
13.3151263938
 20
5.1675142841
 30
0.0
 11
13.3049908226
 21
5.167770981399999
 31
0.0
  0
LINE
  5
297
330
1F
100
AcDbEntity
  8
0
100
AcDbLine
 10
13.3049908226
 20
5.167770981399999
 30
0.0
 11
13.2928656484
 21
5.168032049799998
 31
0.0
  0
LINE
  5
298
330
1F
100
AcDbEntity
  8
0
100
AcDbLine
 10
13.2928656484
 20
5.168032049799998
 30
0.0
 11
13.2810977047
 21
5.1682555672
 31
0.0
  0
LINE
  5
299
330
1F
100
AcDbEntity
  8
0
100
AcDbLine
 10
13.2810977047
 20
5.1682555672
 30
0.0
 11
13.2679433569
 21
5.1684816675
 31
0.0
  0
LINE
  5
29A
330
1F
100
AcDbEntity
  8
0
100
AcDbLine
 10
13.2679433569
 20
5.1684816675
 30
0.0
 11
13.2501354759
 21
5.1687588291
 31
0.0
  0
LINE
  5
29B
330
1F
100
AcDbEntity
  8
0
100
AcDbLine
 10
13.2501354759
 20
5.1687588291
 30
0.0
 11
13.2303340182
 21
5.1690387722
 31
0.0
  0
LINE
  5
29C
330
1F
100
AcDbEntity
  8
0
100
AcDbLine
 10
13.2303340182
 20
5.1690387722
 30
0.0
 11
13.20859064109999
 21
5.1693207022
 31
0.0
  0
LINE
  5
29D
330
1F
100
AcDbEntity
  8
0
100
AcDbLine
 10
13.20859064109999
 20
5.1693207022
 30
0.0
 11
13.1928399151
 21
5.1695116357
 31
0.0
  0
LINE
  5
29E
330
1F
100
AcDbEntity
  8
0
100
AcDbLine
 10
13.1928399151
 20
5.1695116357
 30
0.0
 11
13.17622969
 21
5.1697029666
 31
0.0
  0
LINE
  5
29F
330
1F
100
AcDbEntity
  8
0
100
AcDbLine
 10
13.17622969
 20
5.1697029666
 30
0.0
 11
13.1505627379
 21
5.169981518999999
 31
0.0
  0
LINE
  5
2A0
330
1F
100
AcDbEntity
  8
0
100
AcDbLine
 10
13.1505627379
 20
5.169981518999999
 30
0.0
 11
13.1231243357
 21
5.170260270099999
 31
0.0
  0
LINE
  5
2A1
330
1F
100
AcDbEntity
  8
0
100
AcDbLine
 10
13.1231243357
 20
5.170260270099999
 30
0.0
 11
13.09398879059999
 21
5.1705384251
 31
0.0
  0
LINE
  5
2A2
330
1F
100
AcDbEntity
  8
0
100
AcDbLine
 10
13.09398879059999
 20
5.1705384251
 30
0.0
 11
13.0632323966
 21
5.170815586699998
 31
0.0
  0
LINE
  5
2A3
330
1F
100
AcDbEntity
  8
0
100
AcDbLine
 10
13.0632323966
 20
5.170815586699998
 30
0.0
 11
13.0339128718
 21
5.1710661249
 31
0.0
  0
LINE
  5
2A4
330
1F
100
AcDbEntity
  8
0
100
AcDbLine
 10
13.0339128718
 20
5.1710661249
 30
0.0
 11
13.0033197945
 21
5.1713156696
 31
0.0
  0
LINE
  5
2A5
330
1F
100
AcDbEntity
  8
0
100
AcDbLine
 10
13.0033197945
 20
5.1713156696
 30
0.0
 11
12.97151714019999
 21
5.171563625
 31
0.0
  0
LINE
  5
2A6
330
1F
100
AcDbEntity
  8
0
100
AcDbLine
 10
12.97151714019999
 20
5.171563625
 30
0.0
 11
12.9466635928
 21
5.1717499888
 31
0.0
  0
LINE
  5
2A7
330
1F
100
AcDbEntity
  8
0
100
AcDbLine
 10
12.9466635928
 20
5.1717499888
 30
0.0
 11
12.9211520101
 21
5.171934961899999
 31
0.0
  0
LINE
  5
2A8
330
1F
100
AcDbEntity
  8
0
100
AcDbLine
 10
12.9211520101
 20
5.171934961899999
 30
0.0
 11
12.8960095788
 21
5.1721115903
 31
0.0
  0
LINE
  5
2A9
330
1F
100
AcDbEntity
  8
0
100
AcDbLine
 10
12.8960095788
 20
5.1721115903
 30
0.0
 11
12.8702941482
 21
5.172286430599998
 31
0.0
  0
LINE
  5
2AA
330
1F
100
AcDbEntity
  8
0
100
AcDbLine
 10
12.8702941482
 20
5.172286430599998
 30
0.0
 11
12.834736004
 21
5.1725200808
 31
0.0
  0
LINE
  5
2AB
330
1F
100
AcDbEntity
  8
0
100
AcDbLine
 10
12.834736004
 20
5.1725200808
 30
0.0
 11
12.79821822499999
 21
5.172750750799998
 31
0.0
  0
LINE
  5
2AC
330
1F
100
AcDbEntity
  8
0
100
AcDbLine
 10
12.79821822499999
 20
5.172750750799998
 30
0.0
 11
12.7608182972
 21
5.1729782419
 31
0.0
  0
LINE
  5
2AD
330
1F
100
AcDbEntity
  8
0
100
AcDbLine
 10
12.7608182972
 20
5.1729782419
 30
0.0
 11
12.72189288789999
 21
5.173206527599999
 31
0.0
  0
LINE
  5
2AE
330
1F
100
AcDbEntity
  8
0
100
AcDbLine
 10
12.72189288789999
 20
5.173206527599999
 30
0.0
 11
12.6821330135
 21
5.1734310385
 31
0.0
  0
LINE
  5
2AF
330
1F
100
AcDbEntity
  8
0
100
AcDbLine
 10
12.6821330135
 20
5.1734310385
 30
0.0
 11
12.64162092859999
 21
5.173651376999999
 31
0.0
  0
LINE
  5
2B0
330
1F
100
AcDbEntity
  8
0
100
AcDbLine
 10
12.64162092859999
 20
5.173651376999999
 30
0.0
 11
12.6104842569
 21
5.1738152898
 31
0.0
  0
LINE
  5
2B1
330
1F
100
AcDbEntity
  8
0
100
AcDbLine
 10
12.6104842569
 20
5.1738152898
 30
0.0
 11
12.5789669102
 21
5.1739766197
 31
0.0
  0
LINE
  5
2B2
330
1F
100
AcDbEntity
  8
0
100
AcDbLine
 10
12.5789669102
 20
5.1739766197
 30
0.0
 11
12.5384953564
 21
5.1741772886
 31
0.0
  0
LINE
  5
2B3
330
1F
100
AcDbEntity
  8
0
100
AcDbLine
 10
12.5384953564
 20
5.1741772886
 30
0.0
 11
12.49746630039999
 21
5.174373785299999
 31
0.0
  0
LINE
  5
2B4
330
1F
100
AcDbEntity
  8
0
100
AcDbLine
 10
12.49746630039999
 20
5.174373785299999
 30
0.0
 11
12.4559619968
 21
5.1745657122
 31
0.0
  0
LINE
  5
2B5
330
1F
100
AcDbEntity
  8
0
100
AcDbLine
 10
12.4559619968
 20
5.1745657122
 30
0.0
 11
12.414065892
 21
5.174752870799999
 31
0.0
  0
LINE
  5
2B6
330
1F
100
AcDbEntity
  8
0
100
AcDbLine
 10
12.414065892
 20
5.174752870799999
 30
0.0
 11
12.3718602404
 21
5.1749350623
 31
0.0
  0
LINE
  5
2B7
330
1F
100
AcDbEntity
  8
0
100
AcDbLine
 10
12.3718602404
 20
5.1749350623
 30
0.0
 11
12.32336908029999
 21
5.175136923399999
 31
0.0
  0
LINE
  5
2B8
330
1F
100
AcDbEntity
  8
0
100
AcDbLine
 10
12.32336908029999
 20
5.175136923399999
 30
0.0
 11
12.2745572473
 21
5.175332228
 31
0.0
  0
LINE
  5
2B9
330
1F
100
AcDbEntity
  8
0
100
AcDbLine
 10
12.2745572473
 20
5.175332228
 30
0.0
 11
12.2255495136
 21
5.17552038
 31
0.0
  0
LINE
  5
2BA
330
1F
100
AcDbEntity
  8
0
100
AcDbLine
 10
12.2255495136
 20
5.17552038
 30
0.0
 11
12.1882993922
 21
5.1756584641
 31
0.0
  0
LINE
  5
2BB
330
1F
100
AcDbEntity
  8
0
100
AcDbLine
 10
12.1882993922
 20
5.1756584641
 30
0.0
 11
12.151009137
 21
5.175792375799999
 31
0.0
  0
LINE
  5
2C8
330
1F
100
AcDbEntity
  8
0
100
AcDbLine
 10
6.6437114224
 20
13.1728284841
 30
0.0
 11
6.597246025499999
 21
13.1746467238
 31
0.0
  0
LINE
  5
2C9
330
1F
100
AcDbEntity
  8
0
100
AcDbLine
 10
6.597246025499999
 20
13.1746467238
 30
0.0
 11
6.5508287097
 21
13.1780223335
 31
0.0
  0
LINE
  5
2CA
330
1F
100
AcDbEntity
  8
0
100
AcDbLine
 10
6.5508287097
 20
13.1780223335
 30
0.0
 11
6.504536364999998
 21
13.1829457765
 31
0.0
  0
LINE
  5
2CB
330
1F
100
AcDbEntity
  8
0
100
AcDbLine
 10
6.504536364999998
 20
13.1829457765
 30
0.0
 11
6.458446477399998
 21
13.1894078141
 31
0.0
  0
LINE
  5
2CC
330
1F
100
AcDbEntity
  8
0
100
AcDbLine
 10
6.458446477399998
 20
13.1894078141
 30
0.0
 11
6.412636532899999
 21
13.1973991081
 31
0.0
  0
LINE
  5
2CD
330
1F
100
AcDbEntity
  8
0
100
AcDbLine
 10
6.412636532899999
 20
13.1973991081
 30
0.0
 11
6.365793242599998
 21
13.20722155619999
 31
0.0
  0
LINE
  5
2CE
330
1F
100
AcDbEntity
  8
0
100
AcDbLine
 10
6.365793242599998
 20
13.20722155619999
 30
0.0
 11
6.319273605499999
 21
13.2186553166
 31
0.0
  0
LINE
  5
2CF
330
1F
100
AcDbEntity
  8
0
100
AcDbLine
 10
6.319273605499999
 20
13.2186553166
 30
0.0
 11
6.273157889199999
 21
13.2316759512
 31
0.0
  0
LINE
  5
2D0
330
1F
100
AcDbEntity
  8
0
100
AcDbLine
 10
6.273157889199999
 20
13.2316759512
 30
0.0
 11
6.227526361299998
 21
13.2462587243
 31
0.0
  0
LINE
  5
2D1
330
1F
100
AcDbEntity
  8
0
100
AcDbLine
 10
6.227526361299998
 20
13.2462587243
 30
0.0
 11
6.182459686699999
 21
13.26237909849999
 31
0.0
  0
LINE
  5
2D2
330
1F
100
AcDbEntity
  8
0
100
AcDbLine
 10
6.182459686699999
 20
13.26237909849999
 30
0.0
 11
6.1285079464
 21
13.2840183661
 31
0.0
  0
LINE
  5
2D3
330
1F
100
AcDbEntity
  8
0
100
AcDbLine
 10
6.1285079464
 20
13.2840183661
 30
0.0
 11
6.075451666599998
 21
13.3078911191
 31
0.0
  0
LINE
  5
2D4
330
1F
100
AcDbEntity
  8
0
100
AcDbLine
 10
6.075451666599998
 20
13.3078911191
 30
0.0
 11
6.023424560299998
 21
13.3339317923
 31
0.0
  0
LINE
  5
2D5
330
1F
100
AcDbEntity
  8
0
100
AcDbLine
 10
6.023424560299998
 20
13.3339317923
 30
0.0
 11
5.9725603407
 21
13.3620750194
 31
0.0
  0
LINE
  5
2D6
330
1F
100
AcDbEntity
  8
0
100
AcDbLine
 10
5.9725603407
 20
13.3620750194
 30
0.0
 11
5.931611154999998
 21
13.38679713859999
 31
0.0
  0
LINE
  5
2D7
330
1F
100
AcDbEntity
  8
0
100
AcDbLine
 10
5.931611154999998
 20
13.38679713859999
 30
0.0
 11
5.891490672499998
 21
13.4129187748
 31
0.0
  0
LINE
  5
2D8
330
1F
100
AcDbEntity
  8
0
100
AcDbLine
 10
5.891490672499998
 20
13.4129187748
 30
0.0
 11
5.852265849199999
 21
13.4403919464
 31
0.0
  0
LINE
  5
2D9
330
1F
100
AcDbEntity
  8
0
100
AcDbLine
 10
5.852265849199999
 20
13.4403919464
 30
0.0
 11
5.8140040383
 21
13.4691684728
 31
0.0
  0
LINE
  5
2DA
330
1F
100
AcDbEntity
  8
0
100
AcDbLine
 10
5.8140040383
 20
13.4691684728
 30
0.0
 11
5.7767719969
 21
13.4992002731
 31
0.0
  0
LINE
  5
2DB
330
1F
100
AcDbEntity
  8
0
100
AcDbLine
 10
5.7767719969
 20
13.4992002731
 30
0.0
 11
5.7326486652
 21
13.5376312619
 31
0.0
  0
LINE
  5
2DC
330
1F
100
AcDbEntity
  8
0
100
AcDbLine
 10
5.7326486652
 20
13.5376312619
 30
0.0
 11
5.690116578899998
 21
13.5778898284
 31
0.0
  0
LINE
  5
2DD
330
1F
100
AcDbEntity
  8
0
100
AcDbLine
 10
5.690116578899998
 20
13.5778898284
 30
0.0
 11
5.649281834099998
 21
13.6198696778
 31
0.0
  0
LINE
  5
2DE
330
1F
100
AcDbEntity
  8
0
100
AcDbLine
 10
5.649281834099998
 20
13.6198696778
 30
0.0
 11
5.610250129799998
 21
13.6634643163
 31
0.0
  0
LINE
  5
2DF
330
1F
100
AcDbEntity
  8
0
100
AcDbLine
 10
5.610250129799998
 20
13.6634643163
 30
0.0
 11
5.579509829
 21
13.7005297626
 31
0.0
  0
LINE
  5
2E0
330
1F
100
AcDbEntity
  8
0
100
AcDbLine
 10
5.579509829
 20
13.7005297626
 30
0.0
 11
5.550024206
 21
13.7386544829
 31
0.0
  0
LINE
  5
2E1
330
1F
100
AcDbEntity
  8
0
100
AcDbLine
 10
5.550024206
 20
13.7386544829
 30
0.0
 11
5.521842732499998
 21
13.7777706767
 31
0.0
  0
LINE
  5
2E2
330
1F
100
AcDbEntity
  8
0
100
AcDbLine
 10
5.521842732499998
 20
13.7777706767
 30
0.0
 11
5.495014880599999
 21
13.8178105439
 31
0.0
  0
LINE
  5
2E3
330
1F
100
AcDbEntity
  8
0
100
AcDbLine
 10
5.495014880599999
 20
13.8178105439
 30
0.0
 11
5.4695897247
 21
13.8587064331
 31
0.0
  0
LINE
  5
2E4
330
1F
100
AcDbEntity
  8
0
100
AcDbLine
 10
5.4695897247
 20
13.8587064331
 30
0.0
 11
5.446135892999999
 21
13.8994412904
 31
0.0
  0
LINE
  5
2E5
330
1F
100
AcDbEntity
  8
0
100
AcDbLine
 10
5.446135892999999
 20
13.8994412904
 30
0.0
 11
5.4240329012
 21
13.9409689392
 31
0.0
  0
LINE
  5
2E6
330
1F
100
AcDbEntity
  8
0
100
AcDbLine
 10
5.4240329012
 20
13.9409689392
 30
0.0
 11
5.403315121399998
 21
13.98321964199999
 31
0.0
  0
LINE
  5
2E7
330
1F
100
AcDbEntity
  8
0
100
AcDbLine
 10
5.403315121399998
 20
13.98321964199999
 30
0.0
 11
5.384017521699999
 21
14.0261235123
 31
0.0
  0
LINE
  5
2E8
330
1F
100
AcDbEntity
  8
0
100
AcDbLine
 10
5.384017521699999
 20
14.0261235123
 30
0.0
 11
5.3661758647
 21
14.0696106638
 31
0.0
  0
LINE
  5
2E9
330
1F
100
AcDbEntity
  8
0
100
AcDbLine
 10
5.3661758647
 20
14.0696106638
 30
0.0
 11
5.349343512999999
 21
14.11496602349999
 31
0.0
  0
LINE
  5
2EA
330
1F
100
AcDbEntity
  8
0
100
AcDbLine
 10
5.349343512999999
 20
14.11496602349999
 30
0.0
 11
5.334066047799999
 21
14.1609140024
 31
0.0
  0
LINE
  5
2EB
330
1F
100
AcDbEntity
  8
0
100
AcDbLine
 10
5.334066047799999
 20
14.1609140024
 30
0.0
 11
5.3203692978
 21
14.20737276829999
 31
0.0
  0
LINE
  5
2EC
330
1F
100
AcDbEntity
  8
0
100
AcDbLine
 10
5.3203692978
 20
14.20737276829999
 30
0.0
 11
5.3082798864
 21
14.254260464
 31
0.0
  0
LINE
  5
2ED
330
1F
100
AcDbEntity
  8
0
100
AcDbLine
 10
5.3082798864
 20
14.254260464
 30
0.0
 11
5.2978236422
 21
14.3014952576
 31
0.0
  0
LINE
  5
2EE
330
1F
100
AcDbEntity
  8
0
100
AcDbLine
 10
5.2978236422
 20
14.3014952576
 30
0.0
 11
5.2877695307
 21
14.3566153234
 31
0.0
  0
LINE
  5
2EF
330
1F
100
AcDbEntity
  8
0
100
AcDbLine
 10
5.2877695307
 20
14.3566153234
 30
0.0
 11
5.279921983199998
 21
14.4121609788
 31
0.0
  0
LINE
  5
2F0
330
1F
100
AcDbEntity
  8
0
100
AcDbLine
 10
5.279921983199998
 20
14.4121609788
 30
0.0
 11
5.274297291599999
 21
14.4679981505
 31
0.0
  0
LINE
  5
2F1
330
1F
100
AcDbEntity
  8
0
100
AcDbLine
 10
5.274297291599999
 20
14.4679981505
 30
0.0
 11
5.2709105556
 21
14.523992722
 31
0.0
  0
LINE
  5
2F2
330
1F
100
AcDbEntity
  8
0
100
AcDbLine
 10
5.2709105556
 20
14.523992722
 30
0.0
 11
5.269778067399998
 21
14.5800106014
 31
0.0
  0
LINE
  5
2F3
330
1F
100
AcDbEntity
  8
0
100
AcDbLine
 10
4.060004447399998
 20
16.51201807309999
 30
0.0
 11
4.727782303599998
 21
16.5118015096
 31
0.0
  0
LINE
  5
2F4
330
1F
100
AcDbEntity
  8
0
100
AcDbLine
 10
4.727782303599998
 20
16.5118015096
 30
0.0
 11
5.979183211399998
 21
16.5116509085
 31
0.0
  0
LINE
  5
2F5
330
1F
100
AcDbEntity
  8
0
100
AcDbLine
 10
5.979183211399998
 20
12.6483702943
 30
0.0
 11
4.727782303599998
 21
12.6482196932
 31
0.0
  0
LINE
  5
2F6
330
1F
100
AcDbEntity
  8
0
100
AcDbLine
 10
4.727782303599998
 20
12.6482196932
 30
0.0
 11
4.060004447399998
 21
12.6480031297
 31
0.0
  0
LINE
  5
2F7
330
1F
100
AcDbEntity
  8
0
100
AcDbLine
 10
5.1965227669
 20
12.7336730843
 30
0.0
 11
5.1965223695
 21
12.73367328299999
 31
0.0
  0
LINE
  5
2F8
330
1F
100
AcDbEntity
  8
0
100
AcDbLine
 10
5.1965223695
 20
12.73367328299999
 30
0.0
 11
5.1514080112
 21
12.7699619815
 31
0.0
  0
LINE
  5
2F9
330
1F
100
AcDbEntity
  8
0
100
AcDbLine
 10
5.1514080112
 20
12.7699619815
 30
0.0
 11
5.107161099199998
 21
12.8073307162
 31
0.0
  0
LINE
  5
2FA
330
1F
100
AcDbEntity
  8
0
100
AcDbLine
 10
5.107161099199998
 20
12.8073307162
 30
0.0
 11
5.0638229594
 21
12.8457498834
 31
0.0
  0
LINE
  5
2FB
330
1F
100
AcDbEntity
  8
0
100
AcDbLine
 10
5.0638229594
 20
12.8457498834
 30
0.0
 11
5.021433328099998
 21
12.88519007819999
 31
0.0
  0
LINE
  5
2FC
330
1F
100
AcDbEntity
  8
0
100
AcDbLine
 10
5.021433328099998
 20
12.88519007819999
 30
0.0
 11
4.9734492049
 21
12.9321974799
 31
0.0
  0
LINE
  5
2FD
330
1F
100
AcDbEntity
  8
0
100
AcDbLine
 10
4.9734492049
 20
12.9321974799
 30
0.0
 11
4.926719163399998
 21
12.98052264109998
 31
0.0
  0
LINE
  5
2FE
330
1F
100
AcDbEntity
  8
0
100
AcDbLine
 10
4.926719163399998
 20
12.98052264109998
 30
0.0
 11
4.881274992699998
 21
13.0300998971
 31
0.0
  0
LINE
  5
2FF
330
1F
100
AcDbEntity
  8
0
100
AcDbLine
 10
4.881274992699998
 20
13.0300998971
 30
0.0
 11
4.837148482099999
 21
13.0808637823
 31
0.0
  0
LINE
  5
300
330
1F
100
AcDbEntity
  8
0
100
AcDbLine
 10
4.837148482099999
 20
13.0808637823
 30
0.0
 11
4.7943702286
 21
13.1327487315
 31
0.0
  0
LINE
  5
301
330
1F
100
AcDbEntity
  8
0
100
AcDbLine
 10
4.7943702286
 20
13.1327487315
 30
0.0
 11
4.752972418599998
 21
13.185689279
 31
0.0
  0
LINE
  5
302
330
1F
100
AcDbEntity
  8
0
100
AcDbLine
 10
4.752972418599998
 20
13.185689279
 30
0.0
 11
4.707889054699998
 21
13.2467603967
 31
0.0
  0
LINE
  5
303
330
1F
100
AcDbEntity
  8
0
100
AcDbLine
 10
4.707889054699998
 20
13.2467603967
 30
0.0
 11
4.664606148499998
 21
13.3092149382
 31
0.0
  0
LINE
  5
304
330
1F
100
AcDbEntity
  8
0
100
AcDbLine
 10
4.664606148499998
 20
13.3092149382
 30
0.0
 11
4.6232007886
 21
13.37297571549999
 31
0.0
  0
LINE
  5
305
330
1F
100
AcDbEntity
  8
0
100
AcDbLine
 10
4.6232007886
 20
13.37297571549999
 30
0.0
 11
4.5837516532
 21
13.4379652426
 31
0.0
  0
LINE
  5
306
330
1F
100
AcDbEntity
  8
0
100
AcDbLine
 10
4.5837516532
 20
13.4379652426
 30
0.0
 11
4.5463366255
 21
13.50410653009999
 31
0.0
  0
LINE
  5
307
330
1F
100
AcDbEntity
  8
0
100
AcDbLine
 10
4.5463366255
 20
13.50410653009999
 30
0.0
 11
4.5110339865
 21
13.571322092
 31
0.0
  0
LINE
  5
308
330
1F
100
AcDbEntity
  8
0
100
AcDbLine
 10
4.5110339865
 20
13.571322092
 30
0.0
 11
4.4791081493
 21
13.63697511809998
 31
0.0
  0
LINE
  5
309
330
1F
100
AcDbEntity
  8
0
100
AcDbLine
 10
4.4791081493
 20
13.63697511809998
 30
0.0
 11
4.449194167599999
 21
13.7036082432
 31
0.0
  0
LINE
  5
30A
330
1F
100
AcDbEntity
  8
0
100
AcDbLine
 10
4.449194167599999
 20
13.7036082432
 30
0.0
 11
4.4213584011
 21
13.771134991
 31
0.0
  0
LINE
  5
30B
330
1F
100
AcDbEntity
  8
0
100
AcDbLine
 10
4.4213584011
 20
13.771134991
 30
0.0
 11
4.395666017599999
 21
13.839468587
 31
0.0
  0
LINE
  5
30C
330
1F
100
AcDbEntity
  8
0
100
AcDbLine
 10
4.395666017599999
 20
13.839468587
 30
0.0
 11
4.376385901899999
 21
13.8956060792
 31
0.0
  0
LINE
  5
30D
330
1F
100
AcDbEntity
  8
0
100
AcDbLine
 10
4.376385901899999
 20
13.8956060792
 30
0.0
 11
4.358563715699999
 21
13.95225587339999
 31
0.0
  0
LINE
  5
30E
330
1F
100
AcDbEntity
  8
0
100
AcDbLine
 10
4.358563715699999
 20
13.95225587339999
 30
0.0
 11
4.342228069399999
 21
14.0093619908
 31
0.0
  0
LINE
  5
30F
330
1F
100
AcDbEntity
  8
0
100
AcDbLine
 10
4.342228069399999
 20
14.0093619908
 30
0.0
 11
4.3274067785
 21
14.0668684528
 31
0.0
  0
LINE
  5
310
330
1F
100
AcDbEntity
  8
0
100
AcDbLine
 10
4.3274067785
 20
14.0668684528
 30
0.0
 11
4.3141288504
 21
14.1247191812
 31
0.0
  0
LINE
  5
311
330
1F
100
AcDbEntity
  8
0
100
AcDbLine
 10
4.3141288504
 20
14.1247191812
 30
0.0
 11
4.3028425122
 21
14.1806034779
 31
0.0
  0
LINE
  5
312
330
1F
100
AcDbEntity
  8
0
100
AcDbLine
 10
4.3028425122
 20
14.1806034779
 30
0.0
 11
4.293004566899998
 21
14.2367804582
 31
0.0
  0
LINE
  5
313
330
1F
100
AcDbEntity
  8
0
100
AcDbLine
 10
4.293004566899998
 20
14.2367804582
 30
0.0
 11
4.284633293299998
 21
14.293194218
 31
0.0
  0
LINE
  5
314
330
1F
100
AcDbEntity
  8
0
100
AcDbLine
 10
4.284633293299998
 20
14.293194218
 30
0.0
 11
4.277746572599999
 21
14.3497888282
 31
0.0
  0
LINE
  5
315
330
1F
100
AcDbEntity
  8
0
100
AcDbLine
 10
4.277746572599999
 20
14.3497888282
 30
0.0
 11
4.272306258
 21
14.4071872567
 31
0.0
  0
LINE
  5
316
330
1F
100
AcDbEntity
  8
0
100
AcDbLine
 10
4.272306258
 20
14.4071872567
 30
0.0
 11
4.2684061274
 21
14.46473189049999
 31
0.0
  0
LINE
  5
317
330
1F
100
AcDbEntity
  8
0
100
AcDbLine
 10
4.2684061274
 20
14.46473189049999
 30
0.0
 11
4.2660584991
 21
14.5223603433
 31
0.0
  0
LINE
  5
318
330
1F
100
AcDbEntity
  8
0
100
AcDbLine
 10
4.2660584991
 20
14.5223603433
 30
0.0
 11
4.2652744994
 21
14.5800102014
 31
0.0
  0
LINE
  5
319
330
1F
100
AcDbEntity
  8
0
100
AcDbLine
 10
4.2652744994
 20
14.5800102014
 30
0.0
 11
4.2652744994
 21
14.5800106014
 31
0.0
  0
LINE
  5
31A
330
1F
100
AcDbEntity
  8
0
100
AcDbLine
 10
4.060004447399998
 20
12.6480031297
 30
0.0
 11
4.121428623299999
 21
12.6482431377
 31
0.0
  0
LINE
  5
31B
330
1F
100
AcDbEntity
  8
0
100
AcDbLine
 10
4.121428623299999
 20
12.6482431377
 30
0.0
 11
4.1828102812
 21
12.6489035572
 31
0.0
  0
LINE
  5
31C
330
1F
100
AcDbEntity
  8
0
100
AcDbLine
 10
4.1828102812
 20
12.6489035572
 30
0.0
 11
4.244041338099998
 21
12.6499796197
 31
0.0
  0
LINE
  5
31D
330
1F
100
AcDbEntity
  8
0
100
AcDbLine
 10
4.244041338099998
 20
12.6499796197
 30
0.0
 11
4.305014108099999
 21
12.6514673517
 31
0.0
  0
LINE
  5
31E
330
1F
100
AcDbEntity
  8
0
100
AcDbLine
 10
4.305014108099999
 20
12.6514673517
 30
0.0
 11
4.366869424299998
 21
12.65340509869999
 31
0.0
  0
LINE
  5
31F
330
1F
100
AcDbEntity
  8
0
100
AcDbLine
 10
4.366869424299998
 20
12.65340509869999
 30
0.0
 11
4.428384199299999
 21
12.6557660386
 31
0.0
  0
LINE
  5
320
330
1F
100
AcDbEntity
  8
0
100
AcDbLine
 10
4.428384199299999
 20
12.6557660386
 30
0.0
 11
4.4894459789
 21
12.65854659529999
 31
0.0
  0
LINE
  5
321
330
1F
100
AcDbEntity
  8
0
100
AcDbLine
 10
4.4894459789
 20
12.65854659529999
 30
0.0
 11
4.549942706499999
 21
12.6617435898
 31
0.0
  0
LINE
  5
322
330
1F
100
AcDbEntity
  8
0
100
AcDbLine
 10
4.549942706499999
 20
12.6617435898
 30
0.0
 11
4.5973733013
 21
12.6645678565
 31
0.0
  0
LINE
  5
323
330
1F
100
AcDbEntity
  8
0
100
AcDbLine
 10
4.5973733013
 20
12.6645678565
 30
0.0
 11
4.6444025581
 21
12.6676545824
 31
0.0
  0
LINE
  5
324
330
1F
100
AcDbEntity
  8
0
100
AcDbLine
 10
4.6444025581
 20
12.6676545824
 30
0.0
 11
4.6909665014
 21
12.6710037674
 31
0.0
  0
LINE
  5
325
330
1F
100
AcDbEntity
  8
0
100
AcDbLine
 10
4.6909665014
 20
12.6710037674
 30
0.0
 11
4.737000757999998
 21
12.67461600749999
 31
0.0
  0
LINE
  5
326
330
1F
100
AcDbEntity
  8
0
100
AcDbLine
 10
4.737000757999998
 20
12.67461600749999
 30
0.0
 11
4.782491817599999
 21
12.67849587259999
 31
0.0
  0
LINE
  5
327
330
1F
100
AcDbEntity
  8
0
100
AcDbLine
 10
4.782491817599999
 20
12.67849587259999
 30
0.0
 11
4.8273900097
 21
12.6826463427
 31
0.0
  0
LINE
  5
328
330
1F
100
AcDbEntity
  8
0
100
AcDbLine
 10
4.8273900097
 20
12.6826463427
 30
0.0
 11
4.871615463999999
 21
12.6870680139
 31
0.0
  0
LINE
  5
329
330
1F
100
AcDbEntity
  8
0
100
AcDbLine
 10
4.871615463999999
 20
12.6870680139
 30
0.0
 11
4.915087118299998
 21
12.6917618797
 31
0.0
  0
LINE
  5
32A
330
1F
100
AcDbEntity
  8
0
100
AcDbLine
 10
4.915087118299998
 20
12.6917618797
 30
0.0
 11
4.960415655899999
 21
12.6970549708
 31
0.0
  0
LINE
  5
32B
330
1F
100
AcDbEntity
  8
0
100
AcDbLine
 10
4.960415655899999
 20
12.6970549708
 30
0.0
 11
5.0047758167
 21
12.7026717152
 31
0.0
  0
LINE
  5
32C
330
1F
100
AcDbEntity
  8
0
100
AcDbLine
 10
5.0047758167
 20
12.7026717152
 30
0.0
 11
5.048019383899998
 21
12.7086152917
 31
0.0
  0
LINE
  5
32D
330
1F
100
AcDbEntity
  8
0
100
AcDbLine
 10
5.048019383899998
 20
12.7086152917
 30
0.0
 11
5.089998935199998
 21
12.7148886805
 31
0.0
  0
LINE
  5
32E
330
1F
100
AcDbEntity
  8
0
100
AcDbLine
 10
5.089998935199998
 20
12.7148886805
 30
0.0
 11
5.117663835
 21
12.7193318094
 31
0.0
  0
LINE
  5
32F
330
1F
100
AcDbEntity
  8
0
100
AcDbLine
 10
5.117663835
 20
12.7193318094
 30
0.0
 11
5.144646062999998
 21
12.7239352748
 31
0.0
  0
LINE
  5
330
330
1F
100
AcDbEntity
  8
0
100
AcDbLine
 10
5.144646062999998
 20
12.7239352748
 30
0.0
 11
5.1709889318
 21
12.72872033569999
 31
0.0
  0
LINE
  5
331
330
1F
100
AcDbEntity
  8
0
100
AcDbLine
 10
5.1709889318
 20
12.72872033569999
 30
0.0
 11
5.1965227669
 21
12.7336730843
 31
0.0
  0
LINE
  5
332
330
1F
100
AcDbEntity
  8
0
100
AcDbLine
 10
4.2652744994
 20
14.5800106014
 30
0.0
 11
4.2652744994
 21
14.5800110014
 31
0.0
  0
LINE
  5
333
330
1F
100
AcDbEntity
  8
0
100
AcDbLine
 10
4.2652744994
 20
14.5800110014
 30
0.0
 11
4.2655208652
 21
14.6123636021
 31
0.0
  0
LINE
  5
334
330
1F
100
AcDbEntity
  8
0
100
AcDbLine
 10
4.2655208652
 20
14.6123636021
 30
0.0
 11
4.2673260912
 21
14.6732760628
 31
0.0
  0
LINE
  5
335
330
1F
100
AcDbEntity
  8
0
100
AcDbLine
 10
4.2673260912
 20
14.6732760628
 30
0.0
 11
4.270874554399998
 21
14.7341485232
 31
0.0
  0
LINE
  5
336
330
1F
100
AcDbEntity
  8
0
100
AcDbLine
 10
4.270874554399998
 20
14.7341485232
 30
0.0
 11
4.276149168099999
 21
14.7949087903
 31
0.0
  0
LINE
  5
337
330
1F
100
AcDbEntity
  8
0
100
AcDbLine
 10
4.276149168099999
 20
14.7949087903
 30
0.0
 11
4.2831340378
 21
14.85548464309998
 31
0.0
  0
LINE
  5
338
330
1F
100
AcDbEntity
  8
0
100
AcDbLine
 10
4.2831340378
 20
14.85548464309998
 30
0.0
 11
4.291812473999998
 21
14.9158038979
 31
0.0
  0
LINE
  5
339
330
1F
100
AcDbEntity
  8
0
100
AcDbLine
 10
4.291812473999998
 20
14.9158038979
 30
0.0
 11
4.3024034247
 21
14.9770717606
 31
0.0
  0
LINE
  5
33A
330
1F
100
AcDbEntity
  8
0
100
AcDbLine
 10
4.3024034247
 20
14.9770717606
 30
0.0
 11
4.314730459999998
 21
15.0380511865
 31
0.0
  0
LINE
  5
33B
330
1F
100
AcDbEntity
  8
0
100
AcDbLine
 10
4.314730459999998
 20
15.0380511865
 30
0.0
 11
4.328763777499998
 21
15.09867397799999
 31
0.0
  0
LINE
  5
33C
330
1F
100
AcDbEntity
  8
0
100
AcDbLine
 10
4.328763777499998
 20
15.09867397799999
 30
0.0
 11
4.344475164499998
 21
15.1588720863
 31
0.0
  0
LINE
  5
33D
330
1F
100
AcDbEntity
  8
0
100
AcDbLine
 10
4.344475164499998
 20
15.1588720863
 30
0.0
 11
4.361835216
 21
15.2185773636
 31
0.0
  0
LINE
  5
33E
330
1F
100
AcDbEntity
  8
0
100
AcDbLine
 10
4.361835216
 20
15.2185773636
 30
0.0
 11
4.378958835699998
 21
15.27219000309998
 31
0.0
  0
LINE
  5
33F
330
1F
100
AcDbEntity
  8
0
100
AcDbLine
 10
4.378958835699998
 20
15.27219000309998
 30
0.0
 11
4.3974024996
 21
15.3253806418
 31
0.0
  0
LINE
  5
340
330
1F
100
AcDbEntity
  8
0
100
AcDbLine
 10
4.3974024996
 20
15.3253806418
 30
0.0
 11
4.4171387896
 21
15.3781055694
 31
0.0
  0
LINE
  5
341
330
1F
100
AcDbEntity
  8
0
100
AcDbLine
 10
4.4171387896
 20
15.3781055694
 30
0.0
 11
4.4381410822
 21
15.4303210264
 31
0.0
  0
LINE
  5
342
330
1F
100
AcDbEntity
  8
0
100
AcDbLine
 10
4.4381410822
 20
15.4303210264
 30
0.0
 11
4.4606092518
 21
15.48250290609999
 31
0.0
  0
LINE
  5
343
330
1F
100
AcDbEntity
  8
0
100
AcDbLine
 10
4.4606092518
 20
15.48250290609999
 30
0.0
 11
4.484330708299999
 21
15.5341444696
 31
0.0
  0
LINE
  5
344
330
1F
100
AcDbEntity
  8
0
100
AcDbLine
 10
4.484330708299999
 20
15.5341444696
 30
0.0
 11
4.5092736627
 21
15.5852073714
 31
0.0
  0
LINE
  5
345
330
1F
100
AcDbEntity
  8
0
100
AcDbLine
 10
4.5092736627
 20
15.5852073714
 30
0.0
 11
4.535406325799999
 21
15.6356527691
 31
0.0
  0
LINE
  5
346
330
1F
100
AcDbEntity
  8
0
100
AcDbLine
 10
4.535406325799999
 20
15.6356527691
 30
0.0
 11
4.567746613899998
 21
15.69436205279999
 31
0.0
  0
LINE
  5
347
330
1F
100
AcDbEntity
  8
0
100
AcDbLine
 10
4.567746613899998
 20
15.69436205279999
 30
0.0
 11
4.6017033801
 21
15.7522051817
 31
0.0
  0
LINE
  5
348
330
1F
100
AcDbEntity
  8
0
100
AcDbLine
 10
4.6017033801
 20
15.7522051817
 30
0.0
 11
4.637222185299998
 21
15.8091296042
 31
0.0
  0
LINE
  5
349
330
1F
100
AcDbEntity
  8
0
100
AcDbLine
 10
4.637222185299998
 20
15.8091296042
 30
0.0
 11
4.674250179999998
 21
15.86508296779999
 31
0.0
  0
LINE
  5
34A
330
1F
100
AcDbEntity
  8
0
100
AcDbLine
 10
4.674250179999998
 20
15.86508296779999
 30
0.0
 11
4.7127333229
 21
15.9200128203
 31
0.0
  0
LINE
  5
34B
330
1F
100
AcDbEntity
  8
0
100
AcDbLine
 10
4.7127333229
 20
15.9200128203
 30
0.0
 11
4.7526179696
 21
15.97386651089998
 31
0.0
  0
LINE
  5
34C
330
1F
100
AcDbEntity
  8
0
100
AcDbLine
 10
4.7526179696
 20
15.97386651089998
 30
0.0
 11
4.794111544399998
 21
16.02694871879998
 31
0.0
  0
LINE
  5
34D
330
1F
100
AcDbEntity
  8
0
100
AcDbLine
 10
4.794111544399998
 20
16.02694871879998
 30
0.0
 11
4.8369915232
 21
16.0789710567
 31
0.0
  0
LINE
  5
34E
330
1F
100
AcDbEntity
  8
0
100
AcDbLine
 10
4.8369915232
 20
16.0789710567
 30
0.0
 11
4.881226911699998
 21
16.1298670655
 31
0.0
  0
LINE
  5
34F
330
1F
100
AcDbEntity
  8
0
100
AcDbLine
 10
4.881226911699998
 20
16.1298670655
 30
0.0
 11
4.9267859206
 21
16.17957038539999
 31
0.0
  0
LINE
  5
350
330
1F
100
AcDbEntity
  8
0
100
AcDbLine
 10
4.9267859206
 20
16.17957038539999
 30
0.0
 11
4.973637555599998
 21
16.2280148551
 31
0.0
  0
LINE
  5
351
330
1F
100
AcDbEntity
  8
0
100
AcDbLine
 10
4.973637555599998
 20
16.2280148551
 30
0.0
 11
5.0217508222
 21
16.275134115
 31
0.0
  0
LINE
  5
352
330
1F
100
AcDbEntity
  8
0
100
AcDbLine
 10
5.0217508222
 20
16.275134115
 30
0.0
 11
5.0640665437
 21
16.3144926514
 31
0.0
  0
LINE
  5
353
330
1F
100
AcDbEntity
  8
0
100
AcDbLine
 10
5.0640665437
 20
16.3144926514
 30
0.0
 11
5.1073271975
 21
16.3528345312
 31
0.0
  0
LINE
  5
354
330
1F
100
AcDbEntity
  8
0
100
AcDbLine
 10
5.1073271975
 20
16.3528345312
 30
0.0
 11
5.151492649799998
 21
16.3901295548
 31
0.0
  0
LINE
  5
355
330
1F
100
AcDbEntity
  8
0
100
AcDbLine
 10
5.151492649799998
 20
16.3901295548
 30
0.0
 11
5.1965231642
 21
16.4263477212
 31
0.0
  0
LINE
  5
356
330
1F
100
AcDbEntity
  8
0
100
AcDbLine
 10
5.1965231642
 20
16.4263477212
 30
0.0
 11
5.1965235616
 21
16.4263479198
 31
0.0
  0
LINE
  5
357
330
1F
100
AcDbEntity
  8
0
100
AcDbLine
 10
4.060004447399998
 20
16.51201807309999
 30
0.0
 11
4.059572512399998
 21
16.51147189589999
 31
0.0
  0
LINE
  5
358
330
1F
100
AcDbEntity
  8
0
100
AcDbLine
 10
4.059572512399998
 20
16.51147189589999
 30
0.0
 11
4.01810119
 21
16.4577613558
 31
0.0
  0
LINE
  5
359
330
1F
100
AcDbEntity
  8
0
100
AcDbLine
 10
4.01810119
 20
16.4577613558
 30
0.0
 11
3.977836663
 21
16.4031180029
 31
0.0
  0
LINE
  5
35A
330
1F
100
AcDbEntity
  8
0
100
AcDbLine
 10
3.977836663
 20
16.4031180029
 30
0.0
 11
3.9388059522
 21
16.3475859449
 31
0.0
  0
LINE
  5
35B
330
1F
100
AcDbEntity
  8
0
100
AcDbLine
 10
3.9388059522
 20
16.3475859449
 30
0.0
 11
3.901035680899998
 21
16.291209289
 31
0.0
  0
LINE
  5
35C
330
1F
100
AcDbEntity
  8
0
100
AcDbLine
 10
3.901035680899998
 20
16.291209289
 30
0.0
 11
3.864242131
 21
16.2335391129
 31
0.0
  0
LINE
  5
35D
330
1F
100
AcDbEntity
  8
0
100
AcDbLine
 10
3.864242131
 20
16.2335391129
 30
0.0
 11
3.8287372336
 21
16.17504659149999
 31
0.0
  0
LINE
  5
35E
330
1F
100
AcDbEntity
  8
0
100
AcDbLine
 10
3.8287372336
 20
16.17504659149999
 30
0.0
 11
3.794540459399998
 21
16.1157795077
 31
0.0
  0
LINE
  5
35F
330
1F
100
AcDbEntity
  8
0
100
AcDbLine
 10
3.794540459399998
 20
16.1157795077
 30
0.0
 11
3.7616704847
 21
16.0557854459
 31
0.0
  0
LINE
  5
360
330
1F
100
AcDbEntity
  8
0
100
AcDbLine
 10
3.7616704847
 20
16.0557854459
 30
0.0
 11
3.726034059599998
 21
15.9869530087
 31
0.0
  0
LINE
  5
361
330
1F
100
AcDbEntity
  8
0
100
AcDbLine
 10
3.726034059599998
 20
15.9869530087
 30
0.0
 11
3.692105506399998
 21
15.9172363366
 31
0.0
  0
LINE
  5
362
330
1F
100
AcDbEntity
  8
0
100
AcDbLine
 10
3.692105506399998
 20
15.9172363366
 30
0.0
 11
3.6599090641
 21
15.8467028822
 31
0.0
  0
LINE
  5
363
330
1F
100
AcDbEntity
  8
0
100
AcDbLine
 10
3.6599090641
 20
15.8467028822
 30
0.0
 11
3.6294677799
 21
15.7754201974
 31
0.0
  0
LINE
  5
364
330
1F
100
AcDbEntity
  8
0
100
AcDbLine
 10
3.6294677799
 20
15.7754201974
 30
0.0
 11
3.600512240799998
 21
15.7026971663
 31
0.0
  0
LINE
  5
365
330
1F
100
AcDbEntity
  8
0
100
AcDbLine
 10
3.600512240799998
 20
15.7026971663
 30
0.0
 11
3.573356761999998
 21
15.6292574888
 31
0.0
  0
LINE
  5
366
330
1F
100
AcDbEntity
  8
0
100
AcDbLine
 10
3.573356761999998
 20
15.6292574888
 30
0.0
 11
3.5480251854
 21
15.5551690147
 31
0.0
  0
LINE
  5
367
330
1F
100
AcDbEntity
  8
0
100
AcDbLine
 10
3.5480251854
 20
15.5551690147
 30
0.0
 11
3.524540955299998
 21
15.4804996933
 31
0.0
  0
LINE
  5
368
330
1F
100
AcDbEntity
  8
0
100
AcDbLine
 10
3.524540955299998
 20
15.4804996933
 30
0.0
 11
3.503745292099998
 21
15.4082994943
 31
0.0
  0
LINE
  5
369
330
1F
100
AcDbEntity
  8
0
100
AcDbLine
 10
3.503745292099998
 20
15.4082994943
 30
0.0
 11
3.4846694216
 21
15.3356038814
 31
0.0
  0
LINE
  5
36A
330
1F
100
AcDbEntity
  8
0
100
AcDbLine
 10
3.4846694216
 20
15.3356038814
 30
0.0
 11
3.467333609399998
 21
15.26247389969999
 31
0.0
  0
LINE
  5
36B
330
1F
100
AcDbEntity
  8
0
100
AcDbLine
 10
3.467333609399998
 20
15.26247389969999
 30
0.0
 11
3.4517593131
 21
15.18897069349999
 31
0.0
  0
LINE
  5
36C
330
1F
100
AcDbEntity
  8
0
100
AcDbLine
 10
3.4517593131
 20
15.18897069349999
 30
0.0
 11
3.437957658899998
 21
15.11511035609998
 31
0.0
  0
LINE
  5
36D
330
1F
100
AcDbEntity
  8
0
100
AcDbLine
 10
3.437957658899998
 20
15.11511035609998
 30
0.0
 11
3.425940567799998
 21
15.0409163818
 31
0.0
  0
LINE
  5
36E
330
1F
100
AcDbEntity
  8
0
100
AcDbLine
 10
3.425940567799998
 20
15.0409163818
 30
0.0
 11
3.4157263185
 21
14.9664531187
 31
0.0
  0
LINE
  5
36F
330
1F
100
AcDbEntity
  8
0
100
AcDbLine
 10
3.4157263185
 20
14.9664531187
 30
0.0
 11
3.4073343819
 21
14.89178489
 31
0.0
  0
LINE
  5
370
330
1F
100
AcDbEntity
  8
0
100
AcDbLine
 10
3.4073343819
 20
14.89178489
 30
0.0
 11
3.400560115299998
 21
14.8140249436
 31
0.0
  0
LINE
  5
371
330
1F
100
AcDbEntity
  8
0
100
AcDbLine
 10
3.400560115299998
 20
14.8140249436
 30
0.0
 11
3.395777836
 21
14.73609121249999
 31
0.0
  0
LINE
  5
372
330
1F
100
AcDbEntity
  8
0
100
AcDbLine
 10
3.395777836
 20
14.73609121249999
 30
0.0
 11
3.3930030411
 21
14.6580607541
 31
0.0
  0
LINE
  5
373
330
1F
100
AcDbEntity
  8
0
100
AcDbLine
 10
3.3930030411
 20
14.6580607541
 30
0.0
 11
3.3922508304
 21
14.5800106014
 31
0.0
  0
LINE
  5
374
330
1F
100
AcDbEntity
  8
0
100
AcDbLine
 10
5.1965235616
 20
16.4263479198
 30
0.0
 11
5.160874420899999
 21
16.43317622789999
 31
0.0
  0
LINE
  5
375
330
1F
100
AcDbEntity
  8
0
100
AcDbLine
 10
5.160874420899999
 20
16.43317622789999
 30
0.0
 11
5.1236711885
 21
16.4396918103
 31
0.0
  0
LINE
  5
376
330
1F
100
AcDbEntity
  8
0
100
AcDbLine
 10
5.1236711885
 20
16.4396918103
 30
0.0
 11
5.0850863204
 21
16.4458976473
 31
0.0
  0
LINE
  5
377
330
1F
100
AcDbEntity
  8
0
100
AcDbLine
 10
5.0850863204
 20
16.4458976473
 30
0.0
 11
5.0452922727
 21
16.4517959242
 31
0.0
  0
LINE
  5
378
330
1F
100
AcDbEntity
  8
0
100
AcDbLine
 10
5.0452922727
 20
16.4517959242
 30
0.0
 11
5.004462693599998
 21
16.4573896215
 31
0.0
  0
LINE
  5
379
330
1F
100
AcDbEntity
  8
0
100
AcDbLine
 10
5.004462693599998
 20
16.4573896215
 30
0.0
 11
4.9610693202
 21
16.4628869579
 31
0.0
  0
LINE
  5
37A
330
1F
100
AcDbEntity
  8
0
100
AcDbLine
 10
4.9610693202
 20
16.4628869579
 30
0.0
 11
4.916679754399998
 21
16.46808229739999
 31
0.0
  0
LINE
  5
37B
330
1F
100
AcDbEntity
  8
0
100
AcDbLine
 10
4.916679754399998
 20
16.46808229739999
 30
0.0
 11
4.871398105699999
 21
16.4729770308
 31
0.0
  0
LINE
  5
37C
330
1F
100
AcDbEntity
  8
0
100
AcDbLine
 10
4.871398105699999
 20
16.4729770308
 30
0.0
 11
4.825329675799999
 21
16.4775729463
 31
0.0
  0
LINE
  5
37D
330
1F
100
AcDbEntity
  8
0
100
AcDbLine
 10
4.825329675799999
 20
16.4775729463
 30
0.0
 11
4.778578971299999
 21
16.4818714346
 31
0.0
  0
LINE
  5
37E
330
1F
100
AcDbEntity
  8
0
100
AcDbLine
 10
4.778578971299999
 20
16.4818714346
 30
0.0
 11
4.724810416
 21
16.4863920495
 31
0.0
  0
LINE
  5
37F
330
1F
100
AcDbEntity
  8
0
100
AcDbLine
 10
4.724810416
 20
16.4863920495
 30
0.0
 11
4.670234813799998
 21
16.4905462946
 31
0.0
  0
LINE
  5
380
330
1F
100
AcDbEntity
  8
0
100
AcDbLine
 10
4.670234813799998
 20
16.4905462946
 30
0.0
 11
4.614957863599999
 21
16.4943341698
 31
0.0
  0
LINE
  5
381
330
1F
100
AcDbEntity
  8
0
100
AcDbLine
 10
4.614957863599999
 20
16.4943341698
 30
0.0
 11
4.5590844696
 21
16.49775587369999
 31
0.0
  0
LINE
  5
382
330
1F
100
AcDbEntity
  8
0
100
AcDbLine
 10
4.5590844696
 20
16.49775587369999
 30
0.0
 11
4.502720330699998
 21
16.50081120779999
 31
0.0
  0
LINE
  5
383
330
1F
100
AcDbEntity
  8
0
100
AcDbLine
 10
4.502720330699998
 20
16.50081120779999
 30
0.0
 11
4.444239829499998
 21
16.5035754726
 31
0.0
  0
LINE
  5
384
330
1F
100
AcDbEntity
  8
0
100
AcDbLine
 10
4.444239829499998
 20
16.5035754726
 30
0.0
 11
4.3852753386
 21
16.50595508869998
 31
0.0
  0
LINE
  5
385
330
1F
100
AcDbEntity
  8
0
100
AcDbLine
 10
4.3852753386
 20
16.50595508869998
 30
0.0
 11
4.3259254043
 21
16.50794667849999
 31
0.0
  0
LINE
  5
386
330
1F
100
AcDbEntity
  8
0
100
AcDbLine
 10
4.3259254043
 20
16.50794667849999
 30
0.0
 11
4.266288573099998
 21
16.5095468646
 31
0.0
  0
LINE
  5
387
330
1F
100
AcDbEntity
  8
0
100
AcDbLine
 10
4.266288573099998
 20
16.5095468646
 30
0.0
 11
4.206464185799998
 21
16.5107518718
 31
0.0
  0
LINE
  5
388
330
1F
100
AcDbEntity
  8
0
100
AcDbLine
 10
4.206464185799998
 20
16.5107518718
 30
0.0
 11
4.169937664799998
 21
16.51129149249999
 31
0.0
  0
LINE
  5
389
330
1F
100
AcDbEntity
  8
0
100
AcDbLine
 10
4.169937664799998
 20
16.51129149249999
 30
0.0
 11
4.133363062699998
 21
16.5116828964
 31
0.0
  0
LINE
  5
38A
330
1F
100
AcDbEntity
  8
0
100
AcDbLine
 10
4.133363062699998
 20
16.5116828964
 30
0.0
 11
4.096692298399998
 21
16.51192568589999
 31
0.0
  0
LINE
  5
38B
330
1F
100
AcDbEntity
  8
0
100
AcDbLine
 10
4.096692298399998
 20
16.51192568589999
 30
0.0
 11
4.060004447399998
 21
16.51201807309999
 31
0.0
  0
LINE
  5
392
330
1F
100
AcDbEntity
  8
0
100
AcDbLine
 10
6.6437114224
 20
15.9871927187
 30
0.0
 11
8.1250906433
 21
15.98144981119999
 31
0.0
  0
LINE
  5
393
330
1F
100
AcDbEntity
  8
0
100
AcDbLine
 10
8.1250906433
 20
15.98144981119999
 30
0.0
 11
8.865786419099999
 21
15.9786413397
 31
0.0
  0
LINE
  5
394
330
1F
100
AcDbEntity
  8
0
100
AcDbLine
 10
8.865786419099999
 20
15.9786413397
 30
0.0
 11
9.606490030399999
 21
15.9759125397
 31
0.0
  0
LINE
  5
395
330
1F
100
AcDbEntity
  8
0
100
AcDbLine
 10
9.606490030399999
 20
15.9759125397
 30
0.0
 11
10.2428653782
 21
15.9736763721
 31
0.0
  0
LINE
  5
396
330
1F
100
AcDbEntity
  8
0
100
AcDbLine
 10
10.2428653782
 20
15.9736763721
 30
0.0
 11
10.8792576139
 21
15.9716405755
 31
0.0
  0
LINE
  5
397
330
1F
100
AcDbEntity
  8
0
100
AcDbLine
 10
10.8792576139
 20
15.9716405755
 30
0.0
 11
11.1974744941
 21
15.9707699503
 31
0.0
  0
LINE
  5
398
330
1F
100
AcDbEntity
  8
0
100
AcDbLine
 10
11.1974744941
 20
15.9707699503
 30
0.0
 11
11.5157011097
 21
15.9700479394
 31
0.0
  0
LINE
  5
399
330
1F
100
AcDbEntity
  8
0
100
AcDbLine
 10
11.5157011097
 20
15.9700479394
 30
0.0
 11
11.83393626859998
 21
15.9694675888
 31
0.0
  0
LINE
  5
39A
330
1F
100
AcDbEntity
  8
0
100
AcDbLine
 10
11.83393626859998
 20
15.9694675888
 30
0.0
 11
12.15217858009999
 21
15.9690220441
 31
0.0
  0
LINE
  5
39B
330
1F
100
AcDbEntity
  8
0
100
AcDbLine
 10
12.1533535863
 20
13.1910013443
 30
0.0
 11
11.80062422609998
 21
13.1904576506
 31
0.0
  0
LINE
  5
39C
330
1F
100
AcDbEntity
  8
0
100
AcDbLine
 10
11.80062422609998
 20
13.1904576506
 30
0.0
 11
11.4479051973
 21
13.1898955788
 31
0.0
  0
LINE
  5
39D
330
1F
100
AcDbEntity
  8
0
100
AcDbLine
 10
11.4479051973
 20
13.1898955788
 30
0.0
 11
11.0951841816
 21
13.1890016084
 31
0.0
  0
LINE
  5
39E
330
1F
100
AcDbEntity
  8
0
100
AcDbLine
 10
11.0951841816
 20
13.1890016084
 30
0.0
 11
10.7424731001
 21
13.187965183
 31
0.0
  0
LINE
  5
39F
330
1F
100
AcDbEntity
  8
0
100
AcDbLine
 10
10.7424731001
 20
13.187965183
 30
0.0
 11
10.0371073629
 21
13.1856346414
 31
0.0
  0
LINE
  5
3A0
330
1F
100
AcDbEntity
  8
0
100
AcDbLine
 10
10.0371073629
 20
13.1856346414
 30
0.0
 11
9.331757172499999
 21
13.1831088946
 31
0.0
  0
LINE
  5
3A1
330
1F
100
AcDbEntity
  8
0
100
AcDbLine
 10
9.331757172499999
 20
13.1831088946
 30
0.0
 11
7.9877271697
 21
13.1780446853
 31
0.0
  0
LINE
  5
3A2
330
1F
100
AcDbEntity
  8
0
100
AcDbLine
 10
7.9877271697
 20
13.1780446853
 30
0.0
 11
6.6437114224
 21
13.1728284841
 31
0.0
  0
LINE
  5
3A7
330
1F
100
AcDbEntity
  8
0
100
AcDbLine
 10
12.41075942369999
 20
12.6483089015
 30
0.0
 11
12.0160719698
 21
12.648353009
 31
0.0
  0
LINE
  5
3A8
330
1F
100
AcDbEntity
  8
0
100
AcDbLine
 10
12.0160719698
 20
12.648353009
 30
0.0
 11
11.6213843172
 21
12.6483702943
 31
0.0
  0
LINE
  5
3B0
330
1F
100
AcDbEntity
  8
0
100
AcDbLine
 10
13.93551498109999
 20
14.5800106014
 30
0.0
 11
13.9357299552
 21
14.5994167484
 31
0.0
  0
LINE
  5
3B1
330
1F
100
AcDbEntity
  8
0
100
AcDbLine
 10
13.9357299552
 20
14.5994167484
 30
0.0
 11
13.9363724932
 21
14.6186392696
 31
0.0
  0
LINE
  5
3B2
330
1F
100
AcDbEntity
  8
0
100
AcDbLine
 10
13.9363724932
 20
14.6186392696
 30
0.0
 11
13.9374386216
 21
14.6373164627
 31
0.0
  0
LINE
  5
3B3
330
1F
100
AcDbEntity
  8
0
100
AcDbLine
 10
13.9374386216
 20
14.6373164627
 30
0.0
 11
13.9389350956
 21
14.6552608321
 31
0.0
  0
LINE
  5
3B4
330
1F
100
AcDbEntity
  8
0
100
AcDbLine
 10
13.9389350956
 20
14.6552608321
 30
0.0
 11
13.9408599282
 21
14.67231524219999
 31
0.0
  0
LINE
  5
3B5
330
1F
100
AcDbEntity
  8
0
100
AcDbLine
 10
13.9408599282
 20
14.67231524219999
 30
0.0
 11
13.94319682769999
 21
14.6881606341
 31
0.0
  0
LINE
  5
3B6
330
1F
100
AcDbEntity
  8
0
100
AcDbLine
 10
13.94319682769999
 20
14.6881606341
 30
0.0
 11
13.9459545359
 21
14.7026481763
 31
0.0
  0
LINE
  5
3B7
330
1F
100
AcDbEntity
  8
0
100
AcDbLine
 10
13.9459545359
 20
14.7026481763
 30
0.0
 11
13.9491215294
 21
14.71563867329999
 31
0.0
  0
LINE
  5
3B8
330
1F
100
AcDbEntity
  8
0
100
AcDbLine
 10
13.9491215294
 20
14.71563867329999
 30
0.0
 11
13.95266164789999
 21
14.72688855329999
 31
0.0
  0
LINE
  5
3B9
330
1F
100
AcDbEntity
  8
0
100
AcDbLine
 10
13.95266164789999
 20
14.72688855329999
 30
0.0
 11
13.95657211
 21
14.7362729073
 31
0.0
  0
LINE
  5
3BA
330
1F
100
AcDbEntity
  8
0
100
AcDbLine
 10
13.95657211
 20
14.7362729073
 30
0.0
 11
13.9608258948
 21
14.7437182476
 31
0.0
  0
LINE
  5
3BB
330
1F
100
AcDbEntity
  8
0
100
AcDbLine
 10
13.9608258948
 20
14.7437182476
 30
0.0
 11
13.96497994119998
 21
14.7486350596
 31
0.0
  0
LINE
  5
3BC
330
1F
100
AcDbEntity
  8
0
100
AcDbLine
 10
13.91490846329999
 20
14.5800106014
 30
0.0
 11
13.91512303999999
 21
14.5994163821
 31
0.0
  0
LINE
  5
3BD
330
1F
100
AcDbEntity
  8
0
100
AcDbLine
 10
13.91512303999999
 20
14.5994163821
 30
0.0
 11
13.91576398859998
 21
14.6186385339
 31
0.0
  0
LINE
  5
3BE
330
1F
100
AcDbEntity
  8
0
100
AcDbLine
 10
13.91576398859998
 20
14.6186385339
 30
0.0
 11
13.91682733549999
 21
14.6373153575
 31
0.0
  0
LINE
  5
3BF
330
1F
100
AcDbEntity
  8
0
100
AcDbLine
 10
13.91682733549999
 20
14.6373153575
 30
0.0
 11
13.9183202331
 21
14.65525936069998
 31
0.0
  0
LINE
  5
3C0
330
1F
100
AcDbEntity
  8
0
100
AcDbLine
 10
13.9183202331
 20
14.65525936069998
 30
0.0
 11
13.9202410922
 21
14.6723134292
 31
0.0
  0
LINE
  5
3C1
330
1F
100
AcDbEntity
  8
0
100
AcDbLine
 10
13.9202410922
 20
14.6723134292
 30
0.0
 11
13.92257322319998
 21
14.68815854789998
 31
0.0
  0
LINE
  5
3C2
330
1F
100
AcDbEntity
  8
0
100
AcDbLine
 10
13.92257322319998
 20
14.68815854789998
 30
0.0
 11
13.92532576569998
 21
14.7026462019
 31
0.0
  0
LINE
  5
3C3
330
1F
100
AcDbEntity
  8
0
100
AcDbLine
 10
13.92532576569998
 20
14.7026462019
 30
0.0
 11
13.9284879908
 21
14.7156368604
 31
0.0
  0
LINE
  5
3C4
330
1F
100
AcDbEntity
  8
0
100
AcDbLine
 10
13.9284879908
 20
14.7156368604
 30
0.0
 11
13.93202334099999
 21
14.7268869515
 31
0.0
  0
LINE
  5
3C5
330
1F
100
AcDbEntity
  8
0
100
AcDbLine
 10
13.93202334099999
 20
14.7268869515
 30
0.0
 11
13.9359298294
 21
14.7362716779
 31
0.0
  0
LINE
  5
3C6
330
1F
100
AcDbEntity
  8
0
100
AcDbLine
 10
13.9359298294
 20
14.7362716779
 30
0.0
 11
13.9401804353
 21
14.7437173784
 31
0.0
  0
LINE
  5
3C7
330
1F
100
AcDbEntity
  8
0
100
AcDbLine
 10
13.9401804353
 20
14.7437173784
 30
0.0
 11
13.944711183
 21
14.7490831127
 31
0.0
  0
LINE
  5
3C8
330
1F
100
AcDbEntity
  8
0
100
AcDbLine
 10
13.944711183
 20
14.7490831127
 30
0.0
 11
13.9494890914
 21
14.7522841926
 31
0.0
  0
LINE
  5
3C9
330
1F
100
AcDbEntity
  8
0
100
AcDbLine
 10
13.9494890914
 20
14.7522841926
 30
0.0
 11
13.954476808
 21
14.7533294221
 31
0.0
  0
LINE
  5
3CA
330
1F
100
AcDbEntity
  8
0
100
AcDbLine
 10
13.954476808
 20
14.7533294221
 30
0.0
 11
13.9595817472
 21
14.7521989579
 31
0.0
  0
LINE
  5
3CB
330
1F
100
AcDbEntity
  8
0
100
AcDbLine
 10
13.9595817472
 20
14.7521989579
 30
0.0
 11
13.9647474831
 21
14.7488796001
 31
0.0
  0
LINE
  5
3CC
330
1F
100
AcDbEntity
  8
0
100
AcDbLine
 10
13.9647474831
 20
14.7488796001
 30
0.0
 11
13.9699219609
 21
14.7434335113
 31
0.0
  0
LINE
  5
3CD
330
1F
100
AcDbEntity
  8
0
100
AcDbLine
 10
13.9699219609
 20
14.7434335113
 30
0.0
 11
13.97499511089999
 21
14.73596344739999
 31
0.0
  0
LINE
  5
3CE
330
1F
100
AcDbEntity
  8
0
100
AcDbLine
 10
13.97499511089999
 20
14.73596344739999
 30
0.0
 11
13.9799061363
 21
14.7265042896
 31
0.0
  0
LINE
  5
3CF
330
1F
100
AcDbEntity
  8
0
100
AcDbLine
 10
13.9799061363
 20
14.7265042896
 30
0.0
 11
13.98458589569999
 21
14.7151781281
 31
0.0
  0
LINE
  5
3D0
330
1F
100
AcDbEntity
  8
0
100
AcDbLine
 10
13.98458589569999
 20
14.7151781281
 30
0.0
 11
13.98892670329999
 21
14.7021971554
 31
0.0
  0
LINE
  5
3D1
330
1F
100
AcDbEntity
  8
0
100
AcDbLine
 10
13.98892670329999
 20
14.7021971554
 30
0.0
 11
13.9928665703
 21
14.6876342381
 31
0.0
  0
LINE
  5
3D2
330
1F
100
AcDbEntity
  8
0
100
AcDbLine
 10
13.9928665703
 20
14.6876342381
 30
0.0
 11
13.9963443026
 21
14.6716696432
 31
0.0
  0
LINE
  5
3D3
330
1F
100
AcDbEntity
  8
0
100
AcDbLine
 10
13.9963443026
 20
14.6716696432
 30
0.0
 11
13.9992740696
 21
14.6546028465
 31
0.0
  0
LINE
  5
3D4
330
1F
100
AcDbEntity
  8
0
100
AcDbLine
 10
13.9992740696
 20
14.6546028465
 30
0.0
 11
14.0015998428
 21
14.63658109039998
 31
0.0
  0
LINE
  5
3D5
330
1F
100
AcDbEntity
  8
0
100
AcDbLine
 10
14.0015998428
 20
14.63658109039998
 30
0.0
 11
14.0032942042
 21
14.6177879073
 31
0.0
  0
LINE
  5
3D6
330
1F
100
AcDbEntity
  8
0
100
AcDbLine
 10
14.0032942042
 20
14.6177879073
 30
0.0
 11
14.0043126489
 21
14.5985776376
 31
0.0
  0
LINE
  5
3D7
330
1F
100
AcDbEntity
  8
0
100
AcDbLine
 10
14.0043126489
 20
14.5985776376
 30
0.0
 11
14.0046325271
 21
14.5800106014
 31
0.0
  0
LINE
  5
3D8
330
1F
100
AcDbEntity
  8
0
100
AcDbLine
 10
14.0046325271
 20
14.5800106014
 30
0.0
 11
14.00427807819998
 21
14.5606037264
 31
0.0
  0
LINE
  5
3D9
330
1F
100
AcDbEntity
  8
0
100
AcDbLine
 10
14.00427807819998
 20
14.5606037264
 30
0.0
 11
14.0032330101
 21
14.54138046479999
 31
0.0
  0
LINE
  5
3DA
330
1F
100
AcDbEntity
  8
0
100
AcDbLine
 10
14.0032330101
 20
14.54138046479999
 30
0.0
 11
14.0015251383
 21
14.52270252359999
 31
0.0
  0
LINE
  5
3DB
330
1F
100
AcDbEntity
  8
0
100
AcDbLine
 10
14.0015251383
 20
14.52270252359999
 30
0.0
 11
13.9991711522
 21
14.504757347
 31
0.0
  0
LINE
  5
3DC
330
1F
100
AcDbEntity
  8
0
100
AcDbLine
 10
13.9991711522
 20
14.504757347
 30
0.0
 11
13.9962195302
 21
14.4877022229
 31
0.0
  0
LINE
  5
3DD
330
1F
100
AcDbEntity
  8
0
100
AcDbLine
 10
13.9962195302
 20
14.4877022229
 30
0.0
 11
13.9927445794
 21
14.4718563219
 31
0.0
  0
LINE
  5
3DE
330
1F
100
AcDbEntity
  8
0
100
AcDbLine
 10
13.9927445794
 20
14.4718563219
 30
0.0
 11
13.9887860363
 21
14.4573695869
 31
0.0
  0
LINE
  5
3DF
330
1F
100
AcDbEntity
  8
0
100
AcDbLine
 10
13.9887860363
 20
14.4573695869
 30
0.0
 11
13.984415029
 21
14.4443799342
 31
0.0
  0
LINE
  5
3E0
330
1F
100
AcDbEntity
  8
0
100
AcDbLine
 10
13.984415029
 20
14.4443799342
 30
0.0
 11
13.9797344749
 21
14.4331308738
 31
0.0
  0
LINE
  5
3E1
330
1F
100
AcDbEntity
  8
0
100
AcDbLine
 10
13.9797344749
 20
14.4331308738
 30
0.0
 11
13.9748035814
 21
14.42374685509999
 31
0.0
  0
LINE
  5
3E2
330
1F
100
AcDbEntity
  8
0
100
AcDbLine
 10
13.9748035814
 20
14.42374685509999
 30
0.0
 11
13.9696934765
 21
14.4163018873
 31
0.0
  0
LINE
  5
3E3
330
1F
100
AcDbEntity
  8
0
100
AcDbLine
 10
13.9696934765
 20
14.4163018873
 30
0.0
 11
13.9645178065
 21
14.41093687319999
 31
0.0
  0
LINE
  5
3E4
330
1F
100
AcDbEntity
  8
0
100
AcDbLine
 10
13.9645178065
 20
14.41093687319999
 30
0.0
 11
13.9593469049
 21
14.4077361659
 31
0.0
  0
LINE
  5
3E5
330
1F
100
AcDbEntity
  8
0
100
AcDbLine
 10
13.9593469049
 20
14.4077361659
 30
0.0
 11
13.95422845529999
 21
14.4066918056
 31
0.0
  0
LINE
  5
3E6
330
1F
100
AcDbEntity
  8
0
100
AcDbLine
 10
13.95422845529999
 20
14.4066918056
 30
0.0
 11
13.9492621963
 21
14.40782367289999
 31
0.0
  0
LINE
  5
3E7
330
1F
100
AcDbEntity
  8
0
100
AcDbLine
 10
13.9492621963
 20
14.40782367289999
 30
0.0
 11
13.94450574569999
 21
14.4111445954
 31
0.0
  0
LINE
  5
3E8
330
1F
100
AcDbEntity
  8
0
100
AcDbLine
 10
13.94450574569999
 20
14.4111445954
 30
0.0
 11
13.93998374
 21
14.4165924227
 31
0.0
  0
LINE
  5
3E9
330
1F
100
AcDbEntity
  8
0
100
AcDbLine
 10
13.93998374
 20
14.4165924227
 30
0.0
 11
13.9357696916
 21
14.4240643119
 31
0.0
  0
LINE
  5
3EA
330
1F
100
AcDbEntity
  8
0
100
AcDbLine
 10
13.9357696916
 20
14.4240643119
 30
0.0
 11
13.9318910187
 21
14.43352373049999
 31
0.0
  0
LINE
  5
3EB
330
1F
100
AcDbEntity
  8
0
100
AcDbLine
 10
13.9318910187
 20
14.43352373049999
 30
0.0
 11
13.928361629
 21
14.4448495567
 31
0.0
  0
LINE
  5
3EC
330
1F
100
AcDbEntity
  8
0
100
AcDbLine
 10
13.928361629
 20
14.4448495567
 30
0.0
 11
13.92522562989999
 21
14.45782961049999
 31
0.0
  0
LINE
  5
3ED
330
1F
100
AcDbEntity
  8
0
100
AcDbLine
 10
13.92522562989999
 20
14.45782961049999
 30
0.0
 11
13.9224905715
 21
14.4723920932
 31
0.0
  0
LINE
  5
3EE
330
1F
100
AcDbEntity
  8
0
100
AcDbLine
 10
13.9224905715
 20
14.4723920932
 30
0.0
 11
13.9201596325
 21
14.4883559866
 31
0.0
  0
LINE
  5
3EF
330
1F
100
AcDbEntity
  8
0
100
AcDbLine
 10
13.9201596325
 20
14.4883559866
 30
0.0
 11
13.9182550654
 21
14.5054218891
 31
0.0
  0
LINE
  5
3F0
330
1F
100
AcDbEntity
  8
0
100
AcDbLine
 10
13.9182550654
 20
14.5054218891
 30
0.0
 11
13.9167796518
 21
14.5234444524
 31
0.0
  0
LINE
  5
3F1
330
1F
100
AcDbEntity
  8
0
100
AcDbLine
 10
13.9167796518
 20
14.5234444524
 30
0.0
 11
13.9157266364
 21
14.5422385389
 31
0.0
  0
LINE
  5
3F2
330
1F
100
AcDbEntity
  8
0
100
AcDbLine
 10
13.9157266364
 20
14.5422385389
 30
0.0
 11
13.9151031718
 21
14.5614497632
 31
0.0
  0
LINE
  5
3F3
330
1F
100
AcDbEntity
  8
0
100
AcDbLine
 10
13.9151031718
 20
14.5614497632
 30
0.0
 11
13.91490846329999
 21
14.5800106014
 31
0.0
  0
LINE
  5
3F4
330
1F
100
AcDbEntity
  8
0
100
AcDbLine
 10
13.96504789049999
 20
14.4114862666
 30
0.0
 11
13.9617644693
 21
14.4149925471
 31
0.0
  0
LINE
  5
3F5
330
1F
100
AcDbEntity
  8
0
100
AcDbLine
 10
13.9617644693
 20
14.4149925471
 30
0.0
 11
13.9574669744
 21
14.4219445472
 31
0.0
  0
LINE
  5
3F6
330
1F
100
AcDbEntity
  8
0
100
AcDbLine
 10
13.9574669744
 20
14.4219445472
 30
0.0
 11
13.9534961129
 21
14.4309091106
 31
0.0
  0
LINE
  5
3F7
330
1F
100
AcDbEntity
  8
0
100
AcDbLine
 10
13.9534961129
 20
14.4309091106
 30
0.0
 11
13.94986619009999
 21
14.4417709768
 31
0.0
  0
LINE
  5
3F8
330
1F
100
AcDbEntity
  8
0
100
AcDbLine
 10
13.94986619009999
 20
14.4417709768
 30
0.0
 11
13.9466248895
 21
14.45432655859999
 31
0.0
  0
LINE
  5
3F9
330
1F
100
AcDbEntity
  8
0
100
AcDbLine
 10
13.9466248895
 20
14.45432655859999
 30
0.0
 11
13.9437805558
 21
14.4685077702
 31
0.0
  0
LINE
  5
3FA
330
1F
100
AcDbEntity
  8
0
100
AcDbLine
 10
13.9437805558
 20
14.4685077702
 30
0.0
 11
13.9413379575
 21
14.484137474
 31
0.0
  0
LINE
  5
3FB
330
1F
100
AcDbEntity
  8
0
100
AcDbLine
 10
13.9413379575
 20
14.484137474
 30
0.0
 11
13.939320539
 21
14.5009226822
 31
0.0
  0
LINE
  5
3FC
330
1F
100
AcDbEntity
  8
0
100
AcDbLine
 10
13.939320539
 20
14.5009226822
 30
0.0
 11
13.9377314791
 21
14.51872546579999
 31
0.0
  0
LINE
  5
3FD
330
1F
100
AcDbEntity
  8
0
100
AcDbLine
 10
13.9377314791
 20
14.51872546579999
 30
0.0
 11
13.9365648175
 21
14.5373586011
 31
0.0
  0
LINE
  5
3FE
330
1F
100
AcDbEntity
  8
0
100
AcDbLine
 10
13.9365648175
 20
14.5373586011
 30
0.0
 11
13.93582929619999
 21
14.55647086609999
 31
0.0
  0
LINE
  5
3FF
330
1F
100
AcDbEntity
  8
0
100
AcDbLine
 10
13.93582929619999
 20
14.55647086609999
 30
0.0
 11
13.9355936592
 21
14.5682132962
 31
0.0
  0
LINE
  5
400
330
1F
100
AcDbEntity
  8
0
100
AcDbLine
 10
13.9355936592
 20
14.5682132962
 30
0.0
 11
13.93551498109999
 21
14.5800106014
 31
0.0
  0
ENDSEC
  0
SECTION
  2
OBJECTS
  0
DICTIONARY
  5
C
330
0
100
AcDbDictionary
  3
ACAD_GROUP
350
D
  3
ACAD_LAYOUT
350
1A
  3
ACAD_MLINESTYLE
350
17
  3
ACAD_PLOTSETTINGS
350
19
  3
ACAD_PLOTSTYLENAME
350
E
  3
ACDBHEADERROUNDTRIPXREC
350
73B
  3
ACDBVARIABLEDICTIONARY
350
6F5
  0
DICTIONARY
  5
6FD
330
1F
100
AcDbDictionary
280
     1
  3
ACAD_LAYOUTSELFREF
360
75D
  0
DICTIONARY
  5
6FF
330
1B
100
AcDbDictionary
280
     1
  3
ACAD_LAYOUTSELFREF
360
75C
  0
DICTIONARY
  5
D
102
{ACAD_REACTORS
330
C
102
}
330
C
100
AcDbDictionary
  0
DICTIONARY
  5
1A
102
{ACAD_REACTORS
330
C
102
}
330
C
100
AcDbDictionary
  0
DICTIONARY
  5
17
102
{ACAD_REACTORS
330
C
102
}
330
C
100
AcDbDictionary
  3
STANDARD
350
18
  0
DICTIONARY
  5
19
102
{ACAD_REACTORS
330
C
102
}
330
C
100
AcDbDictionary
  0
ACDBDICTIONARYWDFLT
  5
E
102
{ACAD_REACTORS
330
C
102
}
330
C
100
AcDbDictionary
281
     1
  3
Normal
350
F
100
AcDbDictionaryWithDefault
340
F
  0
DICTIONARY
  5
73B
102
{ACAD_REACTORS
330
C
102
}
330
C
100
AcDbDictionary
  3
CEPSNTYPE
350
745
  3
DIMSTYLEDATA
350
749
  3
FINGERPRINTGUID
350
746
  3
HYPERLINKBASE
350
73E
  3
INSUNITS
350
744
  3
LAYOUTDICT
350
740
  3
LWETCUNION
350
743
  3
PLOTSETDICT
350
741
  3
PLOTSTYLNAMDICT
350
742
  3
PSVPSCALE
350
748
  3
PUCSBASE
350
74C
  3
PUCSORGBACK
350
752
  3
PUCSORGBOTTOM
350
74E
  3
PUCSORGFRONT
350
751
  3
PUCSORGLEFT
350
74F
  3
PUCSORGRIGHT
350
750
  3
PUCSORGTOP
350
74D
  3
PUCSORTHOREF
350
74A
  3
PUCSORTHOVIEW
350
74B
  3
STYLESHEET
350
73F
  3
TSTACKALIGN
350
73C
  3
TSTACKSIZE
350
73D
  3
UCSBASE
350
755
  3
UCSORGBACK
350
75B
  3
UCSORGBOTTOM
350
757
  3
UCSORGFRONT
350
75A
  3
UCSORGLEFT
350
758
  3
UCSORGRIGHT
350
759
  3
UCSORGTOP
350
756
  3
UCSORTHOREF
350
753
  3
UCSORTHOVIEW
350
754
  3
VERSIONGUID
350
747
  0
DICTIONARY
  5
6F5
102
{ACAD_REACTORS
330
C
102
}
330
C
100
AcDbDictionary
  3
DIMASSOC
350
6F6
  0
XRECORD
  5
75D
102
{ACAD_REACTORS
330
6FD
102
}
330
6FD
100
AcDbXrecord
340
1F
  0
XRECORD
  5
75C
102
{ACAD_REACTORS
330
6FF
102
}
330
6FF
100
AcDbXrecord
340
1B
  0
MLINESTYLE
  5
18
102
{ACAD_REACTORS
330
17
102
}
330
17
100
AcDbMlineStyle
  2
STANDARD
 70
     0
  3

 62
   256
 51
90.0
 52
90.0
 71
     2
 49
0.5
 62
   256
  6
BYLAYER
 49
-0.5
 62
   256
  6
BYLAYER
  0
ACDBPLACEHOLDER
  5
F
102
{ACAD_REACTORS
330
E
102
}
330
E
100
AcDbPlaceHolder
280
     0
  0
XRECORD
  5
745
102
{ACAD_REACTORS
330
73B
102
}
330
73B
100
AcDbXrecord
 90
        0
  0
XRECORD
  5
749
102
{ACAD_REACTORS
330
73B
102
}
330
73B
100
AcDbXrecord
1000
DSTYLE
1002
{
1070
   278
 70
    44
1002
}
  0
XRECORD
  5
746
102
{ACAD_REACTORS
330
73B
102
}
330
73B
100
AcDbXrecord
  1
{816F2858-7D35-42AF-8F5F-C3DF1E98B13F}
  0
XRECORD
  5
73E
102
{ACAD_REACTORS
330
73B
102
}
330
73B
100
AcDbXrecord
  1

  0
XRECORD
  5
744
102
{ACAD_REACTORS
330
73B
102
}
330
73B
100
AcDbXrecord
 90
        4
  0
XRECORD
  5
740
102
{ACAD_REACTORS
330
73B
102
}
330
73B
100
AcDbXrecord
340
1A
  0
XRECORD
  5
743
102
{ACAD_REACTORS
330
73B
102
}
330
73B
100
AcDbXrecord
 90
    10781
  0
XRECORD
  5
741
102
{ACAD_REACTORS
330
73B
102
}
330
73B
100
AcDbXrecord
340
19
  0
XRECORD
  5
742
102
{ACAD_REACTORS
330
73B
102
}
330
73B
100
AcDbXrecord
340
E
  0
XRECORD
  5
748
102
{ACAD_REACTORS
330
73B
102
}
330
73B
100
AcDbXrecord
 40
0.0
  0
XRECORD
  5
74C
102
{ACAD_REACTORS
330
73B
102
}
330
73B
100
AcDbXrecord
340
0
  0
XRECORD
  5
752
102
{ACAD_REACTORS
330
73B
102
}
330
73B
100
AcDbXrecord
 10
0.0
 20
0.0
 30
0.0
  0
XRECORD
  5
74E
102
{ACAD_REACTORS
330
73B
102
}
330
73B
100
AcDbXrecord
 10
0.0
 20
0.0
 30
0.0
  0
XRECORD
  5
751
102
{ACAD_REACTORS
330
73B
102
}
330
73B
100
AcDbXrecord
 10
0.0
 20
0.0
 30
0.0
  0
XRECORD
  5
74F
102
{ACAD_REACTORS
330
73B
102
}
330
73B
100
AcDbXrecord
 10
0.0
 20
0.0
 30
0.0
  0
XRECORD
  5
750
102
{ACAD_REACTORS
330
73B
102
}
330
73B
100
AcDbXrecord
 10
0.0
 20
0.0
 30
0.0
  0
XRECORD
  5
74D
102
{ACAD_REACTORS
330
73B
102
}
330
73B
100
AcDbXrecord
 10
0.0
 20
0.0
 30
0.0
  0
XRECORD
  5
74A
102
{ACAD_REACTORS
330
73B
102
}
330
73B
100
AcDbXrecord
340
0
  0
XRECORD
  5
74B
102
{ACAD_REACTORS
330
73B
102
}
330
73B
100
AcDbXrecord
 70
     0
  0
XRECORD
  5
73F
102
{ACAD_REACTORS
330
73B
102
}
330
73B
100
AcDbXrecord
  1

  0
XRECORD
  5
73C
102
{ACAD_REACTORS
330
73B
102
}
330
73B
100
AcDbXrecord
 90
        1
  0
XRECORD
  5
73D
102
{ACAD_REACTORS
330
73B
102
}
330
73B
100
AcDbXrecord
 90
       70
  0
XRECORD
  5
755
102
{ACAD_REACTORS
330
73B
102
}
330
73B
100
AcDbXrecord
340
0
  0
XRECORD
  5
75B
102
{ACAD_REACTORS
330
73B
102
}
330
73B
100
AcDbXrecord
 10
0.0
 20
0.0
 30
0.0
  0
XRECORD
  5
757
102
{ACAD_REACTORS
330
73B
102
}
330
73B
100
AcDbXrecord
 10
0.0
 20
0.0
 30
0.0
  0
XRECORD
  5
75A
102
{ACAD_REACTORS
330
73B
102
}
330
73B
100
AcDbXrecord
 10
0.0
 20
0.0
 30
0.0
  0
XRECORD
  5
758
102
{ACAD_REACTORS
330
73B
102
}
330
73B
100
AcDbXrecord
 10
0.0
 20
0.0
 30
0.0
  0
XRECORD
  5
759
102
{ACAD_REACTORS
330
73B
102
}
330
73B
100
AcDbXrecord
 10
0.0
 20
0.0
 30
0.0
  0
XRECORD
  5
756
102
{ACAD_REACTORS
330
73B
102
}
330
73B
100
AcDbXrecord
 10
0.0
 20
0.0
 30
0.0
  0
XRECORD
  5
753
102
{ACAD_REACTORS
330
73B
102
}
330
73B
100
AcDbXrecord
340
0
  0
XRECORD
  5
754
102
{ACAD_REACTORS
330
73B
102
}
330
73B
100
AcDbXrecord
 70
     0
  0
XRECORD
  5
747
102
{ACAD_REACTORS
330
73B
102
}
330
73B
100
AcDbXrecord
  1
{1C4030A8-F01D-49C5-90F1-F35C7BCBAC80}
  0
DICTIONARYVAR
  5
6F6
102
{ACAD_REACTORS
330
6F5
102
}
330
6F5
100
DictionaryVariables
280
     0
  1
1
  0
ENDSEC
  0
EOF
