  0
SECTION
  2
HEADER
  9
$ACADVER
  1
AC1014
  9
$ACADMAINTVER
 70
     9
  9
$DWGCODEPAGE
  3
ANSI_1250
  9
$INSBASE
 10
0.0
 20
0.0
 30
0.0
  9
$EXTMIN
 10
3.799058606288234
 20
5.034988458076249
 30
-0.0015258207003583
  9
$EXTMAX
 10
13.80087437925497
 20
16.91349796894181
 30
0.0000000349246037
  9
$LIMMIN
 10
0.0
 20
0.0
  9
$LIMMAX
 10
0.0
 20
0.0
  9
$ORTHOMODE
 70
     0
  9
$REGENMODE
 70
     1
  9
$FILLMODE
 70
     1
  9
$QTEXTMODE
 70
     0
  9
$MIRRTEXT
 70
     1
  9
$DRAGMODE
 70
     2
  9
$LTSCALE
 40
1.0
  9
$OSMODE
 70
  1007
  9
$ATTMODE
 70
     1
  9
$TEXTSIZE
 40
2.5
  9
$TRACEWID
 40
1.0
  9
$TEXTSTYLE
  7
STANDARD
  9
$CLAYER
  8
0
  9
$CELTYPE
  6
BYLAYER
  9
$CECOLOR
 62
   256
  9
$CELTSCALE
 40
1.0
  9
$DELOBJ
 70
     1
  9
$DISPSILH
 70
     0
  9
$DIMSCALE
 40
1.0
  9
$DIMASZ
 40
0.3
  9
$DIMEXO
 40
0.1
  9
$DIMDLI
 40
3.75
  9
$DIMRND
 40
0.0
  9
$DIMDLE
 40
0.0
  9
$DIMEXE
 40
0.1
  9
$DIMTP
 40
0.0
  9
$DIMTM
 40
0.0
  9
$DIMTXT
 40
0.2822222222222222
  9
$DIMCEN
 40
2.5
  9
$DIMTSZ
 40
0.0
  9
$DIMTOL
 70
     0
  9
$DIMLIM
 70
     0
  9
$DIMTIH
 70
     1
  9
$DIMTOH
 70
     1
  9
$DIMSE1
 70
     0
  9
$DIMSE2
 70
     0
  9
$DIMTAD
 70
     1
  9
$DIMZIN
 70
     0
  9
$DIMBLK
  1

  9
$DIMASO
 70
     1
  9
$DIMSHO
 70
     1
  9
$DIMPOST
  1

  9
$DIMAPOST
  1

  9
$DIMALT
 70
     0
  9
$DIMALTD
 70
     3
  9
$DIMALTF
 40
0.3937007874015748
  9
$DIMLFAC
 40
15.0
  9
$DIMTOFL
 70
     1
  9
$DIMTVP
 40
0.0
  9
$DIMTIX
 70
     0
  9
$DIMSOXD
 70
     0
  9
$DIMSAH
 70
     0
  9
$DIMBLK1
  1

  9
$DIMBLK2
  1

  9
$DIMSTYLE
  2
ISO-25
  9
$DIMCLRD
 70
     0
  9
$DIMCLRE
 70
     0
  9
$DIMCLRT
 70
     0
  9
$DIMTFAC
 40
1.0
  9
$DIMGAP
 40
0.1524
  9
$DIMJUST
 70
     0
  9
$DIMSD1
 70
     0
  9
$DIMSD2
 70
     0
  9
$DIMTOLJ
 70
     0
  9
$DIMTZIN
 70
     0
  9
$DIMALTZ
 70
     0
  9
$DIMALTTZ
 70
     0
  9
$DIMFIT
 70
     3
  9
$DIMUPT
 70
     0
  9
$DIMUNIT
 70
     2
  9
$DIMDEC
 70
     2
  9
$DIMTDEC
 70
     2
  9
$DIMALTU
 70
     2
  9
$DIMALTTD
 70
     3
  9
$DIMTXSTY
  7
STANDARD
  9
$DIMAUNIT
 70
     0
  9
$LUNITS
 70
     2
  9
$LUPREC
 70
     2
  9
$SKETCHINC
 40
1.0
  9
$FILLETRAD
 40
10.0
  9
$AUNITS
 70
     0
  9
$AUPREC
 70
     0
  9
$MENU
  1
.
  9
$ELEVATION
 40
0.0
  9
$PELEVATION
 40
0.0
  9
$THICKNESS
 40
0.0
  9
$LIMCHECK
 70
     0
  9
$BLIPMODE
 70
     0
  9
$CHAMFERA
 40
10.0
  9
$CHAMFERB
 40
10.0
  9
$CHAMFERC
 40
20.0
  9
$CHAMFERD
 40
0.0
  9
$SKPOLY
 70
     0
  9
$TDCREATE
 40
2454418.380709815
  9
$TDUPDATE
 40
2454420.413037465
  9
$TDINDWG
 40
0.0005391088
  9
$TDUSRTIMER
 40
0.0005391088
  9
$USRTIMER
 70
     1
  9
$ANGBASE
 50
0.0
  9
$ANGDIR
 70
     0
  9
$PDMODE
 70
     0
  9
$PDSIZE
 40
-1.0
  9
$PLINEWID
 40
0.0
  9
$COORDS
 70
     1
  9
$SPLFRAME
 70
     0
  9
$SPLINETYPE
 70
     6
  9
$SPLINESEGS
 70
     8
  9
$ATTDIA
 70
     0
  9
$ATTREQ
 70
     1
  9
$HANDLING
 70
 22529
  9
$HANDSEED
  5
2A7
  9
$SURFTAB1
 70
     6
  9
$SURFTAB2
 70
     6
  9
$SURFTYPE
 70
     6
  9
$SURFU
 70
     6
  9
$SURFV
 70
     6
  9
$UCSNAME
  2

  9
$UCSORG
 10
0.0
 20
0.0
 30
0.0
  9
$UCSXDIR
 10
1.0
 20
0.0
 30
0.0
  9
$UCSYDIR
 10
0.0
 20
1.0
 30
0.0
  9
$PUCSNAME
  2

  9
$PUCSORG
 10
0.0
 20
0.0
 30
0.0
  9
$PUCSXDIR
 10
1.0
 20
0.0
 30
0.0
  9
$PUCSYDIR
 10
0.0
 20
1.0
 30
0.0
  9
$USERI1
 70
     0
  9
$USERI2
 70
     0
  9
$USERI3
 70
     0
  9
$USERI4
 70
     0
  9
$USERI5
 70
     0
  9
$USERR1
 40
0.0
  9
$USERR2
 40
0.0
  9
$USERR3
 40
0.0
  9
$USERR4
 40
0.0
  9
$USERR5
 40
0.0
  9
$WORLDVIEW
 70
     1
  9
$SHADEDGE
 70
     3
  9
$SHADEDIF
 70
    70
  9
$TILEMODE
 70
     1
  9
$MAXACTVP
 70
    64
  9
$PINSBASE
 10
0.0
 20
0.0
 30
0.0
  9
$PLIMCHECK
 70
     0
  9
$PEXTMIN
 10
1.000000000000000E+20
 20
1.000000000000000E+20
 30
1.000000000000000E+20
  9
$PEXTMAX
 10
-1.000000000000000E+20
 20
-1.000000000000000E+20
 30
-1.000000000000000E+20
  9
$PLIMMIN
 10
0.0
 20
0.0
  9
$PLIMMAX
 10
420.0
 20
297.0
  9
$UNITMODE
 70
     0
  9
$VISRETAIN
 70
     1
  9
$PLINEGEN
 70
     0
  9
$PSLTSCALE
 70
     1
  9
$TREEDEPTH
 70
  3020
  9
$PICKSTYLE
 70
     1
  9
$CMLSTYLE
  2
STANDARD
  9
$CMLJUST
 70
     0
  9
$CMLSCALE
 40
20.0
  9
$PROXYGRAPHICS
 70
     1
  9
$MEASUREMENT
 70
     1
  0
ENDSEC
  0
SECTION
  2
CLASSES
  0
CLASS
  1
ACDBDICTIONARYWDFLT
  2
AcDbDictionaryWithDefault
  3
AutoCAD 2000
 90
        0
280
     0
281
     0
  0
CLASS
  1
ACDBPLACEHOLDER
  2
AcDbPlaceHolder
  3
AutoCAD 2000
 90
        0
280
     0
281
     0
  0
CLASS
  1
LAYOUT
  2
AcDbLayout
  3
AutoCAD 2000
 90
        0
280
     0
281
     0
  0
CLASS
  1
DICTIONARYVAR
  2
AcDbDictionaryVar
  3
AutoCAD 2000
 90
        0
280
     0
281
     0
  0
CLASS
  1
LONG_TRANSACTION
  2
AcDbLongTransaction
  3
AutoCAD 2000
 90
        0
280
     0
281
     0
  0
CLASS
  1
LWPOLYLINE
  2
AcDbPolyline
  3
AutoCAD 2000
 90
        0
280
     0
281
     1
  0
CLASS
  1
HATCH
  2
AcDbHatch
  3
AutoCAD 2000
 90
        0
280
     0
281
     1
  0
CLASS
  1
XRECORD
  2
AcDbXrecord
  3
AutoCAD 2000
 90
        0
280
     0
281
     0
  0
ENDSEC
  0
SECTION
  2
TABLES
  0
TABLE
  2
VPORT
  5
8
330
0
100
AcDbSymbolTable
 70
     3
  0
VPORT
  5
27F
330
8
100
AcDbSymbolTableRecord
100
AcDbViewportTableRecord
  2
*ACTIVE
 70
     0
 10
0.0
 20
0.0
 11
1.0
 21
1.0
 12
8.799966492771602
 22
10.97424321350903
 13
0.0
 23
0.0
 14
10.0
 24
10.0
 15
10.0
 25
10.0
 16
0.0
 26
0.0
 36
1.0
 17
0.0
 27
0.0
 37
0.0
 40
11.99553916121891
 41
1.981907894736842
 42
50.0
 43
0.0
 44
0.0
 50
0.0
 51
0.0
 71
     0
 72
  2000
 73
     1
 74
     3
 75
     0
 76
     0
 77
     0
 78
     0
  0
ENDTAB
  0
TABLE
  2
LTYPE
  5
5
330
0
100
AcDbSymbolTable
 70
     6
  0
LTYPE
  5
14
330
5
100
AcDbSymbolTableRecord
100
AcDbLinetypeTableRecord
  2
BYBLOCK
 70
     0
  3

 72
    65
 73
     0
 40
0.0
  0
LTYPE
  5
15
330
5
100
AcDbSymbolTableRecord
100
AcDbLinetypeTableRecord
  2
BYLAYER
 70
     0
  3

 72
    65
 73
     0
 40
0.0
  0
LTYPE
  5
16
330
5
100
AcDbSymbolTableRecord
100
AcDbLinetypeTableRecord
  2
CONTINUOUS
 70
     0
  3
Solid line
 72
    65
 73
     0
 40
0.0
  0
ENDTAB
  0
TABLE
  2
LAYER
  5
2
330
0
100
AcDbSymbolTable
 70
     3
  0
LAYER
  5
10
330
2
100
AcDbSymbolTableRecord
100
AcDbLayerTableRecord
  2
0
 70
     0
 62
     7
  6
CONTINUOUS
  0
ENDTAB
  0
TABLE
  2
STYLE
  5
3
330
0
100
AcDbSymbolTable
 70
     4
  0
STYLE
  5
11
330
3
100
AcDbSymbolTableRecord
100
AcDbTextStyleTableRecord
  2
STANDARD
 70
     0
 40
0.0
 41
1.0
 50
0.0
 71
     0
 42
2.5
  3
ARIAL.TTF
  4

1001
ACAD
1000
Arial
1071
       34
  0
ENDTAB
  0
TABLE
  2
VIEW
  5
6
330
0
100
AcDbSymbolTable
 70
     0
  0
ENDTAB
  0
TABLE
  2
UCS
  5
7
330
0
100
AcDbSymbolTable
 70
     0
  0
ENDTAB
  0
TABLE
  2
APPID
  5
9
330
0
100
AcDbSymbolTable
 70
     1
  0
APPID
  5
12
330
9
100
AcDbSymbolTableRecord
100
AcDbRegAppTableRecord
  2
ACAD
 70
     0
  0
ENDTAB
  0
TABLE
  2
DIMSTYLE
  5
A
330
0
100
AcDbSymbolTable
 70
     6
  0
DIMSTYLE
105
27
330
A
100
AcDbSymbolTableRecord
100
AcDbDimStyleTableRecord
  2
ISO-25
 70
     0
  3

  4

  5

  6

  7

 40
1.0
 41
2.5
 42
0.625
 43
3.75
 44
1.25
 45
0.0
 46
0.0
 47
0.0
 48
0.0
140
2.5
141
2.5
142
0.0
143
0.03937007874016
144
1.0
145
0.0
146
1.0
147
0.625
 71
     0
 72
     0
 73
     0
 74
     0
 75
     0
 76
     0
 77
     1
 78
     8
170
     0
171
     3
172
     1
173
     0
174
     0
175
     0
176
     0
177
     0
178
     0
270
     2
271
     2
272
     2
273
     2
274
     3
340
11
275
     0
280
     0
281
     0
282
     0
283
     0
284
     8
285
     0
286
     0
287
     3
288
     0
  0
ENDTAB
  0
TABLE
  2
BLOCK_RECORD
  5
1
330
0
100
AcDbSymbolTable
 70
    20
  0
BLOCK_RECORD
  5
1F
102
{ACAD_XDICTIONARY
360
2A3
102
}
330
1
100
AcDbSymbolTableRecord
100
AcDbBlockTableRecord
  2
*MODEL_SPACE
  0
BLOCK_RECORD
  5
1B
102
{ACAD_XDICTIONARY
360
2A1
102
}
330
1
100
AcDbSymbolTableRecord
100
AcDbBlockTableRecord
  2
*PAPER_SPACE
  0
ENDTAB
  0
ENDSEC
  0
SECTION
  2
BLOCKS
  0
BLOCK
  5
20
330
1F
100
AcDbEntity
  8
0
100
AcDbBlockBegin
  2
*MODEL_SPACE
 70
     0
 10
0.0
 20
0.0
 30
0.0
  3
*MODEL_SPACE
  1

  0
ENDBLK
  5
21
330
1F
100
AcDbEntity
  8
0
100
AcDbBlockEnd
  0
BLOCK
  5
1C
330
1B
100
AcDbEntity
 67
     1
  8
0
100
AcDbBlockBegin
  2
*PAPER_SPACE
 70
     0
 10
0.0
 20
0.0
 30
0.0
  3
*PAPER_SPACE
  1

  0
ENDBLK
  5
1D
330
1B
100
AcDbEntity
 67
     1
  8
0
100
AcDbBlockEnd
  0
ENDSEC
  0
SECTION
  2
ENTITIES
  0
ARC
  5
D0
330
1F
100
AcDbEntity
  8
0
  6
BYBLOCK
 62
     0
100
AcDbCircle
 10
7.184949165044983
 20
14.57817648029802
 30
0.0
 40
3.124424299159036
100
AcDbArc
 50
187.0171798088399
 51
218.1511985504927
  0
LWPOLYLINE
  5
D1
330
1F
100
AcDbEntity
  8
0
  6
BYBLOCK
 62
     0
100
AcDbPolyline
 90
       33
 70
   128
 43
0.0
 10
5.86318959247735
 20
12.73367308431515
 10
5.863189195113052
 20
12.73367328299729
 10
5.817283287164239
 20
12.7706122681861
 10
5.772278800126581
 20
12.80867261542527
 10
5.728216265158522
 20
12.84782054874945
 10
5.685136014736363
 20
12.88802229219326
 10
5.637377197063633
 20
12.93499273909776
 10
5.590897495067784
 20
12.98329624388266
 10
5.545717571692336
 20
13.03285859876522
 10
5.501858487245111
 20
13.08360549662161
 10
5.459340308623183
 20
13.13546243164588
 10
5.418184493498672
 20
13.18835529539633
 10
5.384451840834487
 20
13.23388460133124
 10
5.35172014883823
 20
13.28016055478303
 10
5.320021206653782
 20
13.32715335342932
 10
5.289386803425022
 20
13.37483359231202
 10
5.259595607237685
 20
13.42359943045823
 10
5.230923388914932
 20
13.47305131806581
 10
5.203403924422134
 20
13.52315488312293
 10
5.177070592360366
 20
13.57387545559455
 10
5.151423111077814
 20
13.62630449586758
 10
5.127049579736261
 20
13.67936832560746
 10
5.103984569029678
 20
13.7330231354003
 10
5.082262252287734
 20
13.78722516550271
 10
5.061917200204401
 20
13.84193060650079
 10
5.042670860406428
 20
13.89803909116634
 10
5.024878873940973
 20
13.95465818895547
 10
5.008571440494725
 20
14.01173231853692
 10
4.993777170297175
 20
14.06920574956783
 10
4.980524673577814
 20
14.12702285104641
 10
4.968346649921604
 20
14.18776440475035
 10
4.957882855849135
 20
14.24883701258549
 10
4.949158325311212
 20
14.31016949667184
  0
LWPOLYLINE
  5
D2
330
1F
100
AcDbEntity
  8
0
  6
BYBLOCK
 62
     0
100
AcDbPolyline
 90
       25
 70
   128
 43
0.0
 10
4.727953964985081
 20
12.64809829844682
 10
4.789234692371556
 20
12.64833711439022
 10
4.850472901778091
 20
12.64899375889349
 10
4.911562099572687
 20
12.65006405963151
 10
4.972395394759048
 20
12.65154384427914
 10
5.03410408349501
 20
12.65347106112687
 10
5.095475012577244
 20
12.65581948413102
 10
5.156396125273573
 20
12.65858573569505
 10
5.216756159580418
 20
12.66176663690456
 10
5.264207019921808
 20
12.66458613528459
 10
5.311254158135919
 20
12.66767047696957
 10
5.357832803842096
 20
12.67101966195949
 10
5.403878186659683
 20
12.67463329289008
 10
5.449376796202528
 20
12.67851514472215
 10
5.494282339529861
 20
12.6826679990058
 10
5.538514549053379
 20
12.68709205442318
 10
5.581991965091892
 20
12.69178850306718
 10
5.627346728758682
 20
12.69708695862342
 10
5.671731128808526
 20
12.70270966344723
 10
5.714996948358088
 20
12.70865959777085
 10
5.756995771841872
 20
12.71494013919084
 10
5.784572456793654
 20
12.71937194321204
 10
5.811470443523594
 20
12.72396289163479
 10
5.837732250011631
 20
12.72873483949551
 10
5.86318959247735
 20
12.73367308431515
  0
ARC
  5
D3
330
1F
100
AcDbEntity
  8
0
  6
BYBLOCK
 62
     0
100
AcDbCircle
 10
7.183860449323628
 20
14.58229752201368
 30
0.0
 40
3.123288455477914
100
AcDbArc
 50
141.8429959399486
 51
172.9886217902976
  0
LWPOLYLINE
  5
D4
330
1F
100
AcDbEntity
  8
0
  6
BYBLOCK
 62
     0
100
AcDbPolyline
 90
       27
 70
   128
 43
0.0
 10
5.863189989841648
 20
16.42634791983812
 10
5.833689465638665
 20
16.43204155418921
 10
5.803107315815159
 20
16.43751663817613
 10
5.771554206328262
 20
16.44277436389177
 10
5.73913980972436
 20
16.44781632079332
 10
5.705959890799391
 20
16.45264469438442
 10
5.672026966528761
 20
16.45727160427618
 10
5.637411569075453
 20
16.46169824256151
 10
5.602184429284601
 20
16.46592619869757
 10
5.563831224557428
 20
16.47023819738277
 10
5.524849985556472
 20
16.4743324404324
 10
5.485301310337254
 20
16.47821011993933
 10
5.445245796955296
 20
16.48187143458574
 10
5.391657247659234
 20
16.48637675100216
 10
5.337263638294407
 20
16.49051669094611
 10
5.282169873035618
 20
16.49429105573543
 10
5.226480856057672
 20
16.49769944800584
 10
5.170302286263972
 20
16.50074206643948
 10
5.112014904138117
 20
16.50349401288876
 10
5.053246711211074
 20
16.50586389356502
 10
4.994095856464573
 20
16.50784833087175
 10
4.934660488880345
 20
16.50944394721238
 10
4.875038360075819
 20
16.5106473649904
 10
4.838356469588149
 20
16.51119095935075
 10
4.80162610065606
 20
16.51158534341701
 10
4.764798774835138
 20
16.51182992114274
 10
4.727953964985081
 20
16.51192290438859
  0
LWPOLYLINE
  5
D5
330
1F
100
AcDbEntity
  8
0
  6
BYBLOCK
 62
     0
100
AcDbPolyline
 90
       32
 70
   128
 43
0.0
 10
4.949158325311212
 20
14.84985274924485
 10
4.958004051960179
 20
14.9119298940266
 10
4.968641891595392
 20
14.97377559893974
 10
4.981042439258763
 20
15.03531895929226
 10
4.995176289992202
 20
15.09648912006267
 10
5.011014833566218
 20
15.15721522622951
 10
5.028529062387018
 20
15.21742639793603
 10
5.04566857667433
 20
15.27104375614373
 10
5.064127737796971
 20
15.32423896445481
 10
5.083878332889744
 20
15.37696875983128
 10
5.104891751723158
 20
15.42918982956457
 10
5.12736826590366
 20
15.48137647761552
 10
5.151094490802952
 20
15.53302410099554
 10
5.176038239912856
 20
15.58409475141415
 10
5.202166929360895
 20
15.63455077860403
 10
5.234607750690647
 20
15.69347374492535
 10
5.268667036808201
 20
15.75152916564195
 10
5.304289951440362
 20
15.80866568141827
 10
5.341421658313938
 20
15.86483173423656
 10
5.380006923791437
 20
15.91997576607911
 10
5.419991308963963
 20
15.97404631826926
 10
5.461354945616592
 20
16.02707359049368
 10
5.504089489099054
 20
16.07905609263627
 10
5.54817368042138
 20
16.12991852416246
 10
5.59358645927575
 20
16.17958598190197
 10
5.640306566672195
 20
16.22798306597917
 10
5.68831333966719
 20
16.27503497256486
 10
5.730653300401239
 20
16.31442013237524
 10
5.773939782894322
 20
16.35278704617072
 10
5.818131858623692
 20
16.39010611031103
 10
5.863189791159499
 20
16.42634772115597
 10
5.863189989841648
 20
16.42634791983812
  0
ARC
  5
D6
330
1F
100
AcDbEntity
  8
0
  6
BYBLOCK
 62
     0
100
AcDbCircle
 10
7.035443902777164
 20
14.57933844167681
 30
0.0
 40
2.976417444795048
100
AcDbArc
 50
172.5833377923538
 51
179.9870609827575
  0
ARC
  5
D7
330
1F
100
AcDbEntity
  8
0
  6
BYBLOCK
 62
     0
100
AcDbCircle
 10
7.035580745243002
 20
14.58069179513762
 30
0.0
 40
2.976554289311141
100
AcDbArc
 50
180.0131123177109
 51
187.4164917856528
  0
LINE
  5
D8
330
1F
100
AcDbEntity
  8
0
  6
BYBLOCK
 62
     0
100
AcDbLine
 10
3.80028356563714
 20
16.91334389501461
 30
0.0
 11
3.80028356563714
 21
12.2466773078208
 31
0.0
  0
ARC
  5
D9
330
1F
100
AcDbEntity
  8
0
  6
BYBLOCK
 62
     0
100
AcDbCircle
 10
7.061996182930947
 20
14.58044727220362
 30
0.0
 40
2.130054902704988
100
AcDbArc
 50
180.0117458912514
 51
187.2897813886124
  0
ARC
  5
DA
330
1F
100
AcDbEntity
  8
0
  6
BYBLOCK
 62
     0
100
AcDbCircle
 10
7.062020640067149
 20
14.57957341493663
 30
0.0
 40
2.130079359946457
100
AcDbArc
 50
172.7102604958097
 51
179.9882403722262
  0
ARC
  5
DB
330
1F
100
AcDbEntity
  8
0
  6
BYBLOCK
 62
     0
100
AcDbCircle
 10
10.71278785321553
 20
14.57963243334813
 30
0.0
 40
2.685238296576368
100
AcDbArc
 50
0.0080690918315276
 51
17.48021389179282
  0
ARC
  5
DC
330
1F
100
AcDbEntity
  8
0
  6
BYBLOCK
 62
     0
100
AcDbCircle
 10
11.74017052835177
 20
14.90371030753255
 30
0.0
 40
1.607954121332805
100
AcDbArc
 50
17.46201787218863
 51
89.92437284947506
  0
LINE
  5
DD
330
1F
100
AcDbEntity
  8
0
  6
BYBLOCK
 62
     0
100
AcDbLine
 10
11.41541550012098
 20
16.51165090852627
 30
0.0
 11
11.7422929351694
 21
16.51166302813737
 31
0.0
  0
ARC
  5
DE
330
1F
100
AcDbEntity
  8
0
  6
BYBLOCK
 62
     0
100
AcDbCircle
 10
11.48376574171894
 20
14.8006259085599
 30
0.0
 40
1.168397614473139
100
AcDbArc
 50
10.65942290433199
 51
89.90582482087914
  0
ARC
  5
DF
330
1F
100
AcDbEntity
  8
0
  6
BYBLOCK
 62
     0
100
AcDbCircle
 10
10.31891779051797
 20
14.57972833159662
 30
0.0
 40
2.354005130218171
100
AcDbArc
 50
0.0068703628820626
 51
10.69892772933351
  0
LWPOLYLINE
  5
E0
330
1F
100
AcDbEntity
  8
0
  6
BYBLOCK
 62
     0
100
AcDbPolyline
 90
       34
 70
   128
 43
0.0
 10
13.24824203502801
 20
14.5800106014177
 10
13.24836283377475
 20
14.59456817908733
 10
13.24872483265069
 20
14.60907333260922
 10
13.24932604483432
 20
14.62337347098836
 10
13.25016488086846
 20
14.63731599702088
 10
13.25165976535943
 20
14.65526021747439
 10
13.25358300856418
 20
14.67231449091085
 10
13.25591752381788
 20
14.68815976484267
 10
13.2586720531351
 20
14.70264725738415
 10
13.26183586767978
 20
14.71563772960155
 10
13.26537240993645
 20
14.72688764685043
 10
13.26826800357964
 20
14.73410235448329
 10
13.27136625301507
 20
14.74024617774932
 10
13.27463974010613
 20
14.74525967343299
 10
13.27806144408054
 20
14.74908334864823
 10
13.28162182819512
 20
14.75168542666881
 10
13.28531254779961
 20
14.75307760490625
 10
13.28909505855706
 20
14.75325151387501
 10
13.29293041876621
 20
14.75219879650721
 10
13.29809575728244
 20
14.74887922757515
 10
13.30326904308465
 20
14.74343287799407
 10
13.30834100099073
 20
14.73596252852329
 10
13.31325043689873
 20
14.72650315963873
 10
13.3179294015136
 20
14.71517678701528
 10
13.32226901701755
 20
14.70219560318836
 10
13.32526275964247
 20
14.69141641362159
 10
13.32800854694512
 20
14.67980667679159
 10
13.33047021877434
 20
14.66749272971003
 10
13.33261161497897
 20
14.65460093422382
 10
13.33441246997979
 20
14.64117075978367
 10
13.33586404176222
 20
14.62725685639827
 10
13.33694805156853
 20
14.61300870754966
 10
13.3376466180053
 20
14.59857579361547
 10
13.337965701537
 20
14.5800106014177
  0
ARC
  5
E1
330
1F
100
AcDbEntity
  8
0
  6
BYBLOCK
 62
     0
100
AcDbCircle
 10
11.74011572927104
 20
14.25638242226084
 30
0.0
 40
1.60802815262587
100
AcDbArc
 50
270.1442629743821
 51
342.5529543054333
  0
ARC
  5
E2
330
1F
100
AcDbEntity
  8
0
  6
BYBLOCK
 62
     0
100
AcDbCircle
 10
10.71290787785322
 20
14.58036988304514
 30
0.0
 40
2.685118269346347
100
AcDbArc
 50
342.5294725874544
 51
359.9923335514852
  0
LINE
  5
E3
330
1F
100
AcDbEntity
  8
0
  6
BYBLOCK
 62
     0
100
AcDbLine
 10
11.74416452101535
 20
12.64835936679093
 30
0.0
 11
11.41541530143883
 21
12.64837029430915
 31
0.0
  0
ARC
  5
E4
330
1F
100
AcDbEntity
  8
0
  6
BYBLOCK
 62
     0
100
AcDbCircle
 10
11.48377870560801
 20
14.35937886376181
 30
0.0
 40
1.168382082703532
100
AcDbArc
 50
270.1566078571359
 51
349.3579510525854
  0
ARC
  5
E5
330
1F
100
AcDbEntity
  8
0
  6
BYBLOCK
 62
     0
100
AcDbCircle
 10
10.31852675075454
 20
14.5803295705112
 30
0.0
 40
2.354396174664712
100
AcDbArc
 50
349.3102486935615
 51
359.9922376772851
  0
LWPOLYLINE
  5
E6
330
1F
100
AcDbEntity
  8
0
  6
BYBLOCK
 62
     0
100
AcDbPolyline
 90
       34
 70
   128
 43
0.0
 10
13.337965701537
 20
14.5800106014177
 10
13.33776582729485
 20
14.56545230818191
 10
13.33717335712578
 20
14.55094643288502
 10
13.33620060932305
 20
14.53664557117868
 10
13.33485831272271
 20
14.52270231871454
 10
13.33250472398268
 20
14.50475708001503
 10
13.32955429406629
 20
14.48770190009126
 10
13.32608013800449
 20
14.47185594939836
 10
13.32212318432
 20
14.45736913982678
 10
13.31775416385796
 20
14.44437944992034
 10
13.31307599397169
 20
14.43313038948823
 10
13.30940037421054
 20
14.42591617856074
 10
13.30560832670993
 20
14.41977287683535
 10
13.30174753518568
 20
14.41475991510996
 10
13.29786528598931
 20
14.41093672418245
 10
13.29398701043593
 20
14.4083348696793
 10
13.29012383472588
 20
14.40694316331196
 10
13.28631827683912
 20
14.40676999940126
 10
13.28261206002699
 20
14.40782374743271
 10
13.27785560937391
 20
14.41114479406325
 10
13.27333320629265
 20
14.41659279518971
 10
13.26911796581414
 20
14.42406492038219
 10
13.26523770343926
 20
14.43352464937815
 10
13.26170592955417
 20
14.44485083573708
 10
13.25856754632459
 20
14.45783129934121
 10
13.25647741011447
 20
14.46861024055529
 10
13.254611784733
 20
14.48021955518572
 10
13.25297980955905
 20
14.49253293105611
 10
13.25159102133579
 20
14.5054240684077
 10
13.25044422797031
 20
14.51885486372956
 10
13.24953386636244
 20
14.53276945318926
 10
13.24886391015516
 20
14.54701832846948
 10
13.24843634616997
 20
14.56145198125291
 10
13.24824203502801
 20
14.5800106014177
  0
LINE
  5
E7
330
1F
100
AcDbEntity
  8
0
  6
BYBLOCK
 62
     0
100
AcDbLine
 10
6.185152028517593
 20
12.64837029430915
 30
0.0
 11
11.41541530143883
 21
12.64837029430915
 31
0.0
  0
LWPOLYLINE
  5
E8
330
1F
100
AcDbEntity
  8
0
  6
BYBLOCK
 62
     0
100
AcDbPolyline
 90
        3
 70
   128
 43
0.0
 10
6.185152028517593
 20
12.64837029430915
 10
5.394923582192926
 20
12.64829837137112
 10
4.727953964985081
 20
12.64809829844682
  0
LWPOLYLINE
  5
E9
330
1F
100
AcDbEntity
  8
0
  6
BYBLOCK
 62
     0
100
AcDbPolyline
 90
       25
 70
   128
 43
0.0
 10
5.86318959247735
 20
12.73367308431515
 10
5.947330886638829
 20
12.75086544805416
 10
6.029822125550776
 20
12.76834530486314
 10
6.110646023866205
 20
12.78610768768836
 10
6.189785296238133
 20
12.80414802684037
 10
6.267222458637425
 20
12.82246135526547
 10
6.342940225717096
 20
12.84104270590989
 10
6.41692151081231
 20
12.85988750908423
 10
6.483196908748814
 20
12.87738902224748
 10
6.54798536948032
 20
12.89510392003902
 10
6.611272985256383
 20
12.91302842749803
 10
6.673046643055149
 20
12.93115916702795
 10
6.733293031172622
 20
12.94949206564474
 10
6.79199863922265
 20
12.96802354706971
 10
6.849150354183384
 20
12.98674983634202
 10
6.904734466986525
 20
13.00566725784191
 10
6.958737864610223
 20
13.02477193726747
 10
7.011147036668329
 20
13.04406029834001
 10
7.061948870138991
 20
13.06352866543977
 10
7.111129854636062
 20
13.08317306492377
 10
7.156003708160588
 20
13.1018530612553
 10
7.199413770950505
 20
13.12068316195059
 10
7.241348519441157
 20
13.13966038677741
 10
7.281797026114333
 20
13.15878155682135
 10
7.320747866746454
 20
13.17804349316804
  0
LWPOLYLINE
  5
EA
330
1F
100
AcDbEntity
  8
0
  6
BYBLOCK
 62
     0
100
AcDbPolyline
 90
        8
 70
   128
 43
0.0
 10
11.48697226694888
 20
13.19100114557791
 10
11.13425522497958
 20
13.19046559784461
 10
10.78154851448205
 20
13.18989657216915
 10
10.42884001584516
 20
13.18900280052074
 10
10.07614125263359
 20
13.18796657377132
 10
9.387276415543425
 20
13.18569325261959
 10
8.698426585164337
 20
13.18323108408499
 10
7.320747866746454
 20
13.17804349316804
  0
LWPOLYLINE
  5
EB
330
1F
100
AcDbEntity
  8
0
  6
BYBLOCK
 62
     0
100
AcDbPolyline
 90
       25
 70
   128
 43
0.0
 10
5.863189989841648
 20
16.42634791983812
 10
5.947331284003127
 20
16.4091555560991
 10
6.029822522915074
 20
16.39167589797227
 10
6.110646421230503
 20
16.37391331646491
 10
6.189785693602431
 20
16.35587297731289
 10
6.267222856001724
 20
16.33755984756995
 10
6.342940623081394
 20
16.31897829824337
 10
6.41692170949446
 20
16.30013369375118
 10
6.483197306113113
 20
16.28263218058793
 10
6.54798556816247
 20
16.26491728279639
 10
6.611273183938531
 20
16.24699257665523
 10
6.673046841737298
 20
16.22886193646638
 10
6.733293229854771
 20
16.21052903784959
 10
6.7919988379048
 20
16.19199755642462
 10
6.849150354183384
 20
16.17327126715232
 10
6.904734665668675
 20
16.1543539449935
 10
6.958738063292373
 20
16.13524916622687
 10
7.011147235350478
 20
16.11596080515433
 10
7.061948870138991
 20
16.09649253739564
 10
7.111129854636062
 20
16.07684803857057
 10
7.156003807501662
 20
16.05816814158011
 10
7.199413770950505
 20
16.03933804088482
 10
7.241348618782231
 20
16.02036081605801
 10
7.281797026114333
 20
16.00123964601406
 10
7.320747866746454
 20
15.98197770966737
  0
LWPOLYLINE
  5
EC
330
1F
100
AcDbEntity
  8
0
  6
BYBLOCK
 62
     0
100
AcDbPolyline
 90
        3
 70
   128
 43
0.0
 10
4.727953964985081
 20
16.51192290438859
 10
5.394923582192926
 20
16.5117228314643
 10
6.185152028517593
 20
16.51165090852627
  0
LWPOLYLINE
  5
ED
330
1F
100
AcDbEntity
  8
0
  6
BYBLOCK
 62
     0
100
AcDbPolyline
 90
        4
 70
   128
 43
0.0
 10
11.41541550012098
 20
16.51165090852627
 10
9.97688243241774
 20
16.51165070984412
 10
8.21147416484025
 20
16.51165090852627
 10
6.185152028517593
 20
16.51165090852627
  0
LWPOLYLINE
  5
EE
330
1F
100
AcDbEntity
  8
0
  6
BYBLOCK
 62
     0
100
AcDbPolyline
 90
        9
 70
   128
 43
0.0
 10
7.320747866746454
 20
15.98197770966737
 10
8.478205695268183
 20
15.97760123862474
 10
9.056942159450718
 20
15.97549192958721
 10
9.635687862353194
 20
15.97347947809744
 10
10.09815543345279
 20
15.9719848916297
 10
10.56063641559746
 20
15.9706655428176
 10
10.86897760084933
 20
15.96994979037492
 10
11.17732832284437
 20
15.9694037124877
 10
11.48568619739678
 20
15.96902194473792
  0
LINE
  5
EF
330
1F
100
AcDbEntity
  8
0
  6
BYBLOCK
 62
     0
100
AcDbLine
 10
3.80028356563714
 20
12.2466773078208
 30
0.0
 11
13.80028356563713
 21
12.2466773078208
 31
0.0
  0
LINE
  5
F0
330
1F
100
AcDbEntity
  8
0
  6
BYBLOCK
 62
     0
100
AcDbLine
 10
13.80028356563713
 20
12.2466773078208
 30
0.0
 11
13.80028356563713
 21
16.91334389501461
 31
0.0
  0
LINE
  5
F1
330
1F
100
AcDbEntity
  8
0
  6
BYBLOCK
 62
     0
100
AcDbLine
 10
13.80028356563713
 20
16.91334389501461
 30
0.0
 11
3.80028356563714
 21
16.91334389501461
 31
0.0
  0
LWPOLYLINE
  5
F2
330
1F
100
AcDbEntity
  8
0
  6
BYBLOCK
 62
     0
100
AcDbPolyline
 90
       15
 70
   128
 43
0.0
 10
13.26884815545545
 20
14.5800106014177
 10
13.2689697489308
 20
14.59456845227528
 10
13.26933254253533
 20
14.60907387898513
 10
13.26993534417616
 20
14.62337428744781
 10
13.27077576966749
 20
14.63731708356389
 10
13.27227462780144
 20
14.65526167654642
 10
13.27420184464918
 20
14.67231628525901
 10
13.27654112827446
 20
14.68816182616997
 10
13.27930082332756
 20
14.70264920695274
 10
13.28246940624383
 20
14.71563953015852
 10
13.28601031950778
 20
14.72688924872526
 10
13.28890909206536
 20
14.73410367075253
 10
13.29200972568657
 20
14.7402472208306
 10
13.29528559696343
 20
14.74526044332632
 10
13.2983170891967
 20
14.7486459995672
  0
LWPOLYLINE
  5
F3
330
1F
100
AcDbEntity
  8
0
  6
BYBLOCK
 62
     0
100
AcDbPolyline
 90
       15
 70
   128
 43
0.0
 10
13.29831073136793
 20
14.41137558821488
 10
13.29397707632846
 20
14.41659407420604
 10
13.28975825957126
 20
14.42406686995077
 10
13.2858740235534
 20
14.43352730675189
 10
13.28233748129672
 20
14.44485428783942
 10
13.27919432969557
 20
14.45783560826032
 10
13.27710101457106
 20
14.4686148723329
 10
13.2752318129109
 20
14.48022447877773
 10
13.27359665882256
 20
14.4925381030008
 10
13.2722050890492
 20
14.50542942661691
 10
13.27105551413364
 20
14.51886032127985
 10
13.27014356306857
 20
14.53277494178363
 10
13.26947162003981
 20
14.54702378912418
 10
13.26904326132602
 20
14.56145735964078
 10
13.26884815545545
 20
14.5800106014177
  0
ARC
  5
F4
330
1F
100
AcDbEntity
  8
0
  6
BYBLOCK
 62
     0
100
AcDbCircle
 10
7.347058819456399
 20
14.58120427165355
 30
0.0
 40
1.403407437814325
100
AcDbArc
 50
180.0487330144112
 51
268.9257610945027
  0
ARC
  5
F5
330
1F
100
AcDbEntity
  8
0
  6
BYBLOCK
 62
     0
100
AcDbCircle
 10
7.347067942161225
 20
14.57880797031534
 30
0.0
 40
1.403416568166087
100
AcDbArc
 50
91.07460442424807
 51
179.9509014668397
  0
CIRCLE
  5
F6
330
1F
100
AcDbEntity
  8
0
  6
BYBLOCK
 62
     0
100
AcDbCircle
 10
11.73361689897047
 20
14.5800106014177
 30
0.0
 40
0.3665179007108037
  0
CIRCLE
  5
F7
330
1F
100
AcDbEntity
  8
0
  6
BYBLOCK
 62
     0
100
AcDbCircle
 10
11.73361689897047
 20
14.5800106014177
 30
0.0
 40
0.1733333333333338
  0
LINE
  5
164
330
1F
100
AcDbEntity
  8
0
  6
BYBLOCK
 62
     0
100
AcDbLine
 10
11.60638636421731
 20
5.149767730230029
 30
0.0
 11
11.60638636421731
 21
5.035227385775069
 31
0.0
  0
LINE
  5
165
330
1F
100
AcDbEntity
  8
0
  6
BYBLOCK
 62
     0
100
AcDbLine
 10
11.60638636421731
 20
5.035227385775069
 30
0.0
 11
6.423384285833018
 21
5.122858845473719
 31
0.0
  0
LINE
  5
166
330
1F
100
AcDbEntity
  8
0
  6
BYBLOCK
 62
     0
100
AcDbLine
 10
6.310523791886008
 20
5.257404152494505
 30
0.0
 11
6.423384285833018
 21
5.122858845473719
 31
0.0
  0
POINT
  5
167
330
1F
100
AcDbEntity
  8
0
  6
BYBLOCK
 62
     0
100
AcDbPoint
 10
13.30945056375031
 20
7.501894052441643
 30
0.0
  0
LINE
  5
168
330
1F
100
AcDbEntity
  8
0
  6
BYBLOCK
 62
     0
100
AcDbLine
 10
5.927153720971613
 20
5.263352393722355
 30
0.0
 11
11.35916580211785
 21
5.154712199783146
 31
0.0
  0
LINE
  5
169
330
1F
100
AcDbEntity
  8
0
  6
BYBLOCK
 62
     0
100
AcDbLine
 10
12.1080681627161
 20
5.154712199783146
 30
0.0
 11
12.68937934887078
 21
5.166338284428736
 31
0.0
  0
ARC
  5
16A
330
1F
100
AcDbEntity
  8
0
  6
BYBLOCK
 62
     0
100
AcDbCircle
 10
11.73361689897047
 20
5.608066665940008
 30
0.0
 40
0.5880000000000003
100
AcDbArc
 50
287.1446203290002
 51
309.5552288032999
  0
ARC
  5
16B
330
1F
100
AcDbEntity
  8
0
  6
BYBLOCK
 62
     0
100
AcDbCircle
 10
11.73361689897047
 20
5.608066665940008
 30
0.0
 40
0.5880000000000003
100
AcDbArc
 50
230.4447711967017
 51
252.8553796710013
  0
LINE
  5
16C
330
1F
100
AcDbEntity
  8
0
  6
BYBLOCK
 62
     0
100
AcDbLine
 10
13.80028356563713
 20
7.668560718114991
 30
0.0
 11
13.80028356563713
 21
7.901894052441736
 31
0.0
  0
LINE
  5
16D
330
1F
100
AcDbEntity
  8
0
  6
BYBLOCK
 62
     0
100
AcDbLine
 10
13.80028356563713
 20
7.668560718114991
 30
0.0
 11
3.80028356563714
 21
7.668560718114991
 31
0.0
  0
LINE
  5
16E
330
1F
100
AcDbEntity
  8
0
  6
BYBLOCK
 62
     0
100
AcDbLine
 10
3.80028356563714
 20
7.668560718114991
 30
0.0
 11
3.80028356563714
 21
7.901894052441736
 31
0.0
  0
LINE
  5
16F
330
1F
100
AcDbEntity
  8
0
  6
BYBLOCK
 62
     0
100
AcDbLine
 10
3.80028356563714
 20
7.901894052441736
 30
0.0
 11
13.80028356563713
 21
7.901894052441736
 31
0.0
  0
ARC
  5
170
330
1F
100
AcDbEntity
  8
0
  6
BYBLOCK
 62
     0
100
AcDbCircle
 10
11.37326151464091
 20
-92.28719729233381
 30
0.0
 40
97.46305300797386
100
AcDbArc
 50
89.25026420439923
 51
89.93467851262975
  0
ARC
  5
171
330
1F
100
AcDbEntity
  8
0
  6
BYBLOCK
 62
     0
100
AcDbCircle
 10
1.281946605641175
 20
2.833585707597505
 30
0.0
 40
6.506662125074864
100
AcDbArc
 50
21.70384246391302
 51
45.30552173915084
  0
ARC
  5
172
330
1F
100
AcDbEntity
  8
0
  6
BYBLOCK
 62
     0
100
AcDbCircle
 10
4.980701854289608
 20
6.55261554560986
 30
0.0
 40
1.261567811893743
100
AcDbArc
 50
45.92469107668754
 51
62.1986646849773
  0
LWPOLYLINE
  5
173
330
1F
100
AcDbEntity
  8
0
  6
BYBLOCK
 62
     0
100
AcDbPolyline
 90
        8
 70
   128
 43
0.0
 10
11.48437668335106
 20
5.175792375818709
 10
11.12722863208916
 20
5.177869399006983
 10
10.77009111098117
 20
5.181339978790104
 10
10.41295150371061
 20
5.18583635450981
 10
10.05582192988859
 20
5.191050171470463
 10
9.373684470372069
 20
5.202223658180058
 10
8.691561738169857
 20
5.214318036651432
 10
7.327337060885298
 20
5.239808360353927
  0
LINE
  5
174
330
1F
100
AcDbEntity
  8
0
  6
BYBLOCK
 62
     0
100
AcDbLine
 10
5.858252539750604
 20
7.458958824093958
 30
0.0
 11
5.853114619370965
 21
7.456687340752105
 31
0.0
  0
ARC
  5
175
330
1F
100
AcDbEntity
  8
0
  6
BYBLOCK
 62
     0
100
AcDbCircle
 10
0.1474577929663946
 20
-380.106803161962
 30
0.0
 40
385.4134944161044
100
AcDbArc
 50
88.93257350034351
 51
89.14075505571668
  0
ARC
  5
176
330
1F
100
AcDbEntity
  8
0
  6
BYBLOCK
 62
     0
100
AcDbCircle
 10
-0.4982162313501026
 20
3.567051346956219
 30
0.0
 40
6.645510986030996
100
AcDbArc
 50
14.78870578486603
 51
35.46185512858711
  0
ARC
  5
177
330
1F
100
AcDbEntity
  8
0
  6
BYBLOCK
 62
     0
100
AcDbCircle
 10
12.01087901188806
 20
-17.72369189944022
 30
0.0
 40
22.90008394145571
100
AcDbArc
 50
88.30215051195198
 51
88.40431212370573
  0
LINE
  5
178
330
1F
100
AcDbEntity
  8
0
  6
BYBLOCK
 62
     0
100
AcDbLine
 10
11.35916580211785
 20
5.154712199783146
 30
0.0
 11
12.1080681627161
 21
5.154712199783146
 31
0.0
  0
LINE
  5
179
330
1F
100
AcDbEntity
  8
0
  6
BYBLOCK
 62
     0
100
AcDbLine
 10
12.68937934887078
 20
5.166338284428736
 30
0.0
 11
13.26884815545545
 21
7.328945447619577
 31
0.0
  0
LINE
  5
17A
330
1F
100
AcDbEntity
  8
0
  6
BYBLOCK
 62
     0
100
AcDbLine
 10
13.35857221932875
 20
7.663799722607751
 30
0.0
 11
13.35984815609124
 21
7.668560718114991
 31
0.0
  0
ARC
  5
17B
330
1F
100
AcDbEntity
  8
0
  6
BYBLOCK
 62
     0
100
AcDbCircle
 10
15.92576311360157
 20
6.796474088670957
 30
0.0
 40
2.709745900065387
100
AcDbArc
 50
161.3324564612021
 51
168.667501613533
  0
ARC
  5
17C
330
1F
100
AcDbEntity
  8
0
  6
BYBLOCK
 62
     0
100
AcDbCircle
 10
4.035989968157487
 20
6.79671540605056
 30
0.0
 40
1.078666666666666
100
AcDbArc
 50
35.4619173203734
 51
53.92647325247519
  0
LINE
  5
17D
330
1F
100
AcDbEntity
  8
0
  6
BYBLOCK
 62
     0
100
AcDbLine
 10
11.7336168830759
 20
5.046195188776473
 30
0.0
 11
11.56028359583682
 21
5.046195188776473
 31
0.0
  0
LINE
  5
17E
330
1F
100
AcDbEntity
  8
0
  6
BYBLOCK
 62
     0
100
AcDbLine
 10
11.90695017031497
 20
5.046195188776473
 30
0.0
 11
11.7336168830759
 21
5.046195188776473
 31
0.0
  0
LWPOLYLINE
  5
17F
330
1F
100
AcDbEntity
  8
0
  6
BYBLOCK
 62
     0
100
AcDbPolyline
 90
        3
 70
   128
 43
0.0
 10
13.26884815545545
 20
7.328945447619577
 10
13.26896537792351
 20
7.329533397769749
 10
13.26896577528781
 20
7.329534242168883
  0
ENDSEC
  0
SECTION
  2
OBJECTS
  0
DICTIONARY
  5
C
330
0
100
AcDbDictionary
  3
ACAD_GROUP
350
D
  3
ACAD_LAYOUT
350
1A
  3
ACAD_MLINESTYLE
350
17
  3
ACAD_PLOTSETTINGS
350
19
  3
ACAD_PLOTSTYLENAME
350
E
  3
ACDBHEADERROUNDTRIPXREC
350
280
  3
ACDBVARIABLEDICTIONARY
350
27D
  0
DICTIONARY
  5
2A3
330
1F
100
AcDbDictionary
280
     1
  3
ACAD_LAYOUTSELFREF
360
2A4
  0
DICTIONARY
  5
2A1
330
1B
100
AcDbDictionary
280
     1
  3
ACAD_LAYOUTSELFREF
360
2A2
  0
DICTIONARY
  5
D
102
{ACAD_REACTORS
330
C
102
}
330
C
100
AcDbDictionary
  0
DICTIONARY
  5
1A
102
{ACAD_REACTORS
330
C
102
}
330
C
100
AcDbDictionary
  0
DICTIONARY
  5
17
102
{ACAD_REACTORS
330
C
102
}
330
C
100
AcDbDictionary
  3
STANDARD
350
18
  0
DICTIONARY
  5
19
102
{ACAD_REACTORS
330
C
102
}
330
C
100
AcDbDictionary
  0
ACDBDICTIONARYWDFLT
  5
E
102
{ACAD_REACTORS
330
C
102
}
330
C
100
AcDbDictionary
281
     1
  3
Normal
350
F
100
AcDbDictionaryWithDefault
340
F
  0
DICTIONARY
  5
280
102
{ACAD_REACTORS
330
C
102
}
330
C
100
AcDbDictionary
  3
CEPSNTYPE
350
28A
  3
DIMSTYLEDATA
350
28E
  3
FINGERPRINTGUID
350
28B
  3
HYPERLINKBASE
350
283
  3
INSUNITS
350
289
  3
LAYOUTDICT
350
285
  3
LWETCUNION
350
288
  3
PLOTSETDICT
350
286
  3
PLOTSTYLNAMDICT
350
287
  3
PSVPSCALE
350
28D
  3
PUCSBASE
350
291
  3
PUCSORGBACK
350
297
  3
PUCSORGBOTTOM
350
293
  3
PUCSORGFRONT
350
296
  3
PUCSORGLEFT
350
294
  3
PUCSORGRIGHT
350
295
  3
PUCSORGTOP
350
292
  3
PUCSORTHOREF
350
28F
  3
PUCSORTHOVIEW
350
290
  3
STYLESHEET
350
284
  3
TSTACKALIGN
350
281
  3
TSTACKSIZE
350
282
  3
UCSBASE
350
29A
  3
UCSORGBACK
350
2A0
  3
UCSORGBOTTOM
350
29C
  3
UCSORGFRONT
350
29F
  3
UCSORGLEFT
350
29D
  3
UCSORGRIGHT
350
29E
  3
UCSORGTOP
350
29B
  3
UCSORTHOREF
350
298
  3
UCSORTHOVIEW
350
299
  3
VERSIONGUID
350
28C
  0
DICTIONARY
  5
27D
102
{ACAD_REACTORS
330
C
102
}
330
C
100
AcDbDictionary
  3
DIMASSOC
350
27E
  0
XRECORD
  5
2A4
102
{ACAD_REACTORS
330
2A3
102
}
330
2A3
100
AcDbXrecord
340
1F
  0
XRECORD
  5
2A2
102
{ACAD_REACTORS
330
2A1
102
}
330
2A1
100
AcDbXrecord
340
1B
  0
MLINESTYLE
  5
18
102
{ACAD_REACTORS
330
17
102
}
330
17
100
AcDbMlineStyle
  2
STANDARD
 70
     0
  3

 62
   256
 51
90.0
 52
90.0
 71
     2
 49
0.5
 62
   256
  6
BYLAYER
 49
-0.5
 62
   256
  6
BYLAYER
  0
ACDBPLACEHOLDER
  5
F
102
{ACAD_REACTORS
330
E
102
}
330
E
100
AcDbPlaceHolder
280
     0
  0
XRECORD
  5
28A
102
{ACAD_REACTORS
330
280
102
}
330
280
100
AcDbXrecord
 90
        0
  0
XRECORD
  5
28E
102
{ACAD_REACTORS
330
280
102
}
330
280
100
AcDbXrecord
1000
DSTYLE
1002
{
1070
   278
 70
    44
1002
}
  0
XRECORD
  5
28B
102
{ACAD_REACTORS
330
280
102
}
330
280
100
AcDbXrecord
  1
{058831A4-ADF9-44F3-A8F1-0B936ECE890D}
  0
XRECORD
  5
283
102
{ACAD_REACTORS
330
280
102
}
330
280
100
AcDbXrecord
  1

  0
XRECORD
  5
289
102
{ACAD_REACTORS
330
280
102
}
330
280
100
AcDbXrecord
 90
        4
  0
XRECORD
  5
285
102
{ACAD_REACTORS
330
280
102
}
330
280
100
AcDbXrecord
340
1A
  0
XRECORD
  5
288
102
{ACAD_REACTORS
330
280
102
}
330
280
100
AcDbXrecord
 90
    10781
  0
XRECORD
  5
286
102
{ACAD_REACTORS
330
280
102
}
330
280
100
AcDbXrecord
340
19
  0
XRECORD
  5
287
102
{ACAD_REACTORS
330
280
102
}
330
280
100
AcDbXrecord
340
E
  0
XRECORD
  5
28D
102
{ACAD_REACTORS
330
280
102
}
330
280
100
AcDbXrecord
 40
0.0
  0
XRECORD
  5
291
102
{ACAD_REACTORS
330
280
102
}
330
280
100
AcDbXrecord
340
0
  0
XRECORD
  5
297
102
{ACAD_REACTORS
330
280
102
}
330
280
100
AcDbXrecord
 10
0.0
 20
0.0
 30
0.0
  0
XRECORD
  5
293
102
{ACAD_REACTORS
330
280
102
}
330
280
100
AcDbXrecord
 10
0.0
 20
0.0
 30
0.0
  0
XRECORD
  5
296
102
{ACAD_REACTORS
330
280
102
}
330
280
100
AcDbXrecord
 10
0.0
 20
0.0
 30
0.0
  0
XRECORD
  5
294
102
{ACAD_REACTORS
330
280
102
}
330
280
100
AcDbXrecord
 10
0.0
 20
0.0
 30
0.0
  0
XRECORD
  5
295
102
{ACAD_REACTORS
330
280
102
}
330
280
100
AcDbXrecord
 10
0.0
 20
0.0
 30
0.0
  0
XRECORD
  5
292
102
{ACAD_REACTORS
330
280
102
}
330
280
100
AcDbXrecord
 10
0.0
 20
0.0
 30
0.0
  0
XRECORD
  5
28F
102
{ACAD_REACTORS
330
280
102
}
330
280
100
AcDbXrecord
340
0
  0
XRECORD
  5
290
102
{ACAD_REACTORS
330
280
102
}
330
280
100
AcDbXrecord
 70
     0
  0
XRECORD
  5
284
102
{ACAD_REACTORS
330
280
102
}
330
280
100
AcDbXrecord
  1

  0
XRECORD
  5
281
102
{ACAD_REACTORS
330
280
102
}
330
280
100
AcDbXrecord
 90
        1
  0
XRECORD
  5
282
102
{ACAD_REACTORS
330
280
102
}
330
280
100
AcDbXrecord
 90
       70
  0
XRECORD
  5
29A
102
{ACAD_REACTORS
330
280
102
}
330
280
100
AcDbXrecord
340
0
  0
XRECORD
  5
2A0
102
{ACAD_REACTORS
330
280
102
}
330
280
100
AcDbXrecord
 10
0.0
 20
0.0
 30
0.0
  0
XRECORD
  5
29C
102
{ACAD_REACTORS
330
280
102
}
330
280
100
AcDbXrecord
 10
0.0
 20
0.0
 30
0.0
  0
XRECORD
  5
29F
102
{ACAD_REACTORS
330
280
102
}
330
280
100
AcDbXrecord
 10
0.0
 20
0.0
 30
0.0
  0
XRECORD
  5
29D
102
{ACAD_REACTORS
330
280
102
}
330
280
100
AcDbXrecord
 10
0.0
 20
0.0
 30
0.0
  0
XRECORD
  5
29E
102
{ACAD_REACTORS
330
280
102
}
330
280
100
AcDbXrecord
 10
0.0
 20
0.0
 30
0.0
  0
XRECORD
  5
29B
102
{ACAD_REACTORS
330
280
102
}
330
280
100
AcDbXrecord
 10
0.0
 20
0.0
 30
0.0
  0
XRECORD
  5
298
102
{ACAD_REACTORS
330
280
102
}
330
280
100
AcDbXrecord
340
0
  0
XRECORD
  5
299
102
{ACAD_REACTORS
330
280
102
}
330
280
100
AcDbXrecord
 70
     0
  0
XRECORD
  5
28C
102
{ACAD_REACTORS
330
280
102
}
330
280
100
AcDbXrecord
  1
{24A59ACD-75BF-490F-9906-5C11E099A1BD}
  0
DICTIONARYVAR
  5
27E
102
{ACAD_REACTORS
330
27D
102
}
330
27D
100
DictionaryVariables
280
     0
  1
1
  0
ENDSEC
  0
EOF
