  0
SECTION
  2
HEADER
  9
$ACADVER
  1
AC1014
  9
$ACADMAINTVER
 70
     9
  9
$DWGCODEPAGE
  3
ANSI_1250
  9
$INSBASE
 10
0.0
 20
0.0
 30
0.0
  9
$EXTMIN
 10
2.730302795944506
 20
5.822122175078233
 30
0.0
  9
$EXTMAX
 10
15.39696946261117
 20
17.16187035403028
 30
0.0
  9
$LIMMIN
 10
0.0
 20
0.0
  9
$LIMMAX
 10
0.0
 20
0.0
  9
$ORTHOMODE
 70
     0
  9
$REGENMODE
 70
     1
  9
$FILLMODE
 70
     1
  9
$QTEXTMODE
 70
     0
  9
$MIRRTEXT
 70
     1
  9
$DRAGMODE
 70
     2
  9
$LTSCALE
 40
1.0
  9
$OSMODE
 70
  3007
  9
$ATTMODE
 70
     1
  9
$TEXTSIZE
 40
2.5
  9
$TRACEWID
 40
1.0
  9
$TEXTSTYLE
  7
STANDARD
  9
$CLAYER
  8
0
  9
$CELTYPE
  6
BYLAYER
  9
$CECOLOR
 62
   256
  9
$CELTSCALE
 40
1.0
  9
$DELOBJ
 70
     1
  9
$DISPSILH
 70
     0
  9
$DIMSCALE
 40
1.0
  9
$DIMASZ
 40
0.3
  9
$DIMEXO
 40
0.1
  9
$DIMDLI
 40
3.75
  9
$DIMRND
 40
0.0
  9
$DIMDLE
 40
0.0
  9
$DIMEXE
 40
0.1
  9
$DIMTP
 40
0.0
  9
$DIMTM
 40
0.0
  9
$DIMTXT
 40
0.2822222222222222
  9
$DIMCEN
 40
2.5
  9
$DIMTSZ
 40
0.0
  9
$DIMTOL
 70
     0
  9
$DIMLIM
 70
     0
  9
$DIMTIH
 70
     1
  9
$DIMTOH
 70
     1
  9
$DIMSE1
 70
     0
  9
$DIMSE2
 70
     0
  9
$DIMTAD
 70
     1
  9
$DIMZIN
 70
     0
  9
$DIMBLK
  1

  9
$DIMASO
 70
     1
  9
$DIMSHO
 70
     1
  9
$DIMPOST
  1

  9
$DIMAPOST
  1

  9
$DIMALT
 70
     0
  9
$DIMALTD
 70
     3
  9
$DIMALTF
 40
0.3937007874015748
  9
$DIMLFAC
 40
15.0
  9
$DIMTOFL
 70
     1
  9
$DIMTVP
 40
0.0
  9
$DIMTIX
 70
     0
  9
$DIMSOXD
 70
     0
  9
$DIMSAH
 70
     0
  9
$DIMBLK1
  1

  9
$DIMBLK2
  1

  9
$DIMSTYLE
  2
ISO-25
  9
$DIMCLRD
 70
     0
  9
$DIMCLRE
 70
     0
  9
$DIMCLRT
 70
     0
  9
$DIMTFAC
 40
1.0
  9
$DIMGAP
 40
0.1524
  9
$DIMJUST
 70
     0
  9
$DIMSD1
 70
     0
  9
$DIMSD2
 70
     0
  9
$DIMTOLJ
 70
     0
  9
$DIMTZIN
 70
     0
  9
$DIMALTZ
 70
     0
  9
$DIMALTTZ
 70
     0
  9
$DIMFIT
 70
     3
  9
$DIMUPT
 70
     0
  9
$DIMUNIT
 70
     2
  9
$DIMDEC
 70
     2
  9
$DIMTDEC
 70
     2
  9
$DIMALTU
 70
     2
  9
$DIMALTTD
 70
     3
  9
$DIMTXSTY
  7
STANDARD
  9
$DIMAUNIT
 70
     0
  9
$LUNITS
 70
     2
  9
$LUPREC
 70
     2
  9
$SKETCHINC
 40
1.0
  9
$FILLETRAD
 40
10.0
  9
$AUNITS
 70
     0
  9
$AUPREC
 70
     0
  9
$MENU
  1
.
  9
$ELEVATION
 40
0.0
  9
$PELEVATION
 40
0.0
  9
$THICKNESS
 40
0.0
  9
$LIMCHECK
 70
     0
  9
$BLIPMODE
 70
     0
  9
$CHAMFERA
 40
10.0
  9
$CHAMFERB
 40
10.0
  9
$CHAMFERC
 40
20.0
  9
$CHAMFERD
 40
0.0
  9
$SKPOLY
 70
     0
  9
$TDCREATE
 40
2453964.666349456
  9
$TDUPDATE
 40
2453966.372122025
  9
$TDINDWG
 40
0.0131899421
  9
$TDUSRTIMER
 40
0.0131899421
  9
$USRTIMER
 70
     1
  9
$ANGBASE
 50
0.0
  9
$ANGDIR
 70
     0
  9
$PDMODE
 70
     0
  9
$PDSIZE
 40
-1.0
  9
$PLINEWID
 40
0.0
  9
$COORDS
 70
     2
  9
$SPLFRAME
 70
     0
  9
$SPLINETYPE
 70
     6
  9
$SPLINESEGS
 70
     8
  9
$ATTDIA
 70
     0
  9
$ATTREQ
 70
     1
  9
$HANDLING
 70
 22529
  9
$HANDSEED
  5
1C9
  9
$SURFTAB1
 70
     6
  9
$SURFTAB2
 70
     6
  9
$SURFTYPE
 70
     6
  9
$SURFU
 70
     6
  9
$SURFV
 70
     6
  9
$UCSNAME
  2

  9
$UCSORG
 10
0.0
 20
0.0
 30
0.0
  9
$UCSXDIR
 10
1.0
 20
0.0
 30
0.0
  9
$UCSYDIR
 10
0.0
 20
1.0
 30
0.0
  9
$PUCSNAME
  2

  9
$PUCSORG
 10
0.0
 20
0.0
 30
0.0
  9
$PUCSXDIR
 10
1.0
 20
0.0
 30
0.0
  9
$PUCSYDIR
 10
0.0
 20
1.0
 30
0.0
  9
$USERI1
 70
     0
  9
$USERI2
 70
     0
  9
$USERI3
 70
     0
  9
$USERI4
 70
     0
  9
$USERI5
 70
     0
  9
$USERR1
 40
0.0
  9
$USERR2
 40
0.0
  9
$USERR3
 40
0.0
  9
$USERR4
 40
0.0
  9
$USERR5
 40
0.0
  9
$WORLDVIEW
 70
     1
  9
$SHADEDGE
 70
     3
  9
$SHADEDIF
 70
    70
  9
$TILEMODE
 70
     1
  9
$MAXACTVP
 70
    48
  9
$PINSBASE
 10
0.0
 20
0.0
 30
0.0
  9
$PLIMCHECK
 70
     0
  9
$PEXTMIN
 10
1.000000000000000E+20
 20
1.000000000000000E+20
 30
1.000000000000000E+20
  9
$PEXTMAX
 10
-1.000000000000000E+20
 20
-1.000000000000000E+20
 30
-1.000000000000000E+20
  9
$PLIMMIN
 10
0.0
 20
0.0
  9
$PLIMMAX
 10
420.0
 20
297.0
  9
$UNITMODE
 70
     0
  9
$VISRETAIN
 70
     1
  9
$PLINEGEN
 70
     0
  9
$PSLTSCALE
 70
     1
  9
$TREEDEPTH
 70
  3020
  9
$PICKSTYLE
 70
     1
  9
$CMLSTYLE
  2
STANDARD
  9
$CMLJUST
 70
     0
  9
$CMLSCALE
 40
20.0
  9
$PROXYGRAPHICS
 70
     1
  9
$MEASUREMENT
 70
     1
  0
ENDSEC
  0
SECTION
  2
CLASSES
  0
CLASS
  1
ACDBDICTIONARYWDFLT
  2
AcDbDictionaryWithDefault
  3
AutoCAD 2000
 90
        0
280
     0
281
     0
  0
CLASS
  1
ACDBPLACEHOLDER
  2
AcDbPlaceHolder
  3
AutoCAD 2000
 90
        0
280
     0
281
     0
  0
CLASS
  1
LAYOUT
  2
AcDbLayout
  3
AutoCAD 2000
 90
        0
280
     0
281
     0
  0
CLASS
  1
DICTIONARYVAR
  2
AcDbDictionaryVar
  3
AutoCAD 2000
 90
        0
280
     0
281
     0
  0
CLASS
  1
LONG_TRANSACTION
  2
AcDbLongTransaction
  3
AutoCAD 2000
 90
        0
280
     0
281
     0
  0
CLASS
  1
LWPOLYLINE
  2
AcDbPolyline
  3
AutoCAD 2000
 90
        0
280
     0
281
     1
  0
CLASS
  1
HATCH
  2
AcDbHatch
  3
AutoCAD 2000
 90
        0
280
     0
281
     1
  0
CLASS
  1
XRECORD
  2
AcDbXrecord
  3
AutoCAD 2000
 90
        0
280
     0
281
     0
  0
CLASS
  1
LONG_TRANSACTION
  2
AcDbLongTransaction
  3
AutoCAD 2000
 90
        0
280
     0
281
     0
  0
CLASS
  1
LWPOLYLINE
  2
AcDbPolyline
  3
AutoCAD 2000
 90
        0
280
     0
281
     1
  0
CLASS
  1
HATCH
  2
AcDbHatch
  3
AutoCAD 2000
 90
        0
280
     0
281
     1
  0
CLASS
  1
XRECORD
  2
AcDbXrecord
  3
AutoCAD 2000
 90
        0
280
     0
281
     0
  0
CLASS
  1
LONG_TRANSACTION
  2
AcDbLongTransaction
  3
AutoCAD 2000
 90
        0
280
     0
281
     0
  0
CLASS
  1
LWPOLYLINE
  2
AcDbPolyline
  3
AutoCAD 2000
 90
        0
280
     0
281
     1
  0
CLASS
  1
HATCH
  2
AcDbHatch
  3
AutoCAD 2000
 90
        0
280
     0
281
     1
  0
CLASS
  1
XRECORD
  2
AcDbXrecord
  3
AutoCAD 2000
 90
        0
280
     0
281
     0
  0
ENDSEC
  0
SECTION
  2
TABLES
  0
TABLE
  2
VPORT
  5
8
330
0
100
AcDbSymbolTable
 70
     2
  0
VPORT
  5
1A4
330
8
100
AcDbSymbolTableRecord
100
AcDbViewportTableRecord
  2
*ACTIVE
 70
     0
 10
0.0
 20
0.0
 11
1.0
 21
1.0
 12
9.063709285537282
 22
11.49200740397209
 13
0.0
 23
0.0
 14
10.0
 24
10.0
 15
10.0
 25
10.0
 16
0.0
 26
0.0
 36
1.0
 17
0.0
 27
0.0
 37
0.0
 40
11.44876557846212
 41
1.674961119751166
 42
50.0
 43
0.0
 44
0.0
 50
0.0
 51
0.0
 71
     0
 72
  2000
 73
     1
 74
     3
 75
     0
 76
     0
 77
     0
 78
     0
  0
ENDTAB
  0
TABLE
  2
LTYPE
  5
5
330
0
100
AcDbSymbolTable
 70
     1
  0
LTYPE
  5
14
330
5
100
AcDbSymbolTableRecord
100
AcDbLinetypeTableRecord
  2
BYBLOCK
 70
     0
  3

 72
    65
 73
     0
 40
0.0
  0
LTYPE
  5
15
330
5
100
AcDbSymbolTableRecord
100
AcDbLinetypeTableRecord
  2
BYLAYER
 70
     0
  3

 72
    65
 73
     0
 40
0.0
  0
LTYPE
  5
16
330
5
100
AcDbSymbolTableRecord
100
AcDbLinetypeTableRecord
  2
CONTINUOUS
 70
     0
  3
Solid line
 72
    65
 73
     0
 40
0.0
  0
ENDTAB
  0
TABLE
  2
LAYER
  5
2
330
0
100
AcDbSymbolTable
 70
     2
  0
LAYER
  5
10
330
2
100
AcDbSymbolTableRecord
100
AcDbLayerTableRecord
  2
0
 70
     0
 62
     7
  6
CONTINUOUS
  0
LAYER
  5
2F
330
2
100
AcDbSymbolTableRecord
100
AcDbLayerTableRecord
  2
DIMENSIONS
 70
     0
 62
     5
  6
CONTINUOUS
  0
ENDTAB
  0
TABLE
  2
STYLE
  5
3
330
0
100
AcDbSymbolTable
 70
     1
  0
STYLE
  5
11
330
3
100
AcDbSymbolTableRecord
100
AcDbTextStyleTableRecord
  2
STANDARD
 70
     0
 40
0.0
 41
1.0
 50
0.0
 71
     0
 42
2.5
  3
ARIAL.TTF
  4

1001
ACAD
1000
Arial
1071
       34
  0
ENDTAB
  0
TABLE
  2
VIEW
  5
6
330
0
100
AcDbSymbolTable
 70
     0
  0
ENDTAB
  0
TABLE
  2
UCS
  5
7
330
0
100
AcDbSymbolTable
 70
     0
  0
ENDTAB
  0
TABLE
  2
APPID
  5
9
330
0
100
AcDbSymbolTable
 70
     1
  0
APPID
  5
12
330
9
100
AcDbSymbolTableRecord
100
AcDbRegAppTableRecord
  2
ACAD
 70
     0
  0
ENDTAB
  0
TABLE
  2
DIMSTYLE
  5
A
330
0
100
AcDbSymbolTable
 70
     1
  0
DIMSTYLE
105
27
330
A
100
AcDbSymbolTableRecord
100
AcDbDimStyleTableRecord
  2
ISO-25
 70
     0
  3

  4

  5

  6

  7

 40
1.0
 41
2.5
 42
0.625
 43
3.75
 44
1.25
 45
0.0
 46
0.0
 47
0.0
 48
0.0
140
2.5
141
2.5
142
0.0
143
0.03937007874016
144
1.0
145
0.0
146
1.0
147
0.625
 71
     0
 72
     0
 73
     0
 74
     0
 75
     0
 76
     0
 77
     1
 78
     8
170
     0
171
     3
172
     1
173
     0
174
     0
175
     0
176
     0
177
     0
178
     0
270
     2
271
     2
272
     2
273
     2
274
     3
340
11
275
     0
280
     0
281
     0
282
     0
283
     0
284
     8
285
     0
286
     0
287
     3
288
     0
  0
ENDTAB
  0
TABLE
  2
BLOCK_RECORD
  5
1
330
0
100
AcDbSymbolTable
 70
     1
  0
BLOCK_RECORD
  5
1F
102
{ACAD_XDICTIONARY
360
EE
102
}
330
1
100
AcDbSymbolTableRecord
100
AcDbBlockTableRecord
  2
*MODEL_SPACE
  0
BLOCK_RECORD
  5
1B
102
{ACAD_XDICTIONARY
360
F0
102
}
330
1
100
AcDbSymbolTableRecord
100
AcDbBlockTableRecord
  2
*PAPER_SPACE
  0
ENDTAB
  0
ENDSEC
  0
SECTION
  2
BLOCKS
  0
BLOCK
  5
20
330
1F
100
AcDbEntity
  8
0
100
AcDbBlockBegin
  2
*MODEL_SPACE
 70
     0
 10
0.0
 20
0.0
 30
0.0
  3
*MODEL_SPACE
  1

  0
ENDBLK
  5
21
330
1F
100
AcDbEntity
  8
0
100
AcDbBlockEnd
  0
BLOCK
  5
1C
330
1B
100
AcDbEntity
 67
     1
  8
0
100
AcDbBlockBegin
  2
*PAPER_SPACE
 70
     0
 10
0.0
 20
0.0
 30
0.0
  3
*PAPER_SPACE
  1

  0
ENDBLK
  5
1D
330
1B
100
AcDbEntity
 67
     1
  8
0
100
AcDbBlockEnd
  0
ENDSEC
  0
SECTION
  2
ENTITIES
  0
LINE
  5
A0
330
1F
100
AcDbEntity
  8
0
  6
CONTINUOUS
 62
     7
100
AcDbLine
 10
2.730302795944506
 20
17.16187035403028
 30
0.0
 11
2.730302795944506
 21
11.82853702069695
 31
0.0
  0
ARC
  5
A1
330
1F
100
AcDbEntity
  8
0
  6
CONTINUOUS
 62
     7
100
AcDbCircle
 10
5.248024743139467
 20
14.62849057683467
 30
0.0
 40
2.114089689452969
100
AcDbArc
 50
156.6136432637436
 51
208.7927353631177
  0
ARC
  5
A2
330
1F
100
AcDbEntity
  8
0
  6
CONTINUOUS
 62
     7
100
AcDbCircle
 10
5.279881297668945
 20
14.64416411680114
 30
0.0
 40
2.149454954836291
100
AcDbArc
 50
208.744905389381
 51
252.0694619359634
  0
LINE
  5
A3
330
1F
100
AcDbEntity
  8
0
  6
CONTINUOUS
 62
     7
100
AcDbLine
 10
2.730302795944506
 20
11.82853702069695
 30
0.0
 11
15.39696946261117
 21
11.82853702069695
 31
0.0
  0
LWPOLYLINE
  5
A4
330
1F
100
AcDbEntity
  8
0
  6
CONTINUOUS
 62
     7
100
AcDbPolyline
 90
       16
 70
   128
 43
0.0
 10
4.618142004302209
 20
12.59944716860925
 10
4.685912184680088
 20
12.57888830022877
 10
4.75435133008936
 20
12.56060161648501
 10
4.823343863976602
 20
12.54461454475345
 10
4.893545604758275
 20
12.53081386864355
 10
4.964193030789754
 20
12.51938463845947
 10
5.035165596748291
 20
12.5103467455085
 10
5.101035447559711
 20
12.50412658975899
 10
5.167083428685556
 20
12.49996298972286
 10
5.233213062680305
 20
12.49786217023776
 10
5.299673762720191
 20
12.49731395570187
 10
5.366140191754163
 20
12.49741939387385
 10
5.432606663256668
 20
12.49758616626254
 10
5.632030696428629
 20
12.49758616626254
 10
5.829053144784117
 20
12.49758616626254
 10
6.230302795944507
 20
12.49758616626254
  0
LINE
  5
A8
330
1F
100
AcDbEntity
  8
0
  6
CONTINUOUS
 62
     7
100
AcDbLine
 10
6.230302795944507
 20
12.49758616626254
 30
0.0
 11
11.89696946261117
 21
12.49758616626255
 31
0.0
  0
LWPOLYLINE
  5
AC
330
1F
100
AcDbEntity
  8
0
  6
CONTINUOUS
 62
     7
100
AcDbPolyline
 90
       16
 70
   128
 43
0.0
 10
11.89696946261117
 20
12.49758616626255
 10
12.28376884235762
 20
12.49758616626255
 10
12.67056822210408
 20
12.49758616626254
 10
12.73508428747159
 20
12.497436253176
 10
12.79963504018286
 20
12.49731254020902
 10
12.86417961410715
 20
12.49770406680058
 10
12.9286771431137
 20
12.49909987238965
 10
12.99308676107174
 20
12.50198899641522
 10
13.05736760185053
 20
12.50686047831625
 10
13.12262132683056
 20
12.51401162888887
 10
13.18768406759786
 20
12.52319279183042
 10
13.25246291380529
 20
12.53438661396299
 10
13.31686495510571
 20
12.54757574210864
 10
13.38079728115199
 20
12.56274282308944
 10
13.44416698159698
 20
12.57987050372747
 10
13.50897336979358
 20
12.599604053069
  0
LWPOLYLINE
  5
AD
330
1F
100
AcDbEntity
  8
0
  6
CONTINUOUS
 62
     7
100
AcDbPolyline
 90
       51
 70
   128
 43
0.0
 10
13.70384157164607
 20
16.58567152351058
 10
13.64775166905965
 20
16.6090610896505
 10
13.59099744758716
 20
16.63082542689974
 10
13.53365080300472
 20
16.65093970938571
 10
13.47530737360021
 20
16.66952620260981
 10
13.41643775491657
 20
16.68641957797762
 10
13.35711678564928
 20
16.70160181342941
 10
13.30027648421056
 20
16.71445248029037
 10
13.24308281691721
 20
16.72574090591449
 10
13.18560071751928
 20
16.7354551553106
 10
13.12789511976686
 20
16.74358329348751
 10
13.0695331874199
 20
16.75016624950607
 10
13.01101129742129
 20
16.75513083256988
 10
12.95326483094294
 20
16.75843406141628
 10
12.89544973725254
 20
16.76016153067696
 10
12.81473768790795
 20
16.7608161814965
 10
12.73401858369112
 20
16.7606595614286
 10
12.65329944365501
 20
16.76044086669093
 10
11.93531947339713
 20
16.76044086669093
 10
11.93444263250574
 20
16.76044086669093
 10
11.93547889901374
 20
16.76044086669093
 10
11.93794999607128
 20
16.76044086669093
 10
11.94137764682851
 20
16.76044086669093
 10
11.94528357443559
 20
16.76044086669093
 10
11.94918950204267
 20
16.76044086669093
 10
11.9526171527999
 20
16.76044086669093
 10
11.95508824985744
 20
16.76044086669093
 10
11.95612451636544
 20
16.76044086669093
 10
11.95524767547405
 20
16.76044086669093
 10
11.94528357443559
 20
16.76044086669093
 10
11.25719590729309
 20
16.76044086669093
 10
10.49935953288135
 20
16.76044086669093
 10
7.707152460157516
 20
16.76044086669092
 10
6.197771097046664
 20
16.76044086669092
 10
5.841942797456163
 20
16.76044086669092
 10
5.486114497865663
 20
16.76044086669093
 10
5.308200348070411
 20
16.76044086669092
 10
5.248864718647945
 20
16.76015852354355
 10
5.189540858077045
 20
16.75891164518452
 10
5.130286198275163
 20
16.75610045823848
 10
5.058519115452371
 20
16.75027162376129
 10
4.986929712910776
 20
16.74200068066202
 10
4.915641021821526
 20
16.73130646781506
 10
4.84477607335577
 20
16.7182078240948
 10
4.774457898684661
 20
16.70272358837562
 10
4.714822236075038
 20
16.68760455367015
 10
4.655637998244337
 20
16.6707584449488
 10
4.596980965641026
 20
16.65220350338698
 10
4.53844314511407
 20
16.63178317453883
 10
4.480518681185094
 20
16.60964605572456
 10
4.423283793768695
 20
16.58581841665142
  0
LINE
  5
AE
330
1F
100
AcDbEntity
  8
0
  6
CONTINUOUS
 62
     7
100
AcDbLine
 10
15.39696946261117
 20
17.16187035403028
 30
0.0
 11
2.730302795944506
 21
17.16187035403028
 31
0.0
  0
ARC
  5
AF
330
1F
100
AcDbEntity
  8
0
  6
CONTINUOUS
 62
     7
100
AcDbCircle
 10
5.280447278398025
 20
14.61532552136489
 30
0.0
 40
2.149074427014191
100
AcDbArc
 50
113.5064558001068
 51
156.6345964350099
  0
LINE
  5
B0
330
1F
100
AcDbEntity
  8
0
  6
CONTINUOUS
 62
     7
100
AcDbLine
 10
15.39696946261117
 20
11.82853702069695
 30
0.0
 11
15.39696946261117
 21
17.16187035403028
 31
0.0
  0
ARC
  5
B1
330
1F
100
AcDbEntity
  8
0
  6
CONTINUOUS
 62
     7
100
AcDbCircle
 10
12.88100904046656
 20
14.62852849487964
 30
0.0
 40
2.112010225911674
100
AcDbArc
 50
331.190216455063
 51
23.39956930760799
  0
ARC
  5
B2
330
1F
100
AcDbEntity
  8
0
  6
CONTINUOUS
 62
     7
100
AcDbCircle
 10
12.84503200628973
 20
14.61404216350473
 30
0.0
 40
2.150781768096932
100
AcDbArc
 50
23.37311589268971
 51
66.46550471849839
  0
ARC
  5
B3
330
1F
100
AcDbEntity
  8
0
  6
CONTINUOUS
 62
     7
100
AcDbCircle
 10
12.84573755935706
 20
14.64546960799407
 30
0.0
 40
2.151038780147187
100
AcDbArc
 50
287.9587859813507
 51
331.2496197948638
  0
LWPOLYLINE
  5
B4
330
1F
100
AcDbEntity
  8
0
  6
CONTINUOUS
 62
     7
100
AcDbPolyline
 90
      229
 70
   128
 43
0.0
 10
11.85358182625461
 20
16.20796967542867
 10
11.91924907928538
 20
16.20677845027193
 10
11.96894661812572
 20
16.20406751747777
 10
12.01855949533888
 20
16.19980046591015
 10
12.06801508390396
 20
16.19398534373313
 10
12.11724075680006
 20
16.18663019911073
 10
12.16699903202201
 20
16.17758090549823
 10
12.21647003806395
 20
16.16695062672791
 10
12.26557900423124
 20
16.15475593802643
 10
12.31425115982924
 20
16.14101341462051
 10
12.34680237876219
 20
16.13087765985187
 10
12.37912824873861
 20
16.12004440350768
 10
12.42884208098992
 20
16.1018442133905
 10
12.47795943181411
 20
16.08197059364959
 10
12.52639809381921
 20
16.06045854295476
 10
12.57407585961327
 20
16.03734305997582
 10
12.62091052180433
 20
16.01265914338257
 10
12.66486843250931
 20
15.9876085844702
 10
12.70802520918052
 20
15.96115202509776
 10
12.75031823289333
 20
15.93333473561786
 10
12.79168488472312
 20
15.90420198638313
 10
12.81903983982023
 20
15.88382705635295
 10
12.84595186112674
 20
15.86287046739783
 10
12.8867130507456
 20
15.82928833666547
 10
12.92636018402939
 20
15.7943297597337
 10
12.96482441013709
 20
15.75805229737983
 10
13.0020368782277
 20
15.72051351038115
 10
13.03792873746021
 20
15.68177095951497
 10
13.07099141294332
 20
15.64363223071245
 10
13.10283827325414
 20
15.60443944842411
 10
13.13342495092389
 20
15.56425508367514
 10
13.16270707848386
 20
15.52314160749066
 10
13.18170370758238
 20
15.49491100454079
 10
13.2000910096738
 20
15.46627977454381
 10
13.23380638755724
 20
15.40994561456809
 10
13.26515709785055
 20
15.35222953024312
 10
13.29404937245675
 20
15.29327668453925
 10
13.31576008063914
 20
15.2443115794563
 10
13.33579208732392
 20
15.19458511076703
 10
13.35411546312544
 20
15.1441868935577
 10
13.37070027865809
 20
15.0932065429146
 10
13.38551660453624
 20
15.041733673924
 10
13.39399170347133
 20
15.00885970191106
 10
13.40175749446656
 20
14.97581097425969
 10
13.41166849163391
 20
14.92806324823806
 10
13.42010737803978
 20
14.88003349136097
 10
13.42912885382706
 20
14.81501443393326
 10
13.43545108061326
 20
14.74964955837804
 10
13.43904232284883
 20
14.68410688377691
 10
13.43992145200333
 20
14.62857574128296
 10
13.43881717523712
 20
14.57303087752949
 10
13.43574033139106
 20
14.51757793370718
 10
13.43292166586854
 20
14.48404538457397
 10
13.42938931177304
 20
14.45058052212368
 10
13.42049276962196
 20
14.3857760168078
 10
13.40893036943139
 20
14.32136566420512
 10
13.3947297993028
 20
14.25751389709871
 10
13.38119705025055
 20
14.20591930366929
 10
13.36590775522989
 20
14.15476938491699
 10
13.34888747151288
 20
14.10415331000154
 10
13.33016175637157
 20
14.05416024808263
 10
13.309756167078
 20
14.00487936831997
 10
13.29595607458858
 20
13.97402434186546
 10
13.28149238955807
 20
13.94347484528672
 10
13.25162620076292
 20
13.88524618727399
 10
13.21934924652841
 20
13.82828594197154
 10
13.18475841561872
 20
13.77273369463628
 10
13.15487939215883
 20
13.72852704009756
 10
13.12351102975839
 20
13.68530898518522
 10
13.09070616517086
 20
13.64315245642545
 10
13.05651763514967
 20
13.60213038034447
 10
13.02099827644827
 20
13.56231568346848
 10
12.99780781669237
 20
13.53772425696838
 10
12.97409303980907
 20
13.51363823691566
 10
12.93854765133955
 20
13.47940912540213
 10
12.90192621365629
 20
13.4462980257749
 10
12.86428939841034
 20
13.41434528387167
 10
12.82569787725277
 20
13.38359124553017
 10
12.78267664622176
 20
13.35152527995911
 10
12.73856456820259
 20
13.32089742909781
 10
12.69343629031807
 20
13.2917605083363
 10
12.64736645969104
 20
13.26416733306459
 10
12.60042972344431
 20
13.23817071867271
 10
12.57024594494863
 20
13.22253113275042
 10
12.53973320418575
 20
13.20754370991737
 10
12.49161235809828
 20
13.18553171087223
 10
12.44274139299846
 20
13.16512525141579
 10
12.39320384161633
 20
13.14635310955802
 10
12.3430832366819
 20
13.12924406330889
 10
12.29246311092519
 20
13.11382689067839
 10
12.24364603161602
 20
13.10067998381811
 10
12.19441256647643
 20
13.08907990996241
 10
12.14483702857754
 20
13.07904278450444
 10
12.09499373099044
 20
13.07058472283733
 10
12.06125666414527
 20
13.06577732213559
 10
12.02742469891645
 20
13.06169153384708
 10
11.97585055805462
 20
13.05701620311966
 10
11.92414684096232
 20
13.05407378548096
 10
11.87234768867903
 20
13.05250442350324
 10
11.82048724224426
 20
13.05194825975879
 10
11.7685996426975
 20
13.05204543681987
 10
11.71671903107825
 20
13.05243609725876
 10
11.664879548426
 20
13.05276038364772
 10
11.07928681068085
 20
13.05469568072379
 10
10.49368668856433
 20
13.05656658368653
 10
9.908069532043674
 20
13.058274145545
 10
9.644656990001871
 20
13.05893624773038
 10
9.381227628848025
 20
13.05943338568805
 10
9.117790929957623
 20
13.0596811562852
 10
8.854356374706153
 20
13.059595156389
 10
8.590819370152164
 20
13.05919076173473
 10
8.327293993824651
 20
13.05858648396652
 10
8.063778115533413
 20
13.05785226152133
 10
7.800269605088254
 20
13.05705803283613
 10
7.026595775139159
 20
13.05461614023555
 10
6.25293408182306
 20
13.05206698549478
 10
6.20338996715626
 20
13.05193165045214
 10
6.153809971251003
 20
13.05208781848739
 10
6.104240300224402
 20
13.05288608883522
 10
6.054727160193569
 20
13.05467706073027
 10
6.005316757275616
 20
13.05781133340724
 10
5.956055297587657
 20
13.06263950610077
 10
5.90623364248312
 20
13.06930799654
 10
5.856622176263337
 20
13.07754812550287
 10
5.807294510893513
 20
13.08734603120547
 10
5.758324258338858
 20
13.09868785186388
 10
5.725595854775777
 20
13.10718380862401
 10
5.693054935065931
 20
13.11637205000924
 10
5.64598400802498
 20
13.13100057276578
 10
5.599389413538713
 20
13.14708242586713
 10
5.552875784706555
 20
13.16478330155605
 10
5.506918542472235
 20
13.18394692365736
 10
5.461585855916299
 20
13.20454485708264
 10
5.416945894119286
 20
13.22654866674344
 10
5.367440834099069
 20
13.25305226430763
 10
5.318890512990429
 20
13.28130264022017
 10
5.271382666949906
 20
13.31124077757675
 10
5.243123226709416
 20
13.330187428782
 10
5.215273723170908
 20
13.34973184112757
 10
5.175676734048717
 20
13.37909118516509
 10
5.137005627382714
 20
13.4096600636568
 10
5.09894243942293
 20
13.4417279711567
 10
5.061888877912593
 20
13.47499488793167
 10
5.02590495670181
 20
13.509415661967
 10
4.991050689640687
 20
13.54494514124793
 10
4.953098413903887
 20
13.58634429702621
 10
4.916627035595253
 20
13.62907764467295
 10
4.881697209653929
 20
13.6730581215885
 10
4.861295208953364
 20
13.70029363367829
 10
4.841478369757078
 20
13.72795794527341
 10
4.813818841619037
 20
13.76878304146298
 10
4.787437657127059
 20
13.81044579174474
 10
4.762131160272701
 20
13.85332856760279
 10
4.738180244949885
 20
13.8970116818996
 10
4.715624210841466
 20
13.94143101443604
 10
4.694502357630295
 20
13.98652244501296
 10
4.672406215661712
 20
14.03819395670784
 10
4.65217399936229
 20
14.09064309857495
 10
4.633843440715288
 20
14.14376777367094
 10
4.623667254741134
 20
14.17627049631031
 10
4.614198340123848
 20
14.20898634888459
 10
4.60183628750182
 20
14.25633754369144
 10
4.590945053188137
 20
14.30404873029987
 10
4.578616604033605
 20
14.36876186066665
 10
4.568975799289598
 20
14.43395842505877
 10
4.562052896961911
 20
14.49947081615173
 10
4.55820391671479
 20
14.55801569582442
 10
4.556551499176802
 20
14.61670524797026
 10
4.55709988925173
 20
14.67541540483096
 10
4.559853331843361
 20
14.73402209864822
 10
4.563838746447741
 20
14.78288626716894
 10
4.569337051416149
 20
14.83160352350494
 10
4.579111660148305
 20
14.89687423053322
 10
4.591594940919041
 20
14.96171053793183
 10
4.60676043296713
 20
15.02594286597295
 10
4.621684464275058
 20
15.07975344209466
 10
4.638518251273223
 20
15.13301598821248
 10
4.657235682916996
 20
15.18562714401626
 10
4.669489347251869
 20
15.21716761424447
 10
4.68242390125526
 20
15.24843501205646
 10
4.702366029644747
 20
15.2932353971396
 10
4.723704251870103
 20
15.33738788320439
 10
4.746645515794013
 20
15.38126848573816
 10
4.770971521012981
 20
15.42442493298345
 10
4.796639296694058
 20
15.46679747807401
 10
4.823605872004299
 20
15.50832637414358
 10
4.855566678498802
 20
15.55414326550019
 10
4.889125299551338
 20
15.59882447571504
 10
4.924221189151057
 20
15.64228624730046
 10
4.946220275715699
 20
15.66800565730575
 10
4.968765161114902
 20
15.69324790943188
 10
5.002449855743019
 20
15.72901572423217
 10
5.037242151176974
 20
15.76370678110503
 10
5.073465165001919
 20
15.79760629776278
 10
5.110758278191399
 20
15.83036195695774
 10
5.149060430470216
 20
15.86193229656928
 10
5.188310561563168
 20
15.89227585447676
 10
5.233703761894202
 20
15.92502159360206
 10
5.280233815624588
 20
15.95616145789768
 10
5.327816666939487
 20
15.98563402109911
 10
5.357141033180783
 20
16.00266509939479
 10
5.386824069468314
 20
16.01906287826806
 10
5.430472632797245
 20
16.04169604367229
 10
5.474805373641816
 20
16.06295744557716
 10
5.52021840390012
 20
16.08300979737481
 10
5.566262242686359
 20
16.1016329876062
 10
5.612867572133685
 20
16.11880255194361
 10
5.659965074375245
 20
16.13449402605929
 10
5.713661729163964
 20
16.15041485268476
 10
5.767902454924367
 20
16.16443878980228
 10
5.822585771971409
 20
16.17654203696798
 10
5.855909968944347
 20
16.18293536063709
 10
5.889362804212913
 20
16.18861669278401
 10
5.933808339751255
 20
16.19503616281372
 10
5.978417192197343
 20
16.20019841752149
 10
6.038495976325829
 20
16.20502642299538
 10
6.098739525564948
 20
16.20759231259424
 10
6.159022679148221
 20
16.20826262862418
 10
6.7761193267571
 20
16.20675007531111
 10
7.39323364598879
 20
16.20545179861926
 10
8.010366159281986
 20
16.20445626506089
 10
8.490738484885286
 20
16.20396386411768
 10
8.971121364976033
 20
16.20375851603008
 10
9.451505310363431
 20
16.20384565451346
 10
9.931880831856689
 20
16.2042307132832
 10
10.41231869664978
 20
16.20489061446108
 10
10.89274464806547
 20
16.20576480933026
 10
11.37316832719736
 20
16.2068042565252
 10
11.85358182625461
 20
16.20796967542867
  0
LWPOLYLINE
  5
BB
330
1F
100
AcDbEntity
  8
0
  6
CONTINUOUS
 62
     7
100
AcDbPolyline
 90
      100
 70
   128
 43
0.0
 10
9.06363612927784
 20
12.52848713508176
 10
9.074629608684979
 20
12.52854562189995
 10
9.085578821230624
 20
12.52872084684877
 10
9.096439678300312
 20
12.52901210435919
 10
9.107168447055896
 20
12.52941822164001
 10
9.117721926532246
 20
12.52993756340027
 10
9.128057621592297
 20
12.53056803843402
 10
9.138133914039963
 20
12.5313071080408
 10
9.147910230201922
 20
12.53215179624816
 10
9.157347204303478
 20
12.53309870179483
 10
9.166406836980645
 20
12.53414401182636
 10
9.175052648290174
 20
12.53528351724819
 10
9.183249824601407
 20
12.53651262967418
 10
9.19096535877848
 20
12.53782639990238
 10
9.198168183088412
 20
12.53921953784379
 10
9.204829294299898
 20
12.54068643382361
 10
9.210921870469091
 20
12.54222118116945
 10
9.216421378942088
 20
12.54381759999544
 10
9.221305675139291
 20
12.54546926208642
 10
9.225555091723792
 20
12.54716951678207
 10
9.229152517794814
 20
12.54891151775685
 10
9.232083467787255
 20
12.55068825058765
 10
9.234336139799957
 20
12.55249256099844
 10
9.235901463117791
 20
12.55431718366804
 10
9.236773134736228
 20
12.55615477148493
 10
9.236947644741313
 20
12.55799792513154
 10
9.236424290442844
 20
12.55983922287866
 10
9.235205179203868
 20
12.56167125047014
 10
9.233295219955069
 20
12.56348663097748
 10
9.230702103428232
 20
12.5652780545041
 10
9.227436271188382
 20
12.56703830761973
 10
9.223510873589301
 20
12.56876030240634
 10
9.218941716821673
 20
12.57043710499869
 10
9.213747199267142
 20
12.57206196350456
 10
9.207948237414534
 20
12.57362833519223
 10
9.201568181636519
 20
12.57512991283577
 10
9.194632722165911
 20
12.57656065011196
 10
9.187169785650176
 20
12.57791478594677
 10
9.179209422700663
 20
12.57918686771312
 10
9.170783686889413
 20
12.58037177318672
 10
9.161926505680719
 20
12.58146473117142
 10
9.152673543817229
 20
12.58246134071118
 10
9.14306205971059
 20
12.58335758881112
 10
9.133130755414986
 20
12.58414986659648
 10
9.122919620787623
 20
12.58483498384424
 10
9.112469772463688
 20
12.58541018182905
 10
9.101823288294173
 20
12.58587314443164
 10
9.09102303791322
 20
12.58622200746501
 10
9.080112510117231
 20
12.58645536618085
 10
9.069135637750838
 20
12.58657228092598
 10
9.058136620804841
 20
12.58657228092598
 10
9.047159748438447
 20
12.58645536618085
 10
9.036249220642458
 20
12.58622200746501
 10
9.025448970261505
 20
12.58587314443164
 10
9.014802486091992
 20
12.58541018182905
 10
9.004352637768056
 20
12.58483498384424
 10
8.994141503140692
 20
12.58414986659648
 10
8.984210198845088
 20
12.58335758881112
 10
8.97459871473845
 20
12.58246134071118
 10
8.965345752874959
 20
12.58146473117142
 10
8.956488571666268
 20
12.58037177318671
 10
8.948062835855015
 20
12.57918686771312
 10
8.940102472905502
 20
12.57791478594677
 10
8.932639536389768
 20
12.57656065011196
 10
8.925704076919162
 20
12.57512991283577
 10
8.919324021141147
 20
12.57362833519223
 10
8.913525059288536
 20
12.57206196350456
 10
8.908330541734008
 20
12.57043710499869
 10
8.903761384966378
 20
12.56876030240634
 10
8.899835987367298
 20
12.56703830761972
 10
8.89657015512745
 20
12.5652780545041
 10
8.893977038600612
 20
12.56348663097748
 10
8.892067079351811
 20
12.56167125047014
 10
8.890847968112836
 20
12.55983922287866
 10
8.890324613814367
 20
12.55799792513153
 10
8.890499123819452
 20
12.55615477148492
 10
8.891370795437889
 20
12.55431718366804
 10
8.892936118755724
 20
12.55249256099844
 10
8.895188790768425
 20
12.55068825058764
 10
8.898119740760868
 20
12.54891151775685
 10
8.901717166831888
 20
12.54716951678207
 10
8.905966583416391
 20
12.54546926208641
 10
8.910850879613594
 20
12.54381759999544
 10
8.916350388086593
 20
12.54222118116945
 10
8.922442964255782
 20
12.5406864338236
 10
8.92910407546727
 20
12.53921953784379
 10
8.936306899777202
 20
12.53782639990238
 10
8.944022433954275
 20
12.53651262967418
 10
8.952219610265508
 20
12.53528351724819
 10
8.960865421575038
 20
12.53414401182636
 10
8.969925054252204
 20
12.53309870179482
 10
8.979362028353762
 20
12.53215179624816
 10
8.989138344515719
 20
12.5313071080408
 10
8.999214636963385
 20
12.53056803843402
 10
9.009550332023438
 20
12.52993756340027
 10
9.020103811499788
 20
12.52941822164001
 10
9.030832580255372
 20
12.52901210435919
 10
9.04169343732506
 20
12.52872084684877
 10
9.052642649870705
 20
12.52854562189995
 10
9.06363612927784
 20
12.52848713508176
  0
LWPOLYLINE
  5
BE
330
1F
100
AcDbEntity
  8
0
  6
CONTINUOUS
 62
     7
100
AcDbPolyline
 90
       23
 70
   128
 43
0.0
 10
8.90228569651132
 20
12.54700866012485
 10
8.90781723291271
 20
12.5492304597097
 10
8.917146020930518
 20
12.55203411964209
 10
8.928263619238357
 20
12.55464815666147
 10
8.941733208195547
 20
12.55715719475246
 10
8.956073424657708
 20
12.55928529405024
 10
8.971727103680711
 20
12.56113522537527
 10
8.989392813104174
 20
12.56275559989992
 10
9.007127707386011
 20
12.56396821151053
 10
9.025552633559378
 20
12.56484547141744
 10
9.045422788719443
 20
12.56539449743988
 10
9.064552886023321
 20
12.56555490860279
 10
9.083671788688066
 20
12.56536059269176
 10
9.103506180320652
 20
12.56477637169274
 10
9.121874707291876
 20
12.56386649726617
 10
9.139532075203943
 20
12.56262251318214
 10
9.1570945261114
 20
12.56097091164754
 10
9.172630570673197
 20
12.559093333071
 10
9.186835669545043
 20
12.55693993058288
 10
9.200146146612084
 20
12.55440715405706
 10
9.211098137592802
 20
12.5517735540722
 10
9.220249450283093
 20
12.54895351297533
 10
9.224879260891311
 20
12.54703710760403
  0
CIRCLE
  5
BF
330
1F
100
AcDbEntity
  8
0
  6
CONTINUOUS
 62
     7
100
AcDbCircle
 10
9.063636129277838
 20
13.69520368736362
 30
0.0
 40
0.3665179007108037
  0
CIRCLE
  5
C0
330
1F
100
AcDbEntity
  8
0
  6
CONTINUOUS
 62
     7
100
AcDbCircle
 10
9.063636129277838
 20
13.69520368736362
 30
0.0
 40
0.1733333333333338
  0
LINE
  5
C1
330
1F
100
AcDbEntity
  8
DIMENSIONS
100
AcDbLine
 10
4.846831505336103
 20
6.07010685485328
 30
0.0
 11
4.846831505336103
 21
5.896773521519946
 31
0.0
  0
LINE
  5
C2
330
1F
100
AcDbEntity
  8
DIMENSIONS
100
AcDbLine
 10
8.579398827286251
 20
5.995455508411567
 30
0.0
 11
8.579398827286251
 21
5.822122175078233
 31
0.0
  0
LINE
  5
C3
330
1F
100
AcDbEntity
  8
DIMENSIONS
100
AcDbLine
 10
4.846831505336103
 20
5.896773521519946
 30
0.0
 11
8.579398827286251
 21
5.822122175078233
 31
0.0
  0
LINE
  5
C5
330
1F
100
AcDbEntity
  8
DIMENSIONS
  6
CONTINUOUS
 62
     5
100
AcDbLine
 10
13.28044075321958
 20
5.896773521519946
 30
0.0
 11
9.547873431269485
 21
5.822122175078243
 31
0.0
  0
LINE
  5
C6
330
1F
100
AcDbEntity
  8
DIMENSIONS
  6
CONTINUOUS
 62
     5
100
AcDbLine
 10
9.547873431269483
 20
5.995455508411576
 30
0.0
 11
9.547873431269485
 21
5.822122175078243
 31
0.0
  0
LINE
  5
C7
330
1F
100
AcDbEntity
  8
DIMENSIONS
  6
CONTINUOUS
 62
     5
100
AcDbLine
 10
13.28044075321958
 20
6.07010685485328
 30
0.0
 11
13.28044075321958
 21
5.896773521519946
 31
0.0
  0
LINE
  5
C8
330
1F
100
AcDbEntity
  8
DIMENSIONS
100
AcDbLine
 10
8.579398827286251
 20
5.822122175078233
 30
0.0
 11
9.547873431269485
 21
5.822122175078243
 31
0.0
  0
LINE
  5
C9
330
1F
100
AcDbEntity
  8
0
  6
CONTINUOUS
 62
     7
100
AcDbLine
 10
3.253663732826257
 20
9.007108361944805
 30
0.0
 11
4.542452800473672
 21
6.078039521479766
 31
0.0
  0
LINE
  5
CA
330
1F
100
AcDbEntity
  8
0
  6
CONTINUOUS
 62
     7
100
AcDbLine
 10
13.45345369323966
 20
6.07548484728185
 30
0.0
 11
14.86063175736493
 21
9.007108361944803
 31
0.0
  0
LINE
  5
CB
330
1F
100
AcDbEntity
  8
0
  6
CONTINUOUS
 62
     7
100
AcDbLine
 10
4.846985366805452
 20
6.070103777620832
 30
0.0
 11
8.689184962347869
 21
5.993259785709984
 31
0.0
  0
LINE
  5
CC
330
1F
100
AcDbEntity
  8
0
  6
CONTINUOUS
 62
     7
100
AcDbLine
 10
9.438087296207809
 20
5.993259785709984
 30
0.0
 11
13.14838427648216
 21
6.067465725315472
 31
0.0
  0
ARC
  5
CD
330
1F
100
AcDbEntity
  8
0
  6
CONTINUOUS
 62
     7
100
AcDbCircle
 10
9.063636129277838
 20
6.446614308776409
 30
0.0
 40
0.5880000000000011
100
AcDbArc
 50
287.1446203290002
 51
309.5552288032998
  0
ARC
  5
CE
330
1F
100
AcDbEntity
  8
0
  6
CONTINUOUS
 62
     7
100
AcDbCircle
 10
9.063636129277838
 20
6.446614308776409
 30
0.0
 40
0.5880000000000006
100
AcDbArc
 50
230.4447711967019
 51
252.8553796710016
  0
LINE
  5
CF
330
1F
100
AcDbEntity
  8
0
  6
CONTINUOUS
 62
     7
100
AcDbLine
 10
15.39696946261117
 20
9.007108361944803
 30
0.0
 11
2.730302795944506
 21
9.007108361944805
 31
0.0
  0
LINE
  5
D0
330
1F
100
AcDbEntity
  8
0
  6
CONTINUOUS
 62
     7
100
AcDbLine
 10
15.39696946261117
 20
9.007108361944803
 30
0.0
 11
15.39696946261117
 21
9.340441695278137
 31
0.0
  0
LINE
  5
D1
330
1F
100
AcDbEntity
  8
0
  6
CONTINUOUS
 62
     7
100
AcDbLine
 10
2.730302795944506
 20
9.007108361944805
 30
0.0
 11
2.730302795944506
 21
9.340441695278137
 31
0.0
  0
LINE
  5
D2
330
1F
100
AcDbEntity
  8
0
  6
CONTINUOUS
 62
     7
100
AcDbLine
 10
2.730302795944506
 20
9.340441695278137
 30
0.0
 11
15.39696946261117
 21
9.340441695278137
 31
0.0
  0
LWPOLYLINE
  5
DF
330
1F
100
AcDbEntity
  8
0
  6
CONTINUOUS
 62
     7
100
AcDbPolyline
 90
       42
 70
   128
 43
0.0
 10
5.687929161775843
 20
6.054324800461335
 10
5.624617738936763
 20
6.05550435227352
 10
5.562196775893665
 20
6.056663496829454
 10
5.520850834716971
 20
6.057429612747299
 10
5.479979902790959
 20
6.058185932304911
 10
5.439631903207768
 20
6.058931883621065
 10
5.398970059634312
 20
6.059683242264539
 10
5.35890350962408
 20
6.060423536199007
 10
5.319480146020389
 20
6.061152224174874
 10
5.280440489053458
 20
6.061874458656149
 10
5.242097592247212
 20
6.062584804761113
 10
5.204496690129357
 20
6.063282768761594
 10
5.151438421770063
 20
6.064270812163044
 10
5.100075615970875
 20
6.06523198536692
 10
5.066597882677657
 20
6.065861681736226
 10
5.033952340239398
 20
6.06647871616062
 10
5.00218267277193
 20
6.067082548933273
 10
4.970642068858158
 20
6.067685897914993
 10
4.940050566093172
 20
6.068275427825013
 10
4.910440093468813
 20
6.068850831176572
 10
4.881617555225619
 20
6.069416225617935
 10
4.853819663598723
 20
6.069967311884429
 10
4.827079326405304
 20
6.07050372331667
 10
4.790344006685926
 20
6.071252763208876
 10
4.755924615616245
 20
6.071970380076184
 10
4.73415723298789
 20
6.072434093102855
 10
4.713483995964757
 20
6.072883197365052
 10
4.693932054812472
 20
6.073317338324062
 10
4.675121626737533
 20
6.073745533109593
 10
4.657509712655758
 20
6.074157961046928
 10
4.641118483044129
 20
6.074554327253618
 10
4.625849200615488
 20
6.074937406504485
 10
4.6118366426529
 20
6.075304165666786
 10
4.599095700203966
 20
6.075654398496268
 10
4.583045048469684
 20
6.076128142242131
 10
4.569632097659885
 20
6.076567991070493
 10
4.558807924858674
 20
6.076976511473207
 10
4.550692286985189
 20
6.077350319904692
 10
4.546728810668722
 20
6.077584811965638
 10
4.544041425795063
 20
6.077802881128499
 10
4.542641182042045
 20
6.078004229131148
 10
4.54259084042364
 20
6.078100258999183
  0
LWPOLYLINE
  5
E0
330
1F
100
AcDbEntity
  8
0
  6
CONTINUOUS
 62
     7
100
AcDbPolyline
 90
       80
 70
   128
 43
0.0
 10
13.45336436444814
 20
6.075527725079549
 10
13.45298029413165
 20
6.075372302403964
 10
13.45118799382634
 20
6.075159836038585
 10
13.44627666809043
 20
6.074822126022459
 10
13.43866013517029
 20
6.074450137292211
 10
13.42828281364346
 20
6.074041414129096
 10
13.4152090769473
 20
6.073598665260501
 10
13.40477020197201
 20
6.073277750145662
 10
13.39309032171608
 20
6.072941054981368
 10
13.38017863921541
 20
6.072588710125108
 10
13.36592886331479
 20
6.072217875744288
 10
13.35043973937767
 20
6.071831091551482
 10
13.33372914542688
 20
6.071428598751642
 10
13.307330238453
 20
6.070816705303984
 10
13.2784304324673
 20
6.070172207880257
 10
13.25765287157679
 20
6.069721485491016
 10
13.23578841282875
 20
6.069256382551334
 10
13.21286685917376
 20
6.068777289150816
 10
13.18837500188435
 20
6.068273496000879
 10
13.16281664576945
 20
6.067755341224632
 10
13.13622437799279
 20
6.06722321685537
 10
13.10841206423974
 20
6.066673202789269
 10
13.07958298931288
 20
6.066109091944929
 10
13.04976911707608
 20
6.065531215343304
 10
13.01998384917727
 20
6.064958684137958
 10
12.98930100395421
 20
6.064373169435797
 10
12.95775163018922
 20
6.063774970063005
 10
12.92512325529332
 20
6.063159807917618
 10
12.89166030947313
 20
6.06253203764305
 10
12.85740592784665
 20
6.06189217892865
 10
12.82161686865834
 20
6.061226135684567
 10
12.78504887821338
 20
6.060547728348289
 10
12.7477460875834
 20
6.059857450480816
 10
12.70945322322023
 20
6.059150264266461
 10
12.67045861166681
 20
6.05843115693823
 10
12.63080754054763
 20
6.057700608617345
 10
12.57211962768764
 20
6.05661975052196
 10
12.51219507266855
 20
6.055515648629798
 10
12.47132720452091
 20
6.054761867767172
 10
12.42997249406833
 20
6.053998104622698
 10
12.38817931951861
 20
6.053224933437974
 10
12.3450537348998
 20
6.052425441723968
 10
12.3015229647978
 20
6.051616440372383
 10
12.25763990395837
 20
6.050798585894965
 10
12.21310913640385
 20
6.049966015108625
 10
12.16827515440268
 20
6.049124814446583
 10
12.12319207283965
 20
6.048275671217248
 10
12.06346492391441
 20
6.04714519356855
 10
12.00343610107146
 20
6.046002126194598
 10
11.94284805035523
 20
6.044840798941669
 10
11.88212545439569
 20
6.043668632825167
 10
11.82084298990354
 20
6.042477941126874
 10
11.75955380675434
 20
6.041285106506038
 10
11.63697175609805
 20
6.038905141458389
 10
11.15395872629169
 20
6.029604366484505
 10
10.67094182342041
 20
6.020500625012767
 10
10.1655557608107
 20
6.011415847161795
 10
9.924033579964813
 20
6.007340791203006
 10
9.682503211284517
 20
6.003682814883434
 10
9.44096415302026
 20
6.000817930198627
 10
9.199415903422487
 20
5.999122149144134
 10
8.957784277906689
 20
5.99907404545447
 10
8.71615359036461
 20
6.000630540079006
 10
8.474530081852499
 20
6.003384222995452
 10
8.232919993426596
 20
6.006927684181523
 10
7.596703986969052
 20
6.017915991142074
 10
6.960503279445219
 20
6.029849038900633
 10
6.642415025927152
 20
6.035961400071263
 10
6.324327870968832
 20
6.04212902083143
 10
6.324327858650706
 20
6.042129021071112
 10
6.165284594745889
 20
6.045228181860036
 10
6.112209181219268
 20
6.046261444802667
 10
6.059159541783114
 20
6.047288854497331
 10
6.0062189958196
 20
6.048308021207142
 10
5.95270132849924
 20
6.049332015413157
 10
5.899385013914989
 20
6.050346657288765
 10
5.846358840475169
 20
6.05135073357962
 10
5.793132592087419
 20
6.052353938950933
 10
5.740292664373606
 20
6.053345681649188
 10
5.687929161775844
 20
6.054324800461334
  0
LWPOLYLINE
  5
E1
330
1F
100
AcDbEntity
  8
0
  6
CONTINUOUS
 62
     7
100
AcDbPolyline
 90
       33
 70
   128
 43
0.0
 10
8.894429179298265
 20
9.007108361944805
 10
8.891344880499461
 20
8.988784849995782
 10
8.890317775278314
 20
8.969565130020711
 10
8.891468656190374
 20
8.950413512685457
 10
8.8948170833286
 20
8.931514445778864
 10
8.900300985793519
 20
8.913042995743483
 10
8.90781723291271
 20
8.895346538024991
 10
8.917322352967838
 20
8.878605505791528
 10
8.928698994715471
 20
8.86296484156735
 10
8.941733208195547
 20
8.848718684832309
 10
8.956323390984916
 20
8.836023111662859
 10
8.972310141958685
 20
8.824976599494844
 10
8.989392813104174
 20
8.815786889847212
 10
9.007423126195901
 20
8.808568105311062
 10
9.02621760149516
 20
8.80336115564997
 10
9.045422788719443
 20
8.800263963141588
 10
9.064860451086055
 20
8.79933583043523
 10
9.084343716191181
 20
8.800555487356678
 10
9.103506180320652
 20
8.803899996948311
 10
9.122159742979739
 20
8.809367155993793
 10
9.140135207545496
 20
8.816875912431916
 10
9.1570945261114
 20
8.826285056037754
 10
9.172860941374597
 20
8.83753112612525
 10
9.187302008128742
 20
8.850482426751268
 10
9.200146146612084
 20
8.86489539480525
 10
9.211247870758695
 20
8.880652466842381
 10
9.220526418971157
 20
8.897586150756161
 10
9.227807298190485
 20
8.915377990443511
 10
9.232992696037992
 20
8.933869574087447
 10
9.236062639782653
 20
8.952876496882565
 10
9.23695939583699
 20
8.972041313243149
 10
9.235643853113263
 20
8.991182622710743
 10
9.232713252242449
 20
9.007108361944805
  0
LWPOLYLINE
  5
E2
330
1F
100
AcDbEntity
  8
0
  6
CONTINUOUS
 62
     7
100
AcDbPolyline
 90
       52
 70
   128
 43
0.0
 10
9.236969462611174
 20
8.973775028611473
 10
9.236947644741313
 20
8.971063826055141
 10
9.236424290442844
 20
8.960232662836768
 10
9.235205179203868
 20
8.949456029945675
 10
9.233295219955069
 20
8.938777321078973
 10
9.230702103428232
 20
8.928239535628277
 10
9.227436271188382
 20
8.917885105536358
 10
9.223510873589301
 20
8.907755724438665
 10
9.218941716821673
 20
8.897892179777771
 10
9.213747199267142
 20
8.888334188566753
 10
9.207948237414534
 20
8.879120237462782
 10
9.201568181636519
 20
8.870287427794949
 10
9.194632722165911
 20
8.861871326170298
 10
9.187169785650176
 20
8.853905821259665
 10
9.179209422700663
 20
8.846422987339948
 10
9.170783686889413
 20
8.839452955142322
 10
9.161926505680719
 20
8.833023790526418
 10
9.152673543817229
 20
8.827161381469009
 10
9.14306205971059
 20
8.821889333822269
 10
9.133130755414986
 20
8.817228876261337
 10
9.122919620787623
 20
8.813198774803931
 10
9.112469772463688
 20
8.809815257246217
 10
9.101823288294173
 20
8.807091947819213
 10
9.09102303791322
 20
8.805039812328804
 10
9.080112510117231
 20
8.803667114000322
 10
9.069135637750838
 20
8.802979380205449
 10
9.058136620804841
 20
8.802979380205451
 10
9.047159748438447
 20
8.803667114000322
 10
9.036249220642458
 20
8.805039812328804
 10
9.025448970261505
 20
8.807091947819213
 10
9.014802486091992
 20
8.809815257246217
 10
9.004352637768056
 20
8.813198774803931
 10
8.994141503140692
 20
8.817228876261339
 10
8.984210198845088
 20
8.821889333822271
 10
8.97459871473845
 20
8.827161381469011
 10
8.965345752874959
 20
8.833023790526418
 10
8.956488571666268
 20
8.839452955142323
 10
8.948062835855015
 20
8.84642298733995
 10
8.940102472905502
 20
8.853905821259667
 10
8.932639536389768
 20
8.8618713261703
 10
8.925704076919162
 20
8.87028742779495
 10
8.919324021141147
 20
8.879120237462784
 10
8.913525059288536
 20
8.888334188566753
 10
8.908330541734008
 20
8.897892179777773
 10
8.903761384966378
 20
8.907755724438667
 10
8.899835987367298
 20
8.917885105536361
 10
8.89657015512745
 20
8.928239535628279
 10
8.893977038600612
 20
8.938777321078973
 10
8.892067079351811
 20
8.949456029945677
 10
8.890847968112836
 20
8.960232662836769
 10
8.890324613814367
 20
8.971063826055141
 10
8.890302795944506
 20
8.973775028611468
  0
LINE
  5
E3
330
1F
100
AcDbEntity
  8
0
  6
CONTINUOUS
 62
     7
100
AcDbLine
 10
8.689184962347869
 20
5.993259785709984
 30
0.0
 11
9.438087296207809
 21
5.993259785709984
 31
0.0
  0
LINE
  5
E4
330
1F
100
AcDbEntity
  8
0
  6
CONTINUOUS
 62
     7
100
AcDbLine
 10
9.063636129277838
 20
5.884742832764717
 30
0.0
 11
8.890302795944506
 21
5.884742832764717
 31
0.0
  0
LINE
  5
E5
330
1F
100
AcDbEntity
  8
0
  6
CONTINUOUS
 62
     7
100
AcDbLine
 10
9.236969462611172
 20
5.884742832764717
 30
0.0
 11
9.063636129277838
 21
5.884742832764717
 31
0.0
  0
ENDSEC
  0
SECTION
  2
OBJECTS
  0
DICTIONARY
  5
C
330
0
100
AcDbDictionary
  3
ACAD_GROUP
350
D
  3
ACAD_LAYOUT
350
1A
  3
ACAD_MLINESTYLE
350
17
  3
ACAD_PLOTSETTINGS
350
19
  3
ACAD_PLOTSTYLENAME
350
E
  3
ACDBHEADERROUNDTRIPXREC
350
1A5
  3
ACDBVARIABLEDICTIONARY
350
128
  0
DICTIONARY
  5
EE
330
1F
100
AcDbDictionary
280
     1
  3
ACAD_LAYOUTSELFREF
360
1C7
  0
DICTIONARY
  5
F0
330
1B
100
AcDbDictionary
280
     1
  3
ACAD_LAYOUTSELFREF
360
1C6
  0
DICTIONARY
  5
D
102
{ACAD_REACTORS
330
C
102
}
330
C
100
AcDbDictionary
  0
DICTIONARY
  5
1A
102
{ACAD_REACTORS
330
C
102
}
330
C
100
AcDbDictionary
  0
DICTIONARY
  5
17
102
{ACAD_REACTORS
330
C
102
}
330
C
100
AcDbDictionary
  3
STANDARD
350
18
  0
DICTIONARY
  5
19
102
{ACAD_REACTORS
330
C
102
}
330
C
100
AcDbDictionary
  0
ACDBDICTIONARYWDFLT
  5
E
102
{ACAD_REACTORS
330
C
102
}
330
C
100
AcDbDictionary
281
     1
  3
Normal
350
F
100
AcDbDictionaryWithDefault
340
F
  0
DICTIONARY
  5
1A5
102
{ACAD_REACTORS
330
C
102
}
330
C
100
AcDbDictionary
  3
CEPSNTYPE
350
1AF
  3
DIMSTYLEDATA
350
1B3
  3
FINGERPRINTGUID
350
1B0
  3
HYPERLINKBASE
350
1A8
  3
INSUNITS
350
1AE
  3
LAYOUTDICT
350
1AA
  3
LWETCUNION
350
1AD
  3
PLOTSETDICT
350
1AB
  3
PLOTSTYLNAMDICT
350
1AC
  3
PSVPSCALE
350
1B2
  3
PUCSBASE
350
1B6
  3
PUCSORGBACK
350
1BC
  3
PUCSORGBOTTOM
350
1B8
  3
PUCSORGFRONT
350
1BB
  3
PUCSORGLEFT
350
1B9
  3
PUCSORGRIGHT
350
1BA
  3
PUCSORGTOP
350
1B7
  3
PUCSORTHOREF
350
1B4
  3
PUCSORTHOVIEW
350
1B5
  3
STYLESHEET
350
1A9
  3
TSTACKALIGN
350
1A6
  3
TSTACKSIZE
350
1A7
  3
UCSBASE
350
1BF
  3
UCSORGBACK
350
1C5
  3
UCSORGBOTTOM
350
1C1
  3
UCSORGFRONT
350
1C4
  3
UCSORGLEFT
350
1C2
  3
UCSORGRIGHT
350
1C3
  3
UCSORGTOP
350
1C0
  3
UCSORTHOREF
350
1BD
  3
UCSORTHOVIEW
350
1BE
  3
VERSIONGUID
350
1B1
  0
DICTIONARY
  5
128
102
{ACAD_REACTORS
330
C
102
}
330
C
100
AcDbDictionary
  3
DIMASSOC
350
129
  0
XRECORD
  5
1C7
102
{ACAD_REACTORS
330
EE
102
}
330
EE
100
AcDbXrecord
340
1F
  0
XRECORD
  5
1C6
102
{ACAD_REACTORS
330
F0
102
}
330
F0
100
AcDbXrecord
340
1B
  0
MLINESTYLE
  5
18
102
{ACAD_REACTORS
330
17
102
}
330
17
100
AcDbMlineStyle
  2
STANDARD
 70
     0
  3

 62
   256
 51
90.0
 52
90.0
 71
     2
 49
0.5
 62
   256
  6
BYLAYER
 49
-0.5
 62
   256
  6
BYLAYER
  0
ACDBPLACEHOLDER
  5
F
102
{ACAD_REACTORS
330
E
102
}
330
E
100
AcDbPlaceHolder
280
     0
  0
XRECORD
  5
1AF
102
{ACAD_REACTORS
330
1A5
102
}
330
1A5
100
AcDbXrecord
 90
        0
  0
XRECORD
  5
1B3
102
{ACAD_REACTORS
330
1A5
102
}
330
1A5
100
AcDbXrecord
1000
DSTYLE
1002
{
1070
   278
 70
    44
1002
}
  0
XRECORD
  5
1B0
102
{ACAD_REACTORS
330
1A5
102
}
330
1A5
100
AcDbXrecord
  1
{8A9E5D7A-08B0-437E-AC1D-4B2E8916ABE3}
  0
XRECORD
  5
1A8
102
{ACAD_REACTORS
330
1A5
102
}
330
1A5
100
AcDbXrecord
  1

  0
XRECORD
  5
1AE
102
{ACAD_REACTORS
330
1A5
102
}
330
1A5
100
AcDbXrecord
 90
        4
  0
XRECORD
  5
1AA
102
{ACAD_REACTORS
330
1A5
102
}
330
1A5
100
AcDbXrecord
340
1A
  0
XRECORD
  5
1AD
102
{ACAD_REACTORS
330
1A5
102
}
330
1A5
100
AcDbXrecord
 90
    10781
  0
XRECORD
  5
1AB
102
{ACAD_REACTORS
330
1A5
102
}
330
1A5
100
AcDbXrecord
340
19
  0
XRECORD
  5
1AC
102
{ACAD_REACTORS
330
1A5
102
}
330
1A5
100
AcDbXrecord
340
E
  0
XRECORD
  5
1B2
102
{ACAD_REACTORS
330
1A5
102
}
330
1A5
100
AcDbXrecord
 40
0.0
  0
XRECORD
  5
1B6
102
{ACAD_REACTORS
330
1A5
102
}
330
1A5
100
AcDbXrecord
340
0
  0
XRECORD
  5
1BC
102
{ACAD_REACTORS
330
1A5
102
}
330
1A5
100
AcDbXrecord
 10
0.0
 20
0.0
 30
0.0
  0
XRECORD
  5
1B8
102
{ACAD_REACTORS
330
1A5
102
}
330
1A5
100
AcDbXrecord
 10
0.0
 20
0.0
 30
0.0
  0
XRECORD
  5
1BB
102
{ACAD_REACTORS
330
1A5
102
}
330
1A5
100
AcDbXrecord
 10
0.0
 20
0.0
 30
0.0
  0
XRECORD
  5
1B9
102
{ACAD_REACTORS
330
1A5
102
}
330
1A5
100
AcDbXrecord
 10
0.0
 20
0.0
 30
0.0
  0
XRECORD
  5
1BA
102
{ACAD_REACTORS
330
1A5
102
}
330
1A5
100
AcDbXrecord
 10
0.0
 20
0.0
 30
0.0
  0
XRECORD
  5
1B7
102
{ACAD_REACTORS
330
1A5
102
}
330
1A5
100
AcDbXrecord
 10
0.0
 20
0.0
 30
0.0
  0
XRECORD
  5
1B4
102
{ACAD_REACTORS
330
1A5
102
}
330
1A5
100
AcDbXrecord
340
0
  0
XRECORD
  5
1B5
102
{ACAD_REACTORS
330
1A5
102
}
330
1A5
100
AcDbXrecord
 70
     0
  0
XRECORD
  5
1A9
102
{ACAD_REACTORS
330
1A5
102
}
330
1A5
100
AcDbXrecord
  1

  0
XRECORD
  5
1A6
102
{ACAD_REACTORS
330
1A5
102
}
330
1A5
100
AcDbXrecord
 90
        1
  0
XRECORD
  5
1A7
102
{ACAD_REACTORS
330
1A5
102
}
330
1A5
100
AcDbXrecord
 90
       70
  0
XRECORD
  5
1BF
102
{ACAD_REACTORS
330
1A5
102
}
330
1A5
100
AcDbXrecord
340
0
  0
XRECORD
  5
1C5
102
{ACAD_REACTORS
330
1A5
102
}
330
1A5
100
AcDbXrecord
 10
0.0
 20
0.0
 30
0.0
  0
XRECORD
  5
1C1
102
{ACAD_REACTORS
330
1A5
102
}
330
1A5
100
AcDbXrecord
 10
0.0
 20
0.0
 30
0.0
  0
XRECORD
  5
1C4
102
{ACAD_REACTORS
330
1A5
102
}
330
1A5
100
AcDbXrecord
 10
0.0
 20
0.0
 30
0.0
  0
XRECORD
  5
1C2
102
{ACAD_REACTORS
330
1A5
102
}
330
1A5
100
AcDbXrecord
 10
0.0
 20
0.0
 30
0.0
  0
XRECORD
  5
1C3
102
{ACAD_REACTORS
330
1A5
102
}
330
1A5
100
AcDbXrecord
 10
0.0
 20
0.0
 30
0.0
  0
XRECORD
  5
1C0
102
{ACAD_REACTORS
330
1A5
102
}
330
1A5
100
AcDbXrecord
 10
0.0
 20
0.0
 30
0.0
  0
XRECORD
  5
1BD
102
{ACAD_REACTORS
330
1A5
102
}
330
1A5
100
AcDbXrecord
340
0
  0
XRECORD
  5
1BE
102
{ACAD_REACTORS
330
1A5
102
}
330
1A5
100
AcDbXrecord
 70
     0
  0
XRECORD
  5
1B1
102
{ACAD_REACTORS
330
1A5
102
}
330
1A5
100
AcDbXrecord
  1
{A2FC9C64-0382-4559-802A-1E72FF3F6BC1}
  0
DICTIONARYVAR
  5
129
102
{ACAD_REACTORS
330
128
102
}
330
128
100
DictionaryVariables
280
     0
  1
1
  0
ENDSEC
  0
EOF
