  0
SECTION
  2
HEADER
  9
$ACADVER
  1
AC1014
  9
$ACADMAINTVER
 70
     9
  9
$DWGCODEPAGE
  3
ANSI_1250
  9
$INSBASE
 10
0.0
 20
0.0
 30
0.0
  9
$EXTMIN
 10
2.549400540987946
 20
6.262230977510371
 30
0.0
  9
$EXTMAX
 10
13.88273387432128
 20
17.19018060124724
 30
0.0
  9
$LIMMIN
 10
0.0
 20
0.0
  9
$LIMMAX
 10
0.0
 20
0.0
  9
$ORTHOMODE
 70
     1
  9
$REGENMODE
 70
     1
  9
$FILLMODE
 70
     1
  9
$QTEXTMODE
 70
     0
  9
$MIRRTEXT
 70
     1
  9
$DRAGMODE
 70
     2
  9
$LTSCALE
 40
1.0
  9
$OSMODE
 70
  3007
  9
$ATTMODE
 70
     1
  9
$TEXTSIZE
 40
2.5
  9
$TRACEWID
 40
1.0
  9
$TEXTSTYLE
  7
STANDARD
  9
$CLAYER
  8
0
  9
$CELTYPE
  6
BYLAYER
  9
$CECOLOR
 62
   256
  9
$CELTSCALE
 40
1.0
  9
$DELOBJ
 70
     1
  9
$DISPSILH
 70
     0
  9
$DIMSCALE
 40
1.0
  9
$DIMASZ
 40
0.3
  9
$DIMEXO
 40
0.1
  9
$DIMDLI
 40
3.75
  9
$DIMRND
 40
0.0
  9
$DIMDLE
 40
0.0
  9
$DIMEXE
 40
0.1
  9
$DIMTP
 40
0.0
  9
$DIMTM
 40
0.0
  9
$DIMTXT
 40
0.2822222222222222
  9
$DIMCEN
 40
2.5
  9
$DIMTSZ
 40
0.0
  9
$DIMTOL
 70
     0
  9
$DIMLIM
 70
     0
  9
$DIMTIH
 70
     1
  9
$DIMTOH
 70
     1
  9
$DIMSE1
 70
     0
  9
$DIMSE2
 70
     0
  9
$DIMTAD
 70
     1
  9
$DIMZIN
 70
     0
  9
$DIMBLK
  1

  9
$DIMASO
 70
     1
  9
$DIMSHO
 70
     1
  9
$DIMPOST
  1

  9
$DIMAPOST
  1

  9
$DIMALT
 70
     0
  9
$DIMALTD
 70
     3
  9
$DIMALTF
 40
0.3937007874015748
  9
$DIMLFAC
 40
15.0
  9
$DIMTOFL
 70
     1
  9
$DIMTVP
 40
0.0
  9
$DIMTIX
 70
     0
  9
$DIMSOXD
 70
     0
  9
$DIMSAH
 70
     0
  9
$DIMBLK1
  1

  9
$DIMBLK2
  1

  9
$DIMSTYLE
  2
ISO-25
  9
$DIMCLRD
 70
     0
  9
$DIMCLRE
 70
     0
  9
$DIMCLRT
 70
     0
  9
$DIMTFAC
 40
1.0
  9
$DIMGAP
 40
0.1524
  9
$DIMJUST
 70
     0
  9
$DIMSD1
 70
     0
  9
$DIMSD2
 70
     0
  9
$DIMTOLJ
 70
     0
  9
$DIMTZIN
 70
     0
  9
$DIMALTZ
 70
     0
  9
$DIMALTTZ
 70
     0
  9
$DIMFIT
 70
     3
  9
$DIMUPT
 70
     0
  9
$DIMUNIT
 70
     2
  9
$DIMDEC
 70
     2
  9
$DIMTDEC
 70
     2
  9
$DIMALTU
 70
     2
  9
$DIMALTTD
 70
     3
  9
$DIMTXSTY
  7
STANDARD
  9
$DIMAUNIT
 70
     0
  9
$LUNITS
 70
     2
  9
$LUPREC
 70
     1
  9
$SKETCHINC
 40
1.0
  9
$FILLETRAD
 40
10.0
  9
$AUNITS
 70
     0
  9
$AUPREC
 70
     0
  9
$MENU
  1
.
  9
$ELEVATION
 40
0.0
  9
$PELEVATION
 40
0.0
  9
$THICKNESS
 40
0.0
  9
$LIMCHECK
 70
     0
  9
$BLIPMODE
 70
     0
  9
$CHAMFERA
 40
10.0
  9
$CHAMFERB
 40
10.0
  9
$CHAMFERC
 40
20.0
  9
$CHAMFERD
 40
0.0
  9
$SKPOLY
 70
     0
  9
$TDCREATE
 40
2453964.645551817
  9
$TDUPDATE
 40
2453966.374090347
  9
$TDINDWG
 40
0.0151168403
  9
$TDUSRTIMER
 40
0.0151168403
  9
$USRTIMER
 70
     1
  9
$ANGBASE
 50
0.0
  9
$ANGDIR
 70
     0
  9
$PDMODE
 70
     0
  9
$PDSIZE
 40
-1.0
  9
$PLINEWID
 40
0.0
  9
$COORDS
 70
     2
  9
$SPLFRAME
 70
     0
  9
$SPLINETYPE
 70
     6
  9
$SPLINESEGS
 70
     8
  9
$ATTDIA
 70
     0
  9
$ATTREQ
 70
     1
  9
$HANDLING
 70
 22529
  9
$HANDSEED
  5
168
  9
$SURFTAB1
 70
     6
  9
$SURFTAB2
 70
     6
  9
$SURFTYPE
 70
     6
  9
$SURFU
 70
     6
  9
$SURFV
 70
     6
  9
$UCSNAME
  2

  9
$UCSORG
 10
0.0
 20
0.0
 30
0.0
  9
$UCSXDIR
 10
1.0
 20
0.0
 30
0.0
  9
$UCSYDIR
 10
0.0
 20
1.0
 30
0.0
  9
$PUCSNAME
  2

  9
$PUCSORG
 10
0.0
 20
0.0
 30
0.0
  9
$PUCSXDIR
 10
1.0
 20
0.0
 30
0.0
  9
$PUCSYDIR
 10
0.0
 20
1.0
 30
0.0
  9
$USERI1
 70
     0
  9
$USERI2
 70
     0
  9
$USERI3
 70
     0
  9
$USERI4
 70
     0
  9
$USERI5
 70
     0
  9
$USERR1
 40
0.0
  9
$USERR2
 40
0.0
  9
$USERR3
 40
0.0
  9
$USERR4
 40
0.0
  9
$USERR5
 40
0.0
  9
$WORLDVIEW
 70
     1
  9
$SHADEDGE
 70
     3
  9
$SHADEDIF
 70
    70
  9
$TILEMODE
 70
     1
  9
$MAXACTVP
 70
    48
  9
$PINSBASE
 10
0.0
 20
0.0
 30
0.0
  9
$PLIMCHECK
 70
     0
  9
$PEXTMIN
 10
1.000000000000000E+20
 20
1.000000000000000E+20
 30
1.000000000000000E+20
  9
$PEXTMAX
 10
-1.000000000000000E+20
 20
-1.000000000000000E+20
 30
-1.000000000000000E+20
  9
$PLIMMIN
 10
0.0
 20
0.0
  9
$PLIMMAX
 10
420.0
 20
297.0
  9
$UNITMODE
 70
     0
  9
$VISRETAIN
 70
     1
  9
$PLINEGEN
 70
     0
  9
$PSLTSCALE
 70
     1
  9
$TREEDEPTH
 70
  3020
  9
$PICKSTYLE
 70
     1
  9
$CMLSTYLE
  2
STANDARD
  9
$CMLJUST
 70
     0
  9
$CMLSCALE
 40
20.0
  9
$PROXYGRAPHICS
 70
     1
  9
$MEASUREMENT
 70
     1
  0
ENDSEC
  0
SECTION
  2
CLASSES
  0
CLASS
  1
ACDBDICTIONARYWDFLT
  2
AcDbDictionaryWithDefault
  3
AutoCAD 2000
 90
        0
280
     0
281
     0
  0
CLASS
  1
ACDBPLACEHOLDER
  2
AcDbPlaceHolder
  3
AutoCAD 2000
 90
        0
280
     0
281
     0
  0
CLASS
  1
LAYOUT
  2
AcDbLayout
  3
AutoCAD 2000
 90
        0
280
     0
281
     0
  0
CLASS
  1
DICTIONARYVAR
  2
AcDbDictionaryVar
  3
AutoCAD 2000
 90
        0
280
     0
281
     0
  0
CLASS
  1
LONG_TRANSACTION
  2
AcDbLongTransaction
  3
AutoCAD 2000
 90
        0
280
     0
281
     0
  0
CLASS
  1
LWPOLYLINE
  2
AcDbPolyline
  3
AutoCAD 2000
 90
        0
280
     0
281
     1
  0
CLASS
  1
HATCH
  2
AcDbHatch
  3
AutoCAD 2000
 90
        0
280
     0
281
     1
  0
CLASS
  1
XRECORD
  2
AcDbXrecord
  3
AutoCAD 2000
 90
        0
280
     0
281
     0
  0
CLASS
  1
LONG_TRANSACTION
  2
AcDbLongTransaction
  3
AutoCAD 2000
 90
        0
280
     0
281
     0
  0
CLASS
  1
LWPOLYLINE
  2
AcDbPolyline
  3
AutoCAD 2000
 90
        0
280
     0
281
     1
  0
CLASS
  1
HATCH
  2
AcDbHatch
  3
AutoCAD 2000
 90
        0
280
     0
281
     1
  0
CLASS
  1
XRECORD
  2
AcDbXrecord
  3
AutoCAD 2000
 90
        0
280
     0
281
     0
  0
ENDSEC
  0
SECTION
  2
TABLES
  0
TABLE
  2
VPORT
  5
8
330
0
100
AcDbSymbolTable
 70
     2
  0
VPORT
  5
143
330
8
100
AcDbSymbolTableRecord
100
AcDbViewportTableRecord
  2
*ACTIVE
 70
     0
 10
0.0
 20
0.0
 11
1.0
 21
1.0
 12
8.21606720765461
 22
11.7262057893788
 13
0.0
 23
0.0
 14
10.0
 24
10.0
 15
10.0
 25
10.0
 16
0.0
 26
0.0
 36
1.0
 17
0.0
 27
0.0
 37
0.0
 40
11.03205850485775
 41
1.674961119751166
 42
50.0
 43
0.0
 44
0.0
 50
0.0
 51
0.0
 71
     0
 72
  2000
 73
     1
 74
     3
 75
     0
 76
     0
 77
     0
 78
     0
  0
ENDTAB
  0
TABLE
  2
LTYPE
  5
5
330
0
100
AcDbSymbolTable
 70
     1
  0
LTYPE
  5
14
330
5
100
AcDbSymbolTableRecord
100
AcDbLinetypeTableRecord
  2
BYBLOCK
 70
     0
  3

 72
    65
 73
     0
 40
0.0
  0
LTYPE
  5
15
330
5
100
AcDbSymbolTableRecord
100
AcDbLinetypeTableRecord
  2
BYLAYER
 70
     0
  3

 72
    65
 73
     0
 40
0.0
  0
LTYPE
  5
16
330
5
100
AcDbSymbolTableRecord
100
AcDbLinetypeTableRecord
  2
CONTINUOUS
 70
     0
  3
Solid line
 72
    65
 73
     0
 40
0.0
  0
ENDTAB
  0
TABLE
  2
LAYER
  5
2
330
0
100
AcDbSymbolTable
 70
     1
  0
LAYER
  5
10
330
2
100
AcDbSymbolTableRecord
100
AcDbLayerTableRecord
  2
0
 70
     0
 62
     7
  6
CONTINUOUS
  0
ENDTAB
  0
TABLE
  2
STYLE
  5
3
330
0
100
AcDbSymbolTable
 70
     1
  0
STYLE
  5
11
330
3
100
AcDbSymbolTableRecord
100
AcDbTextStyleTableRecord
  2
STANDARD
 70
     0
 40
0.0
 41
1.0
 50
0.0
 71
     0
 42
2.5
  3
ARIAL.TTF
  4

1001
ACAD
1000
Arial
1071
       34
  0
ENDTAB
  0
TABLE
  2
VIEW
  5
6
330
0
100
AcDbSymbolTable
 70
     0
  0
ENDTAB
  0
TABLE
  2
UCS
  5
7
330
0
100
AcDbSymbolTable
 70
     0
  0
ENDTAB
  0
TABLE
  2
APPID
  5
9
330
0
100
AcDbSymbolTable
 70
     1
  0
APPID
  5
12
330
9
100
AcDbSymbolTableRecord
100
AcDbRegAppTableRecord
  2
ACAD
 70
     0
  0
ENDTAB
  0
TABLE
  2
DIMSTYLE
  5
A
330
0
100
AcDbSymbolTable
 70
     1
  0
DIMSTYLE
105
27
330
A
100
AcDbSymbolTableRecord
100
AcDbDimStyleTableRecord
  2
ISO-25
 70
     0
  3

  4

  5

  6

  7

 40
1.0
 41
2.5
 42
0.625
 43
3.75
 44
1.25
 45
0.0
 46
0.0
 47
0.0
 48
0.0
140
2.5
141
2.5
142
0.0
143
0.03937007874016
144
1.0
145
0.0
146
1.0
147
0.625
 71
     0
 72
     0
 73
     0
 74
     0
 75
     0
 76
     0
 77
     1
 78
     8
170
     0
171
     3
172
     1
173
     0
174
     0
175
     0
176
     0
177
     0
178
     0
270
     2
271
     2
272
     2
273
     2
274
     3
340
11
275
     0
280
     0
281
     0
282
     0
283
     0
284
     8
285
     0
286
     0
287
     3
288
     0
  0
ENDTAB
  0
TABLE
  2
BLOCK_RECORD
  5
1
330
0
100
AcDbSymbolTable
 70
     1
  0
BLOCK_RECORD
  5
1F
102
{ACAD_XDICTIONARY
360
106
102
}
330
1
100
AcDbSymbolTableRecord
100
AcDbBlockTableRecord
  2
*MODEL_SPACE
  0
BLOCK_RECORD
  5
1B
102
{ACAD_XDICTIONARY
360
108
102
}
330
1
100
AcDbSymbolTableRecord
100
AcDbBlockTableRecord
  2
*PAPER_SPACE
  0
ENDTAB
  0
ENDSEC
  0
SECTION
  2
BLOCKS
  0
BLOCK
  5
20
330
1F
100
AcDbEntity
  8
0
100
AcDbBlockBegin
  2
*MODEL_SPACE
 70
     0
 10
0.0
 20
0.0
 30
0.0
  3
*MODEL_SPACE
  1

  0
ENDBLK
  5
21
330
1F
100
AcDbEntity
  8
0
100
AcDbBlockEnd
  0
BLOCK
  5
1C
330
1B
100
AcDbEntity
 67
     1
  8
0
100
AcDbBlockBegin
  2
*PAPER_SPACE
 70
     0
 10
0.0
 20
0.0
 30
0.0
  3
*PAPER_SPACE
  1

  0
ENDBLK
  5
1D
330
1B
100
AcDbEntity
 67
     1
  8
0
100
AcDbBlockEnd
  0
ENDSEC
  0
SECTION
  2
ENTITIES
  0
LINE
  5
9C
330
1F
100
AcDbEntity
  8
0
  6
CONTINUOUS
 62
     7
100
AcDbLine
 10
4.524395981720051
 20
6.450458627412203
 30
0.0
 11
8.114523787960683
 21
6.37865607128739
 31
0.0
  0
LINE
  5
9D
330
1F
100
AcDbEntity
  8
0
  6
CONTINUOUS
 62
     7
100
AcDbLine
 10
4.524179926696151
 20
6.45046294851268
 30
0.0
 11
4.524395981720051
 21
6.450458627412203
 31
0.0
  0
LINE
  5
9E
330
1F
100
AcDbEntity
  8
0
  6
CONTINUOUS
 62
     7
100
AcDbLine
 10
8.937610627348542
 20
6.37865607128739
 30
0.0
 11
12.54007648972869
 21
6.450705388534993
 31
0.0
  0
ARC
  5
9F
330
1F
100
AcDbEntity
  8
0
  6
CONTINUOUS
 62
     7
100
AcDbCircle
 10
8.939876840817829
 20
6.265345397822989
 30
0.0
 40
0.1133333333333335
100
AcDbArc
 50
91.14576283817561
 51
126.2391284063512
  0
ARC
  5
A0
330
1F
100
AcDbEntity
  8
0
  6
CONTINUOUS
 62
     7
100
AcDbCircle
 10
8.112257574491396
 20
6.265345397822989
 30
0.0
 40
0.1133333333333335
100
AcDbArc
 50
53.76087159364768
 51
88.8542371618235
  0
ARC
  5
A1
330
1F
100
AcDbEntity
  8
0
  6
CONTINUOUS
 62
     7
100
AcDbCircle
 10
8.526067207654614
 20
6.829935149325197
 30
0.0
 40
0.586666666666667
100
AcDbArc
 50
287.1847959010882
 51
306.2391284063527
  0
ARC
  5
A2
330
1F
100
AcDbEntity
  8
0
  6
CONTINUOUS
 62
     7
100
AcDbCircle
 10
8.526067207654614
 20
6.829935149325197
 30
0.0
 40
0.586666666666668
100
AcDbArc
 50
233.7608715936487
 51
252.8152040989132
  0
LINE
  5
A3
330
1F
100
AcDbEntity
  8
0
  6
CONTINUOUS
 62
     7
100
AcDbLine
 10
2.549400540987947
 20
9.023762535826925
 30
0.0
 11
2.549400540987947
 21
9.257095869160259
 31
0.0
  0
LINE
  5
A4
330
1F
100
AcDbEntity
  8
0
  6
CONTINUOUS
 62
     7
100
AcDbLine
 10
2.549400540987947
 20
9.257095869160259
 30
0.0
 11
13.88273387432128
 21
9.257095869160259
 31
0.0
  0
LINE
  5
A5
330
1F
100
AcDbEntity
  8
0
  6
CONTINUOUS
 62
     7
100
AcDbLine
 10
13.88273387432128
 20
9.023762535826925
 30
0.0
 11
13.88273387432128
 21
9.257095869160259
 31
0.0
  0
LINE
  5
A6
330
1F
100
AcDbEntity
  8
0
  6
CONTINUOUS
 62
     7
100
AcDbLine
 10
13.88273387432128
 20
9.023762535826925
 30
0.0
 11
2.549400540987947
 21
9.023762535826925
 31
0.0
  0
ARC
  5
A7
330
1F
100
AcDbEntity
  8
0
  6
CONTINUOUS
 62
     7
100
AcDbCircle
 10
3.646697211108785
 20
8.010301599950233
 30
0.0
 40
1.159433047108028
100
AcDbArc
 50
43.20881188890942
 51
60.93869104873694
  0
LWPOLYLINE
  5
A8
330
1F
100
AcDbEntity
  8
0
  6
CONTINUOUS
 62
     7
100
AcDbPolyline
 90
       11
 70
   128
 43
0.0
 10
12.03825319900159
 20
8.748210068082688
 10
12.05981346231132
 20
8.780179043683165
 10
12.083095211821
 20
8.811019755180101
 10
12.1079238434841
 20
8.840681611067767
 10
12.13412475325412
 20
8.869114019840433
 10
12.16265065643905
 20
8.897337255996577
 10
12.19245725408378
 20
8.924303867191001
 10
12.22340659343806
 20
8.950003695977354
 10
12.25536072175163
 20
8.974426584909291
 10
12.29654162995082
 20
9.003176554168103
 10
12.32908208700449
 20
9.023762535826925
  0
ARC
  5
A9
330
1F
100
AcDbEntity
  8
0
  6
CONTINUOUS
 62
     7
100
AcDbCircle
 10
17.50858124675559
 20
5.270465685412089
 30
0.0
 40
6.482221451110795
100
AcDbArc
 50
147.553963810266
 51
169.6823427243187
  0
LWPOLYLINE
  5
AA
330
1F
100
AcDbEntity
  8
0
  6
CONTINUOUS
 62
     7
100
AcDbPolyline
 90
       13
 70
   128
 43
0.0
 10
5.888139525801086
 20
6.430879633804181
 10
6.391902676156778
 20
6.422266545410643
 10
6.895677313168407
 20
6.414328398897842
 10
7.399467695375632
 20
6.407492400071316
 10
7.777361269759711
 20
6.403498831826283
 10
8.155270755473441
 20
6.400894583773282
 10
8.533186231426425
 20
6.399922473272277
 10
8.911097776528256
 20
6.40082531768323
 10
9.281127784486924
 20
6.403486326360792
 10
9.651147248979093
 20
6.407464164280081
 10
10.02115455800617
 20
6.412394776558088
 10
10.57617344948559
 20
6.42091413846742
 10
11.13117804008171
 20
6.430306684815977
  0
ARC
  5
AB
330
1F
100
AcDbEntity
  8
0
  6
CONTINUOUS
 62
     7
100
AcDbCircle
 10
-0.3041049632493101
 20
4.382672310433462
 30
0.0
 40
6.522557682108836
100
AcDbArc
 50
18.31224823152814
 51
42.66958291982727
  0
LWPOLYLINE
  5
AC
330
1F
100
AcDbEntity
  8
0
  6
CONTINUOUS
 62
     7
100
AcDbPolyline
 90
       85
 70
   128
 43
0.0
 10
8.629469037433334
 20
9.023762535826925
 10
8.632965145576894
 20
9.021136979259216
 10
8.641008468416352
 20
9.014540710164611
 10
8.648632383060281
 20
9.007478584201509
 10
8.655809070670937
 20
8.999976370301681
 10
8.662512344293515
 20
8.99206144323006
 10
8.668717744409514
 20
8.983762683697179
 10
8.674402628186864
 20
8.975110372976608
 10
8.67954625210117
 20
8.966136082411848
 10
8.684129847626575
 20
8.956872558215939
 10
8.688136689720083
 20
8.947353601984072
 10
8.691552157849427
 20
8.937613947355242
 10
8.694363789341794
 20
8.927689133272954
 10
8.696561324858784
 20
8.917615374307482
 10
8.698136745831609
 20
8.907429428512827
 10
8.699084303719988
 20
8.897168463300561
 10
8.699400540987946
 20
8.886869919819977
 10
8.699084303719988
 20
8.876571376339393
 10
8.698136745831607
 20
8.866310411127127
 10
8.696561324858784
 20
8.856124465332472
 10
8.694363789341794
 20
8.846050706367
 10
8.691552157849427
 20
8.836125892284712
 10
8.688136689720083
 20
8.826386237655881
 10
8.684129847626573
 20
8.816867281424016
 10
8.67954625210117
 20
8.807603757228108
 10
8.674402628186863
 20
8.798629466663347
 10
8.668717744409512
 20
8.789977155942775
 10
8.662512344293514
 20
8.781678396409896
 10
8.655809070670935
 20
8.773763469338275
 10
8.648632383060281
 20
8.766261255438447
 10
8.64100846841635
 20
8.759199129475343
 10
8.632965145576893
 20
8.75260286038074
 10
8.62453176375468
 20
8.746496517225219
 10
8.615739095445405
 20
8.740902381392745
 10
8.606619224142198
 20
8.735840865278301
 10
8.597205427266423
 20
8.73133043780529
 10
8.587532054741984
 20
8.727387557034415
 10
8.57763440365618
 20
8.724026610110019
 10
8.567548589464454
 20
8.721259860762947
 10
8.557311414209021
 20
8.719097404561518
 10
8.5469602322322
 20
8.717547132073905
 10
8.536532813874474
 20
8.71661470007629
 10
8.526067207654611
 20
8.716303510911913
 10
8.515601601434747
 20
8.71661470007629
 10
8.505174183077022
 20
8.717547132073905
 10
8.494823001100201
 20
8.719097404561519
 10
8.484585825844767
 20
8.721259860762947
 10
8.474500011653042
 20
8.724026610110019
 10
8.464602360567239
 20
8.727387557034415
 10
8.4549289880428
 20
8.73133043780529
 10
8.445515191167023
 20
8.735840865278303
 10
8.436395319863816
 20
8.740902381392746
 10
8.427602651554543
 20
8.746496517225221
 10
8.419169269732329
 20
8.752602860380742
 10
8.411125946892873
 20
8.759199129475344
 10
8.403502032248942
 20
8.766261255438449
 10
8.396325344638286
 20
8.773763469338277
 10
8.389622071015709
 20
8.781678396409899
 10
8.383416670899711
 20
8.789977155942777
 10
8.37773178712236
 20
8.798629466663349
 10
8.372588163208055
 20
8.807603757228109
 10
8.368004567682648
 20
8.816867281424018
 10
8.36399772558914
 20
8.826386237655885
 10
8.360582257459798
 20
8.836125892284716
 10
8.357770625967429
 20
8.846050706367003
 10
8.355573090450439
 20
8.856124465332475
 10
8.353997669477616
 20
8.86631041112713
 10
8.353050111589235
 20
8.876571376339395
 10
8.352733874321279
 20
8.886869919819979
 10
8.353050111589237
 20
8.897168463300564
 10
8.353997669477616
 20
8.907429428512831
 10
8.355573090450441
 20
8.917615374307485
 10
8.357770625967429
 20
8.927689133272957
 10
8.360582257459798
 20
8.937613947355245
 10
8.36399772558914
 20
8.947353601984076
 10
8.36800456768265
 20
8.956872558215941
 10
8.372588163208057
 20
8.96613608241185
 10
8.377731787122362
 20
8.97511037297661
 10
8.383416670899713
 20
8.983762683697182
 10
8.389622071015709
 20
8.99206144323006
 10
8.396325344638288
 20
8.999976370301682
 10
8.403502032248946
 20
9.007478584201509
 10
8.411125946892875
 20
9.014540710164613
 10
8.419169269732332
 20
9.021136979259217
 10
8.42266537787589
 20
9.023762535826925
  0
ARC
  5
AD
330
1F
100
AcDbEntity
  8
0
  6
CONTINUOUS
 62
     7
100
AcDbCircle
 10
0.063356198801823
 20
-353.2332455021836
 30
0.0
 40
359.7113691508524
100
AcDbArc
 50
89.07217253491849
 51
89.28944996967002
  0
LWPOLYLINE
  5
AE
330
1F
100
AcDbEntity
  8
0
  6
CONTINUOUS
 62
     7
100
AcDbPolyline
 90
       24
 70
   128
 43
0.0
 10
3.673355537633409
 20
8.743921602645221
 10
3.725557510808848
 20
8.662583012301325
 10
3.776346102859645
 20
8.580150090769823
 10
3.82570974514403
 20
8.496641465072272
 10
3.873636865740197
 20
8.412075765313833
 10
3.920115889726527
 20
8.326471624634578
 10
3.965135239446675
 20
8.23984767914464
 10
4.016304075793957
 20
8.13647129877429
 10
4.065410333123423
 20
8.031734786929552
 10
4.112435046070213
 20
7.925668667130084
 10
4.157359245853242
 20
7.818303467797285
 10
4.198195289726284
 20
7.714815459938718
 10
4.237090424618624
 20
7.610202033700663
 10
4.274028231458721
 20
7.504489613996012
 10
4.308992289430431
 20
7.397704628819523
 10
4.34196617615109
 20
7.289873509000771
 10
4.372933467818691
 20
7.18102268795765
 10
4.401877739329397
 20
7.071178601452881
 10
4.426618791994281
 20
6.96963821246869
 10
4.449633489824402
 20
6.867305785005497
 10
4.470909178735278
 20
6.764201685526531
 10
4.490433203865118
 20
6.660346281538252
 10
4.508192909571708
 20
6.555759941460406
 10
4.524175639416959
 20
6.450463034504194
  0
LWPOLYLINE
  5
AF
330
1F
100
AcDbEntity
  8
0
  6
CONTINUOUS
 62
     7
100
AcDbPolyline
 90
        6
 70
   128
 43
0.0
 10
3.690207625247422
 20
8.744136140817298
 10
3.682844914520882
 20
8.744044838396192
 10
3.677578570952782
 20
8.743977699261
 10
3.674407465253582
 20
8.743935905407965
 10
3.673355537584796
 20
8.743921602644544
 10
3.673355537633409
 20
8.743921602645221
  0
LWPOLYLINE
  5
B0
330
1F
100
AcDbEntity
  8
0
  6
CONTINUOUS
 62
     7
100
AcDbPolyline
 90
       28
 70
   128
 43
0.0
 10
4.486816525412785
 20
8.801298764175081
 10
4.486816242087706
 20
8.801298733879402
 10
4.442127664763419
 20
8.796482826328185
 10
4.398520251208819
 20
8.791752659818365
 10
4.355991954208721
 20
8.787175418233999
 10
4.314540726547934
 20
8.782818285459148
 10
4.26863993726863
 20
8.7781889506035
 10
4.224117739578894
 20
8.7739135322532
 10
4.181025607705804
 20
8.769983655642921
 10
4.139415015876442
 20
8.766390946007339
 10
4.099337438317888
 20
8.763127028581124
 10
4.060844349257221
 20
8.760183528598949
 10
4.021703595139737
 20
8.757411852905638
 10
3.984363476811436
 20
8.754997250329203
 10
3.948892307424774
 20
8.752914291220955
 10
3.915358400132209
 20
8.751137545932202
 10
3.883830068086199
 20
8.749641584814254
 10
3.854375624439205
 20
8.748400978218421
 10
3.830615233128046
 20
8.747507407510314
 10
3.808434040398991
 20
8.746755656619368
 10
3.78786275393588
 20
8.746131688414536
 10
3.768932081422554
 20
8.745621465764763
 10
3.751672730542855
 20
8.745210951539
 10
3.735846796461784
 20
8.744876664959702
 10
3.721771558324884
 20
8.74461105386279
 10
3.709462776698978
 20
8.744405104983355
 10
3.698936212150885
 20
8.744249805056494
 10
3.690207625247422
 20
8.744136140817298
  0
LINE
  5
B1
330
1F
100
AcDbEntity
  8
0
  6
CONTINUOUS
 62
     7
100
AcDbLine
 10
4.491765451859372
 20
8.803462474863607
 30
0.0
 11
4.486816525412785
 21
8.801298764175081
 31
0.0
  0
LWPOLYLINE
  5
B2
330
1F
100
AcDbEntity
  8
0
  6
CONTINUOUS
 62
     7
100
AcDbPolyline
 90
       22
 70
   128
 43
0.0
 10
12.84794171990258
 20
8.543958294543035
 10
12.82742800480745
 20
8.548761448246853
 10
12.80493270661416
 20
8.554039114062854
 10
12.78054724129401
 20
8.559779284050431
 10
12.75436302481834
 20
8.565969950268979
 10
12.72532393574167
 20
8.57287610734151
 10
12.69448868597119
 20
8.580264318698011
 10
12.66195307062202
 20
8.588125752740902
 10
12.62781288480929
 20
8.59645157787261
 10
12.59216392364815
 20
8.605232962495557
 10
12.55510198225373
 20
8.614461075012174
 10
12.51473358149887
 20
8.624637212191801
 10
12.47293751930044
 20
8.635298515753294
 10
12.42979164126918
 20
8.64641118000461
 10
12.38537379301585
 20
8.65794139925371
 10
12.3397618201512
 20
8.669855367808553
 10
12.29303356828599
 20
8.682119279977099
 10
12.23309326253077
 20
8.697918135020032
 10
12.17148064580448
 20
8.714051164299611
 10
12.10817904268436
 20
8.730253566215671
 10
12.04317177774764
 20
8.746260539168035
 10
12.04317150404656
 20
8.746260604911327
  0
LINE
  5
B3
330
1F
100
AcDbEntity
  8
0
  6
CONTINUOUS
 62
     7
100
AcDbLine
 10
12.04317150404656
 20
8.746260604911327
 30
0.0
 11
12.03825319900158
 21
8.748210068082693
 31
0.0
  0
ARC
  5
B4
330
1F
100
AcDbEntity
  8
0
  6
CONTINUOUS
 62
     7
100
AcDbCircle
 10
18.48630802001306
 20
-455.6516409071703
 30
0.0
 40
462.1406021130449
100
AcDbArc
 50
90.73722882231955
 51
90.91192095320897
  0
ARC
  5
B5
330
1F
100
AcDbEntity
  8
0
  6
CONTINUOUS
 62
     7
100
AcDbCircle
 10
11.75289032242659
 20
3.799210490159193
 30
0.0
 40
4.869473204600193
100
AcDbArc
 50
75.99084224762695
 51
77.00412668478143
  0
ARC
  5
B6
330
1F
100
AcDbEntity
  8
0
  6
CONTINUOUS
 62
     7
100
AcDbCircle
 10
29.06027336200402
 20
4.40365685511737
 30
0.0
 40
16.64654055342739
100
AcDbArc
 50
165.6698761585525
 51
172.9363777906944
  0
LWPOLYLINE
  5
B7
330
1F
100
AcDbEntity
  8
0
  6
CONTINUOUS
 62
     7
100
AcDbPolyline
 90
       53
 70
   128
 43
0.0
 10
8.699391106033456
 20
8.88864956538015
 10
8.699084303719988
 20
8.880130659013007
 10
8.698136745831607
 20
8.86986969380074
 10
8.696561324858784
 20
8.859683748006085
 10
8.694363789341794
 20
8.849609989040613
 10
8.691552157849427
 20
8.839685174958326
 10
8.688136689720083
 20
8.829945520329495
 10
8.684129847626573
 20
8.82042656409763
 10
8.67954625210117
 20
8.811163039901719
 10
8.674402628186863
 20
8.802188749336959
 10
8.668717744409512
 20
8.793536438616389
 10
8.662512344293514
 20
8.785237679083509
 10
8.655809070670935
 20
8.777322752011889
 10
8.648632383060281
 20
8.76982053811206
 10
8.64100846841635
 20
8.762758412148958
 10
8.632965145576893
 20
8.756162143054355
 10
8.62453176375468
 20
8.750055799898834
 10
8.615739095445405
 20
8.744461664066358
 10
8.606619224142198
 20
8.739400147951915
 10
8.597205427266423
 20
8.734889720478902
 10
8.587532054741984
 20
8.730946839708028
 10
8.57763440365618
 20
8.727585892783633
 10
8.567548589464454
 20
8.72481914343656
 10
8.557311414209021
 20
8.722656687235131
 10
8.5469602322322
 20
8.721106414747518
 10
8.536532813874474
 20
8.720173982749903
 10
8.526067207654611
 20
8.719862793585527
 10
8.515601601434747
 20
8.720173982749903
 10
8.505174183077022
 20
8.721106414747518
 10
8.494823001100201
 20
8.722656687235133
 10
8.484585825844767
 20
8.72481914343656
 10
8.474500011653042
 20
8.727585892783633
 10
8.464602360567239
 20
8.73094683970803
 10
8.4549289880428
 20
8.734889720478903
 10
8.445515191167023
 20
8.739400147951917
 10
8.436395319863816
 20
8.744461664066358
 10
8.427602651554543
 20
8.750055799898834
 10
8.419169269732329
 20
8.756162143054355
 10
8.411125946892873
 20
8.762758412148958
 10
8.403502032248942
 20
8.769820538112062
 10
8.396325344638286
 20
8.77732275201189
 10
8.389622071015709
 20
8.785237679083513
 10
8.383416670899711
 20
8.79353643861639
 10
8.37773178712236
 20
8.802188749336963
 10
8.372588163208055
 20
8.811163039901723
 10
8.368004567682648
 20
8.820426564097633
 10
8.36399772558914
 20
8.829945520329497
 10
8.360582257459798
 20
8.839685174958328
 10
8.357770625967429
 20
8.849609989040617
 10
8.355573090450439
 20
8.859683748006089
 10
8.353997669477616
 20
8.869869693800744
 10
8.353050111589235
 20
8.880130659013008
 10
8.352743309280674
 20
8.888649564917477
  0
ARC
  5
B8
330
1F
100
AcDbEntity
  8
0
  6
CONTINUOUS
 62
     7
100
AcDbCircle
 10
13.84888951650237
 20
8.289508211778667
 30
0.0
 40
0.9466666666666654
100
AcDbArc
 50
129.1386528017845
 51
165.6698781817582
  0
ARC
  5
B9
330
1F
100
AcDbEntity
  8
0
  6
CONTINUOUS
 62
     7
100
AcDbCircle
 10
2.769857385450976
 20
8.152236655473824
 30
0.0
 40
1.080001274902381
100
AcDbArc
 50
33.22018315116884
 51
53.80083518261436
  0
LINE
  5
BA
330
1F
100
AcDbEntity
  8
0
  6
CONTINUOUS
 62
     7
100
AcDbLine
 10
8.526067207654614
 20
6.269459161138965
 30
0.0
 11
8.352733874321279
 21
6.269459161138965
 31
0.0
  0
LINE
  5
BB
330
1F
100
AcDbEntity
  8
0
  6
CONTINUOUS
 62
     7
100
AcDbLine
 10
8.699400540987948
 20
6.269459161138965
 30
0.0
 11
8.526067207654614
 21
6.269459161138965
 31
0.0
  0
ARC
  5
BC
330
1F
100
AcDbEntity
  8
0
  6
CONTINUOUS
 62
     7
100
AcDbCircle
 10
2.788178667468747
 20
8.157154421631341
 30
0.0
 40
1.076198763858138
100
AcDbArc
 50
33.05345788769097
 51
53.63582145518992
  0
ARC
  5
BD
330
1F
100
AcDbEntity
  8
0
  6
CONTINUOUS
 62
     7
100
AcDbCircle
 10
13.76536276092729
 20
8.302415568704741
 30
0.0
 40
0.9486855405877467
100
AcDbArc
 50
130.4588692804432
 51
165.249654074464
  0
LINE
  5
BE
330
1F
100
AcDbEntity
  8
0
  6
CONTINUOUS
 62
     7
100
AcDbLine
 10
8.526067207654614
 20
6.37865607128739
 30
0.0
 11
8.114523787960683
 21
6.37865607128739
 31
0.0
  0
LINE
  5
BF
330
1F
100
AcDbEntity
  8
0
  6
CONTINUOUS
 62
     7
100
AcDbLine
 10
8.937610627348542
 20
6.37865607128739
 30
0.0
 11
8.526067207654614
 21
6.37865607128739
 31
0.0
  0
LINE
  5
C0
330
1F
100
AcDbEntity
  8
0
  6
CONTINUOUS
 62
     7
100
AcDbLine
 10
8.179255324622584
 20
6.356755167113822
 30
0.0
 11
8.872879090686643
 21
6.356755167113822
 31
0.0
  0
ARC
  5
C1
330
1F
100
AcDbEntity
  8
0
  6
CONTINUOUS
 62
     7
100
AcDbCircle
 10
10.98917353229089
 20
14.69834911720589
 30
0.0
 40
2.839857557941965
100
AcDbArc
 50
342.551919783258
 51
359.8351952078086
  0
ARC
  5
C2
330
1F
100
AcDbEntity
  8
0
  6
CONTINUOUS
 62
     7
100
AcDbCircle
 10
10.98352324717023
 20
14.68096513826677
 30
0.0
 40
2.845561742086806
100
AcDbArc
 50
0.1855549469198061
 51
17.43407276060739
  0
SPLINE
  5
C3
330
1F
100
AcDbEntity
  8
0
  6
CONTINUOUS
 62
     7
100
AcDbSpline
210
0.0
220
0.0
230
1.0
 70
    31
 71
     3
 72
     8
 73
     4
 74
     0
 42
0.0000000001
 43
0.0000000001
 40
0.0
 40
0.0
 40
0.0
 40
0.0
 40
1.0
 40
1.0
 40
1.0
 40
1.0
 10
8.221354661539796
 20
14.69018060124724
 30
0.0
 41
1.0
 10
8.221354661539796
 20
14.69018060124724
 30
0.0
 41
1.0
 10
8.221354661539796
 20
14.69018060124724
 30
0.0
 41
1.0
 10
8.221354661539796
 20
14.69018060124724
 30
0.0
 41
1.0
  0
LINE
  5
C4
330
1F
100
AcDbEntity
  8
0
  6
CONTINUOUS
 62
     7
100
AcDbLine
 10
13.88273387432128
 20
12.19018060124724
 30
0.0
 11
13.88273387432128
 21
17.19018060124724
 31
0.0
  0
ARC
  5
C6
330
1F
100
AcDbEntity
  8
0
  6
CONTINUOUS
 62
     7
100
AcDbCircle
 10
10.87123532944581
 20
14.69726335134935
 30
0.0
 40
2.041399565392317
100
AcDbArc
 50
343.5969028168577
 51
359.8012086858142
  0
ARC
  5
C9
330
1F
100
AcDbEntity
  8
0
  6
CONTINUOUS
 62
     7
100
AcDbCircle
 10
10.870087178062
 20
14.68253154439929
 30
0.0
 40
2.042660816894886
100
AcDbArc
 50
0.2145533390892047
 51
16.40922382637293
  0
LWPOLYLINE
  5
CB
330
1F
100
AcDbEntity
  8
0
  6
CONTINUOUS
 62
     7
100
AcDbPolyline
 90
       23
 70
   128
 43
0.0
 10
2.81632793969322
 20
14.2939616789667
 10
2.816327984700075
 20
14.2939612815079
 10
2.827673513930888
 20
14.20430390840331
 10
2.841370220262514
 20
14.11492843954766
 10
2.857403243593154
 20
14.02592676814508
 10
2.875757723821008
 20
13.93739078739969
 10
2.89641880084428
 20
13.84941239051558
 10
2.915753659226039
 20
13.77524269732729
 10
2.936753069121407
 20
13.7014866639708
 10
2.959403221734928
 20
13.62820069972864
 10
2.983690308271146
 20
13.55544121388336
 10
3.009600519934607
 20
13.48326461571748
 10
3.037120047929854
 20
13.41172731451353
 10
3.066469053020111
 20
13.34033470983611
 10
3.097459844880265
 20
13.26961673913024
 10
3.130076390550658
 20
13.19963413003761
 10
3.164302657071631
 20
13.13044761019994
 10
3.200462271387466
 20
13.06148015441306
 10
3.238256519211238
 20
12.9933694911444
 10
3.277662497835551
 20
12.92617914619171
 10
3.318657304553011
 20
12.8599726453527
 10
3.363153575808491
 20
12.791926222806
 10
3.409394896416843
 20
12.7249900643903
  0
LWPOLYLINE
  5
CD
330
1F
100
AcDbEntity
  8
0
  6
CONTINUOUS
 62
     7
100
AcDbPolyline
 90
       28
 70
   128
 43
0.0
 10
4.497461516171064
 20
12.80379038938739
 10
4.497461233202852
 20
12.80379067040973
 10
4.453109583919252
 20
12.84892471257978
 10
4.409831310494998
 20
12.8951222029718
 10
4.367623818451107
 20
12.94231775434128
 10
4.3264845133086
 20
12.99044597944368
 10
4.280933750821366
 20
13.04633541847173
 10
4.236749552699025
 20
13.103400340449
 10
4.193983120203626
 20
13.16158913869748
 10
4.152685654597218
 20
13.22085020653916
 10
4.112908357141847
 20
13.28113193729604
 10
4.074702429099565
 20
13.34238272429009
 10
4.035859260607787
 20
13.40848713554559
 10
3.998801177173906
 20
13.47569452068575
 10
3.963596224498796
 20
13.54393474924751
 10
3.930312448283338
 20
13.61313769076779
 10
3.899017894228405
 20
13.6832332147835
 10
3.869780608034874
 20
13.75415119083158
 10
3.846196345545206
 20
13.81609674094872
 10
3.824178956608649
 20
13.87865314922393
 10
3.80375903409013
 20
13.94176135764867
 10
3.784967170854579
 20
14.00536230821437
 10
3.767833959766925
 20
14.06939694291247
 10
3.752123857952762
 20
14.13497042260639
 10
3.73815143150941
 20
14.20097296160171
 10
3.725932378720125
 20
14.26733469782841
 10
3.715482397868166
 20
14.33398576921649
 10
3.70681718723679
 20
14.40085631369592
  0
LWPOLYLINE
  5
CE
330
1F
100
AcDbEntity
  8
0
  6
CONTINUOUS
 62
     7
100
AcDbPolyline
 90
       25
 70
   128
 43
0.0
 10
3.409394896416843
 20
12.7249900643903
 10
3.472772235483797
 20
12.72525141447968
 10
3.536092911486302
 20
12.72594664596444
 10
3.599218534251762
 20
12.72707222286219
 10
3.662010713607587
 20
12.72862460919056
 10
3.713192583283502
 20
12.7302143992145
 10
3.764107660539185
 20
12.73209024520536
 10
3.814677960066834
 20
12.73425062685215
 10
3.864825496558652
 20
12.73669402384386
 10
3.91447228470684
 20
12.73941891586948
 10
3.971900966976319
 20
12.7429674012553
 10
4.028542901135981
 20
12.74690669717593
 10
4.08425269258342
 20
12.75123595536775
 10
4.125738348848742
 20
12.7547740787687
 10
4.166586199129315
 20
12.75853977114441
 10
4.206071407505354
 20
12.76246601518627
 10
4.244824627903949
 20
12.76661665104535
 10
4.285580712858007
 20
12.77133078236261
 10
4.325354694271169
 20
12.77631448402671
 10
4.364013937824411
 20
12.78156708950201
 10
4.401425809198713
 20
12.78708793225289
 10
4.42646094606149
 20
12.79105646508149
 10
4.450815311635334
 20
12.79515687992377
 10
4.474531004229179
 20
12.79940650920163
 10
4.497461516171064
 20
12.80379038938739
  0
LWPOLYLINE
  5
CF
330
1F
100
AcDbEntity
  8
0
  6
CONTINUOUS
 62
     7
100
AcDbPolyline
 90
       13
 70
   128
 43
0.0
 10
5.883526453048775
 20
13.23103520204102
 10
6.545490009563666
 20
13.23306470563565
 10
7.207475148171901
 20
13.2348503966257
 10
7.538498006926132
 20
13.23559309542462
 10
7.869532615279217
 20
13.23617869066137
 10
8.200574970050187
 20
13.23656162196765
 10
8.531621068058061
 20
13.23669632897516
 10
8.856852357091877
 20
13.23655770556046
 10
9.182079906121455
 20
13.23617980957324
 10
9.507299921761285
 20
13.2356060685728
 10
9.832508610625854
 20
13.23487991011848
 10
10.48296255801653
 20
13.2331334934522
 10
11.13339531371149
 20
13.23114672024363
  0
LWPOLYLINE
  5
D0
330
1F
100
AcDbEntity
  8
0
  6
CONTINUOUS
 62
     7
100
AcDbPolyline
 90
       22
 70
   128
 43
0.0
 10
12.03170175013256
 20
12.81415700401564
 10
11.96651941738204
 20
12.83324973271887
 10
11.90331226041266
 20
12.8525741471136
 10
11.84215481854183
 20
12.87210694592483
 10
11.78312509499042
 20
12.89182374542082
 10
11.72622309295124
 20
12.91172454460385
 10
11.67240826630437
 20
12.93144907283359
 10
11.62064584959834
 20
12.95135108800637
 10
11.57093584283316
 20
12.97143059012216
 10
11.52327824600882
 20
12.99168757918097
 10
11.48170823754989
 20
13.01026990773313
 10
11.44193352266965
 20
13.0289587863711
 10
11.40395410136813
 20
13.04775421509487
 10
11.3677699736453
 20
13.06665619390446
 10
11.33338113950118
 20
13.08566472279986
 10
11.30078759893577
 20
13.10477980178107
 10
11.26998935194906
 20
13.1240014308481
 10
11.2381886879597
 20
13.14526568197989
 10
11.20861844030892
 20
13.16661945676837
 10
11.18129616598644
 20
13.18805085093805
 10
11.15622186499224
 20
13.20955986448893
 10
11.13339553732633
 20
13.23114649742101
  0
LWPOLYLINE
  5
D1
330
1F
100
AcDbEntity
  8
0
  6
CONTINUOUS
 62
     7
100
AcDbPolyline
 90
       25
 70
   128
 43
0.0
 10
12.03171040718173
 20
12.81415795999648
 10
12.05360420303091
 20
12.80824461945949
 10
12.07724175688464
 20
12.80253640447986
 10
12.10245613204559
 20
12.7970440329646
 10
12.12908039181642
 20
12.79177822282077
 10
12.15808341093017
 20
12.7865508076689
 10
12.18840088109755
 20
12.7815549546809
 10
12.21989181275244
 20
12.77679271861767
 10
12.25241521632874
 20
12.77226615424011
 10
12.2942147075807
 20
12.7669515791993
 10
12.33737586364178
 20
12.76197713528921
 10
12.38171671664966
 20
12.75733985113004
 10
12.42705529874204
 20
12.753036755342
 10
12.47462418875653
 20
12.7489494082486
 10
12.52309267706682
 20
12.74519428935216
 10
12.57233055622585
 20
12.74176864967043
 10
12.62220761878656
 20
12.73866974022114
 10
12.67981007514096
 20
12.73552579722676
 10
12.73811783104008
 20
12.73279169968214
 10
12.79698607033648
 20
12.73046663705464
 10
12.85626997688269
 20
12.72854979881165
 10
12.91742313253846
 20
12.72700568193158
 10
12.97891531913857
 20
12.72588675004464
 10
13.04060579481233
 20
12.72519504789895
 10
13.10235381768905
 20
12.72493262024261
  0
LWPOLYLINE
  5
D2
330
1F
100
AcDbEntity
  8
0
  6
CONTINUOUS
 62
     7
100
AcDbPolyline
 90
        4
 70
   128
 43
0.0
 10
10.87731789213858
 20
12.7255420388189
 10
11.65440561746971
 20
12.72547387442604
 10
12.43149334280085
 20
12.72527919544576
 10
13.10235381768904
 20
12.72493262024261
  0
LINE
  5
D3
330
1F
100
AcDbEntity
  8
0
  6
CONTINUOUS
 62
     7
100
AcDbLine
 10
10.87731789210095
 20
12.7255420388269
 30
0.0
 11
5.554816523170637
 21
12.7255420388189
 31
0.0
  0
LWPOLYLINE
  5
D4
330
1F
100
AcDbEntity
  8
0
  6
CONTINUOUS
 62
     7
100
AcDbPolyline
 90
        4
 70
   128
 43
0.0
 10
3.409394896416751
 20
12.72499006439023
 10
4.000641072508378
 20
12.72527919544576
 10
4.777728095215735
 20
12.72547387430893
 10
5.554816523170631
 20
12.7255420388269
  0
LWPOLYLINE
  5
D5
330
1F
100
AcDbEntity
  8
0
  6
CONTINUOUS
 62
     7
100
AcDbPolyline
 90
       25
 70
   128
 43
0.0
 10
5.883525536347578
 20
13.23103469986616
 10
5.844392931718099
 20
13.21025424674552
 10
5.803105213799879
 20
13.18960646021514
 10
5.759662382592916
 20
13.16909134027501
 10
5.714064438097211
 20
13.14870888692513
 10
5.666312815506637
 20
13.12845969793123
 10
5.616487083055674
 20
13.10837691450214
 10
5.564632947764077
 20
13.0884795743058
 10
5.515318094862474
 20
13.07040325252126
 10
5.464298820129507
 20
13.05248275456424
 10
5.411575123565175
 20
13.03471808043474
 10
5.357147005169477
 20
13.01710923013276
 10
5.301014464942414
 20
12.9996562036583
 10
5.243177502883987
 20
12.98235900101137
 10
5.181643290984023
 20
12.96465574724545
 10
5.11843641449474
 20
12.94716326875632
 10
5.053556873416137
 20
12.92988156554397
 10
4.987004667748213
 20
12.9128106376084
 10
4.918779797490969
 20
12.89595048494962
 10
4.848882262644407
 20
12.87930110756762
 10
4.781446848426449
 20
12.86379617612626
 10
4.712524469524599
 20
12.84847861960442
 10
4.642166677464248
 20
12.83335962388228
 10
4.570481736075326
 20
12.81846268062115
 10
4.497473084328896
 20
12.80378853603465
  0
LWPOLYLINE
  5
D6
330
1F
100
AcDbEntity
  8
0
  6
CONTINUOUS
 62
     7
100
AcDbPolyline
 90
      105
 70
   128
 43
0.0
 10
8.526067207654612
 20
12.75897887481352
 10
8.536532813874476
 20
12.75903515370495
 10
8.546960232232201
 20
12.75920378502366
 10
8.557311414209022
 20
12.75948415345228
 10
8.567548589464456
 20
12.75987523595679
 10
8.577634403656182
 20
12.76037560551956
 10
8.587532054741984
 20
12.76098343634631
 10
8.597205427266423
 20
12.76169651052828
 10
8.6066192241422
 20
12.7625122261351
 10
8.615739095445407
 20
12.76342760670899
 10
8.62453176375468
 20
12.7644393121255
 10
8.632965145576894
 20
12.76554365078129
 10
8.641008468416352
 20
12.76673659306435
 10
8.648632383060281
 20
12.76801378605768
 10
8.655809070670937
 20
12.76937056942254
 10
8.662512344293515
 20
12.77080199240358
 10
8.668717744409514
 20
12.77230283189357
 10
8.674402628186864
 20
12.77386761149197
 10
8.67954625210117
 20
12.77549062148772
 10
8.684129847626575
 20
12.77716593969336
 10
8.688136689720083
 20
12.77888745305445
 10
8.691552157849427
 20
12.78064887995541
 10
8.694363789341794
 20
12.7824437931405
 10
8.696561324858784
 20
12.78426564316617
 10
8.698136745831609
 20
12.78610778229925
 10
8.699084303719988
 20
12.78796348877381
 10
8.699400540987946
 20
12.78982599131817
 10
8.699084303719988
 20
12.79168849386253
 10
8.698136745831607
 20
12.79354420033709
 10
8.696561324858784
 20
12.79538633947016
 10
8.694363789341794
 20
12.79720818949583
 10
8.691552157849427
 20
12.79900310268093
 10
8.688136689720083
 20
12.80076452958189
 10
8.684129847626573
 20
12.80248604294297
 10
8.67954625210117
 20
12.80416136114861
 10
8.674402628186863
 20
12.80578437114437
 10
8.668717744409512
 20
12.80734915074277
 10
8.662512344293514
 20
12.80884999023276
 10
8.655809070670935
 20
12.8102814132138
 10
8.648632383060281
 20
12.81163819657866
 10
8.64100846841635
 20
12.81291538957198
 10
8.632965145576893
 20
12.81410833185505
 10
8.62453176375468
 20
12.81521267051084
 10
8.615739095445405
 20
12.81622437592735
 10
8.606619224142198
 20
12.81713975650124
 10
8.597205427266423
 20
12.81795547210806
 10
8.587532054741984
 20
12.81866854629003
 10
8.57763440365618
 20
12.81927637711678
 10
8.567548589464454
 20
12.81977674667955
 10
8.557311414209021
 20
12.82016782918406
 10
8.5469602322322
 20
12.82044819761267
 10
8.536532813874474
 20
12.82061682893139
 10
8.526067207654611
 20
12.82067310782282
 10
8.515601601434747
 20
12.82061682893139
 10
8.505174183077022
 20
12.82044819761267
 10
8.494823001100201
 20
12.82016782918406
 10
8.484585825844767
 20
12.81977674667955
 10
8.474500011653042
 20
12.81927637711678
 10
8.464602360567239
 20
12.81866854629003
 10
8.4549289880428
 20
12.81795547210806
 10
8.445515191167023
 20
12.81713975650124
 10
8.436395319863816
 20
12.81622437592735
 10
8.427602651554543
 20
12.81521267051084
 10
8.419169269732329
 20
12.81410833185505
 10
8.411125946892873
 20
12.81291538957198
 10
8.403502032248942
 20
12.81163819657866
 10
8.396325344638286
 20
12.8102814132138
 10
8.389622071015709
 20
12.80884999023276
 10
8.383416670899711
 20
12.80734915074277
 10
8.37773178712236
 20
12.80578437114437
 10
8.372588163208055
 20
12.80416136114861
 10
8.368004567682648
 20
12.80248604294297
 10
8.36399772558914
 20
12.80076452958189
 10
8.360582257459798
 20
12.79900310268093
 10
8.357770625967429
 20
12.79720818949583
 10
8.355573090450439
 20
12.79538633947016
 10
8.353997669477616
 20
12.79354420033709
 10
8.353050111589235
 20
12.79168849386253
 10
8.352733874321279
 20
12.78982599131817
 10
8.353050111589237
 20
12.78796348877381
 10
8.353997669477616
 20
12.78610778229925
 10
8.355573090450441
 20
12.78426564316617
 10
8.357770625967429
 20
12.7824437931405
 10
8.360582257459798
 20
12.78064887995541
 10
8.36399772558914
 20
12.77888745305445
 10
8.36800456768265
 20
12.77716593969336
 10
8.372588163208057
 20
12.77549062148772
 10
8.377731787122362
 20
12.77386761149197
 10
8.383416670899713
 20
12.77230283189357
 10
8.389622071015709
 20
12.77080199240358
 10
8.396325344638288
 20
12.76937056942254
 10
8.403502032248946
 20
12.76801378605768
 10
8.411125946892875
 20
12.76673659306435
 10
8.419169269732332
 20
12.76554365078129
 10
8.427602651554547
 20
12.7644393121255
 10
8.436395319863819
 20
12.76342760670899
 10
8.445515191167027
 20
12.7625122261351
 10
8.454928988042803
 20
12.76169651052828
 10
8.464602360567241
 20
12.76098343634631
 10
8.474500011653047
 20
12.76037560551956
 10
8.484585825844771
 20
12.75987523595679
 10
8.494823001100204
 20
12.75948415345228
 10
8.505174183077025
 20
12.75920378502366
 10
8.515601601434752
 20
12.75903515370495
 10
8.526067207654612
 20
12.75897887481352
  0
LWPOLYLINE
  5
D7
330
1F
100
AcDbEntity
  8
0
  6
CONTINUOUS
 62
     7
100
AcDbPolyline
 90
       13
 70
   128
 43
0.0
 10
11.13339519173043
 20
16.14921448186517
 10
10.48025626333709
 20
16.14721975342386
 10
9.827095916617254
 20
16.14546819363113
 10
9.500485863826837
 20
16.14474150986095
 10
9.173864350040251
 20
16.14416956717745
 10
8.847235305016431
 20
16.14379610738562
 10
8.520602658514318
 20
16.14366487229047
 10
8.190958327049109
 20
16.14380705751023
 10
7.861317880089266
 20
16.14419446099241
 10
7.531685181309446
 20
16.14478185135211
 10
7.202064094384311
 20
16.14552399720446
 10
6.542784553101673
 20
16.14730448873206
 10
5.883526367487383
 20
16.14932600072488
  0
LWPOLYLINE
  5
D8
330
1F
100
AcDbEntity
  8
0
  6
CONTINUOUS
 62
     7
100
AcDbPolyline
 90
       25
 70
   128
 43
0.0
 10
4.497473385014867
 20
16.57657266299282
 10
4.574863975663019
 20
16.56100206544831
 10
4.650765312295716
 20
16.54518088125825
 10
4.725165915457642
 20
16.52911160285305
 10
4.797931931394791
 20
16.51282329231442
 10
4.869024987331664
 20
16.49632428100074
 10
4.938445083268258
 20
16.47961456891203
 10
5.002366021787813
 20
16.46366671280423
 10
5.064799733009165
 20
16.44753154800744
 10
5.125746216932308
 20
16.43120907452166
 10
5.185205473557248
 20
16.41469929234689
 10
5.243177502883981
 20
16.39800220148312
 10
5.306188484121274
 20
16.37912457810016
 10
5.367170858269619
 20
16.36006158406708
 10
5.426124625329015
 20
16.34081321938389
 10
5.483049785299466
 20
16.32137948405059
 10
5.537946338180969
 20
16.30176037806719
 10
5.590814283973525
 20
16.28195590143367
 10
5.641653622677134
 20
16.26196605415005
 10
5.686470064265304
 20
16.24348093925259
 10
5.729503022218537
 20
16.22487293859336
 10
5.77072504027768
 20
16.2061534943926
 10
5.810136118442731
 20
16.18732260665033
 10
5.847736256713691
 20
16.16838027536653
 10
5.883525455090563
 20
16.1493265005412
  0
LWPOLYLINE
  5
D9
330
1F
100
AcDbEntity
  8
0
  6
CONTINUOUS
 62
     7
100
AcDbPolyline
 90
       25
 70
   128
 43
0.0
 10
4.497461660471286
 20
16.57657078458552
 10
4.463789556742205
 20
16.58291302826465
 10
4.428452167518204
 20
16.58897876615257
 10
4.391620136932012
 20
16.59476537814307
 10
4.353464109116353
 20
16.60027024412995
 10
4.314154728203951
 20
16.60549074400704
 10
4.271984740107318
 20
16.61064507937208
 10
4.228686054290069
 20
16.61551093636786
 10
4.184379925734714
 20
16.62008885731539
 10
4.139187609423756
 20
16.62437938453567
 10
4.093230360339702
 20
16.62838306034968
 10
4.044533374807453
 20
16.63225948868265
 10
3.995070005611823
 20
16.63583678997463
 10
3.944935856657904
 20
16.63911421545463
 10
3.894226531850791
 20
16.64209101635166
 10
3.843037635095577
 20
16.64476644389474
 10
3.789892943552066
 20
16.64720701292037
 10
3.736276563835196
 20
16.64933276892337
 10
3.682278418906428
 20
16.65114164483871
 10
3.627988431727227
 20
16.65263157360131
 10
3.57349652525905
 20
16.65380048814611
 10
3.532616665542916
 20
16.65446462652363
 10
3.491656916765938
 20
16.65494831757718
 10
3.450540553576687
 20
16.65525123853111
 10
3.409394522822651
 20
16.65537113835915
  0
LWPOLYLINE
  5
DA
330
1F
100
AcDbEntity
  8
0
  6
CONTINUOUS
 62
     7
100
AcDbPolyline
 90
        4
 70
   128
 43
0.0
 10
5.554816523170631
 20
16.65481916367558
 10
4.777728797839502
 20
16.65488732806844
 10
4.000641072508376
 20
16.65508200704872
 10
3.40939452282265
 20
16.65537113835915
  0
LINE
  5
DB
330
1F
100
AcDbEntity
  8
0
  6
CONTINUOUS
 62
     7
100
AcDbLine
 10
5.554816523170631
 20
16.65481916367558
 30
0.0
 11
10.87731789210095
 21
16.65481916366758
 31
0.0
  0
LWPOLYLINE
  5
DC
330
1F
100
AcDbEntity
  8
0
  6
CONTINUOUS
 62
     7
100
AcDbPolyline
 90
        4
 70
   128
 43
0.0
 10
13.10235323427017
 20
16.65542858180663
 10
12.43149334280085
 20
16.65508200704872
 10
11.65440632009349
 20
16.65488732818555
 10
10.8773178921386
 20
16.65481916366758
  0
LWPOLYLINE
  5
DD
330
1F
100
AcDbEntity
  8
0
  6
CONTINUOUS
 62
     7
100
AcDbPolyline
 90
       26
 70
   128
 43
0.0
 10
13.10235323427011
 20
16.65542858180658
 10
13.04174201960271
 20
16.65517487763157
 10
12.98118542593478
 20
16.65450755158603
 10
12.92081653024929
 20
16.65342855716751
 10
12.86076840952925
 20
16.65193984787357
 10
12.81180443972404
 20
16.65041306113089
 10
12.76309934972454
 20
16.64860848700077
 10
12.71473445462005
 20
16.64652567892704
 10
12.66679106949988
 20
16.64416419035356
 10
12.61935050945332
 20
16.64152357472418
 10
12.57206252149019
 20
16.63857486095595
 10
12.52535156948599
 20
16.63533234475385
 10
12.47932821425736
 20
16.63179369642333
 10
12.43410301662094
 20
16.62795658626987
 10
12.38867356545684
 20
16.62370919293142
 10
12.34422102437104
 20
16.61912965390815
 10
12.30092321958907
 20
16.6142149946628
 10
12.25895797733645
 20
16.60896224065811
 10
12.22657224961111
 20
16.60452885714042
 10
12.19517760177538
 20
16.59986549837267
 10
12.16490807217802
 20
16.59497385724824
 10
12.13589769916776
 20
16.58985562666053
 10
12.10731053597879
 20
16.58431428135103
 10
12.08028450743424
 20
16.57851685364768
 10
12.05501829915001
 20
16.57247572999979
 10
12.03171059674198
 20
16.56620329685669
  0
LWPOLYLINE
  5
DE
330
1F
100
AcDbEntity
  8
0
  6
CONTINUOUS
 62
     7
100
AcDbPolyline
 90
       22
 70
   128
 43
0.0
 10
11.1333954174157
 20
16.14921470675152
 10
11.15405374634522
 20
16.16884218334454
 10
11.17656986857737
 20
16.18840545234729
 10
11.20094378411213
 20
16.20790451375976
 10
11.22717549294953
 20
16.22733936758196
 10
11.25526328684679
 20
16.24670885729438
 10
11.28516457835564
 20
16.26598414844639
 10
11.31686095798124
 20
16.28515277631138
 10
11.35380030234424
 20
16.30611507086637
 10
11.39291170332849
 20
16.32694830284408
 10
11.43419516093401
 20
16.34765247224451
 10
11.47765067516078
 20
16.36822757906766
 10
11.52327824600882
 20
16.38867362331352
 10
11.57182234954222
 20
16.40929764361597
 10
11.62249380284722
 20
16.42973753106099
 10
11.67529260592381
 20
16.44999328564859
 10
11.73021875877199
 20
16.47006490737876
 10
11.78727226139175
 20
16.4899523962515
 10
11.8453776578352
 20
16.50930552130914
 10
11.90553502402662
 20
16.52848100547995
 10
11.96766605603805
 20
16.5474543910403
 10
12.03170210211518
 20
16.5662042349021
  0
LWPOLYLINE
  5
DF
330
1F
100
AcDbEntity
  8
0
  6
CONTINUOUS
 62
     7
100
AcDbPolyline
 90
       24
 70
   128
 43
0.0
 10
3.40939452282265
 20
16.65537113835915
 10
3.368863128584603
 20
16.5969005279109
 10
3.329642888400119
 20
16.53754193281927
 10
3.291671228816435
 20
16.4772106825398
 10
3.255036521574239
 20
16.41605808138618
 10
3.216811389068355
 20
16.34881686217497
 10
3.18017324852857
 20
16.28067355327647
 10
3.145143456178494
 20
16.21168921626455
 10
3.111743368241738
 20
16.14192491271311
 10
3.079702667024661
 20
16.07077743941449
 10
3.049320857582348
 20
15.9988831762433
 10
3.020610993767792
 20
15.9263046207193
 10
2.993586129433983
 20
15.85310427036227
 10
2.968155669453761
 20
15.77902610024974
 10
2.944422666941904
 20
15.70435459510033
 10
2.92240094560887
 20
15.62914972532983
 10
2.902104329165118
 20
15.553471461354
 10
2.883546641321104
 20
15.47737977358862
 10
2.866516226638054
 20
15.39986484079742
 10
2.851269205404785
 20
15.32194732489104
 10
2.837815494491379
 20
15.24368943762346
 10
2.826165010767923
 20
15.16515339074867
 10
2.816327671104499
 20
15.08640139602063
 10
2.816327626097762
 20
15.08640099856182
  0
LWPOLYLINE
  5
E0
330
1F
100
AcDbEntity
  8
0
  6
CONTINUOUS
 62
     7
100
AcDbPolyline
 90
       28
 70
   128
 43
0.0
 10
3.706816969306366
 20
14.97950662290611
 10
3.707702732386028
 20
14.98704317853318
 10
3.717061196094613
 20
15.05724976180556
 10
3.728384125976023
 20
15.12719435828405
 10
3.741654255589971
 20
15.19679574447493
 10
3.756854318496168
 20
15.26597269688447
 10
3.774207824395348
 20
15.33556541479724
 10
3.793514837093862
 20
15.40467017352062
 10
3.814737240125189
 20
15.4732106312149
 10
3.8378369170228
 20
15.54111044604036
 10
3.864578458573437
 20
15.61291313530885
 10
3.8934321704925
 20
15.68395670782145
 10
3.92433037652377
 20
15.7541675118648
 10
3.957205400411024
 20
15.82347189572553
 10
3.991989565898041
 20
15.89179620769028
 10
4.028615196728599
 20
15.95906679604569
 10
4.064761505179017
 20
16.02143676353567
 10
4.102515866200496
 20
16.08288842141577
 10
4.141829066409725
 20
16.14336786258807
 10
4.182651892423393
 20
16.20282117995468
 10
4.224935130858188
 20
16.26119446641768
 10
4.268629568330799
 20
16.3184338148792
 10
4.311847912674573
 20
16.37228718148095
 10
4.356346361237265
 20
16.42510255897789
 10
4.402118818545341
 20
16.47680492204231
 10
4.449159189125261
 20
16.52731924534654
 10
4.497461377503491
 20
16.57657050356286
 10
4.497461660471287
 20
16.57657078458552
  0
LWPOLYLINE
  5
E2
330
1F
100
AcDbEntity
  8
0
  6
CONTINUOUS
 62
     7
100
AcDbPolyline
 90
       18
 70
   128
 43
0.0
 10
13.69836650063746
 20
15.53351879471989
 10
13.69836638531808
 20
15.53351917772847
 10
13.67213255328344
 20
15.61644004308832
 10
13.64360954277824
 20
15.69861945407458
 10
13.61285602889484
 20
15.77997333018505
 10
13.57968348170557
 20
15.8610035196096
 10
13.54433265776765
 20
15.94112515142165
 10
13.50686194722977
 20
16.02026069727355
 10
13.47427123783667
 20
16.08498966662438
 10
13.44027164578852
 20
16.14900934414334
 10
13.40489594308269
 20
16.21227965732203
 10
13.36817690171652
 20
16.27476053365211
 10
13.32984093272161
 20
16.33689849619466
 10
13.29017494510121
 20
16.39821591507687
 10
13.24921499522654
 20
16.45867717711167
 10
13.20699713946883
 20
16.51824666911199
 10
13.15553047153014
 20
16.58745751434976
 10
13.1023532342701
 20
16.65542858180658
  0
LWPOLYLINE
  5
E3
330
1F
100
AcDbEntity
  8
0
  6
CONTINUOUS
 62
     7
100
AcDbPolyline
 90
       23
 70
   128
 43
0.0
 10
12.03171059674198
 20
16.56620329685669
 10
12.03171086963945
 20
16.56620301224889
 10
12.09390894865695
 20
16.49974542639204
 10
12.15451383505557
 20
16.43186122692716
 10
12.21358310508318
 20
16.36262964118547
 10
12.26194308248736
 20
16.30358704124255
 10
12.30923260963544
 20
16.24357882833469
 10
12.35538518743917
 20
16.18260772458033
 10
12.40033431681025
 20
16.12067645209791
 10
12.44401349866043
 20
16.05778773300583
 10
12.48635623390141
 20
15.99394428942255
 10
12.52535063764113
 20
15.93227693833241
 10
12.56302326074119
 20
15.86966579933727
 10
12.59927973999813
 20
15.80613485559773
 10
12.63402571220852
 20
15.74170809027441
 10
12.66716681416891
 20
15.6764094865279
 10
12.69860868267588
 20
15.61026302751884
 10
12.72395789595156
 20
15.55331639849384
 10
12.74798378552986
 20
15.49571418522739
 10
12.77062101478609
 20
15.43749765466647
 10
12.79180424709555
 20
15.37870807375805
 10
12.81146814583356
 20
15.31938670944909
 10
12.82954737437543
 20
15.25957482868656
  0
LWPOLYLINE
  5
E4
330
1F
100
AcDbEntity
  8
0
  6
CONTINUOUS
 62
     7
100
AcDbPolyline
 90
       22
 70
   128
 43
0.0
 10
12.82954730091039
 20
14.12078576461898
 10
12.8092495131256
 20
14.05400557007238
 10
12.78699129160651
 20
13.98785816597653
 10
12.7628637837282
 20
13.92240626726826
 10
12.73695813686571
 20
13.8577125888844
 10
12.70819137070168
 20
13.7912119098103
 10
12.67764613316901
 20
13.72551350670239
 10
12.64541793947626
 20
13.66064887903696
 10
12.61160230483194
 20
13.59664952629029
 10
12.57629474444459
 20
13.53354694793867
 10
12.53959077352274
 20
13.47137264345838
 10
12.49955508018167
 20
13.40695191983748
 10
12.45810586545717
 20
13.34347419528633
 10
12.41532045589744
 20
13.28094368948259
 10
12.37127617805064
 20
13.21936462210389
 10
12.32605035846497
 20
13.15874121282791
 10
12.27972032368861
 20
13.09907768133228
 10
12.22022655592861
 20
13.02566111524355
 10
12.15907341934127
 20
12.9536611189131
 10
12.09624132402637
 20
12.88313954460962
 10
12.03171068008369
 20
12.81415824460182
 10
12.03171040718173
 20
12.81415795999648
  0
LWPOLYLINE
  5
E5
330
1F
100
AcDbEntity
  8
0
  6
CONTINUOUS
 62
     7
100
AcDbPolyline
 90
       20
 70
   128
 43
0.0
 10
13.10235381768905
 20
12.72493262024261
 10
13.14903740063875
 20
12.78441860035717
 10
13.19443608780384
 20
12.8448911146088
 10
13.23859682057011
 20
12.90644833256997
 10
13.28140121514003
 20
12.96895624855492
 10
13.32111743295004
 20
13.02972796036217
 10
13.35954201024856
 20
13.09134387637408
 10
13.39664120752425
 20
13.15376620125517
 10
13.4323812852658
 20
13.21695713966999
 10
13.46699921903656
 20
13.28139295400267
 10
13.50020355298224
 20
13.3465882106826
 10
13.53196048247568
 20
13.41249993584922
 10
13.56223620288974
 20
13.47908515564198
 10
13.58798707378515
 20
13.53906304371177
 10
13.6125272508467
 20
13.59955338266907
 10
13.63583224224304
 20
13.66052293484809
 10
13.65796529600517
 20
13.72218949881131
 10
13.67881841922376
 20
13.78430790844857
 10
13.69836643099271
 20
13.84684173940529
 10
13.69836654631195
 20
13.84684212241396
  0
ARC
  5
E6
330
1F
100
AcDbEntity
  8
0
  6
CONTINUOUS
 62
     7
100
AcDbCircle
 10
6.155851348610696
 20
14.69007583865197
 30
0.0
 40
3.362958864691063
100
AcDbArc
 50
173.2319559884941
 51
179.9447525364531
  0
ARC
  5
E7
330
1F
100
AcDbEntity
  8
0
  6
CONTINUOUS
 62
     7
100
AcDbCircle
 10
6.155820492362081
 20
14.69028804407159
 30
0.0
 40
3.362928054093342
100
AcDbArc
 50
179.943951478773
 51
186.7681269868196
  0
LINE
  5
E9
330
1F
100
AcDbEntity
  8
0
  6
CONTINUOUS
 62
     7
100
AcDbLine
 10
2.549400540987946
 20
17.19018060124724
 30
0.0
 11
2.549400540987947
 21
12.19018060124724
 31
0.0
  0
ARC
  5
EC
330
1F
100
AcDbEntity
  8
0
  6
CONTINUOUS
 62
     7
100
AcDbCircle
 10
6.200429554048105
 20
14.69020036674133
 30
0.0
 40
2.51034312733281
100
AcDbArc
 50
179.9617916289363
 51
186.6186654250903
  0
ARC
  5
ED
330
1F
100
AcDbEntity
  8
0
  6
CONTINUOUS
 62
     7
100
AcDbCircle
 10
6.200816232778162
 20
14.69014396734038
 30
0.0
 40
2.510729589707722
100
AcDbArc
 50
173.3819305394532
 51
179.9701021497481
  0
LINE
  5
F0
330
1F
100
AcDbEntity
  8
0
  6
CONTINUOUS
 62
     7
100
AcDbLine
 10
13.88273387432128
 20
17.19018060124724
 30
0.0
 11
2.549400540987946
 21
17.19018060124724
 31
0.0
  0
LINE
  5
F3
330
1F
100
AcDbEntity
  8
0
  6
CONTINUOUS
 62
     7
100
AcDbLine
 10
2.549400540987947
 20
12.19018060124724
 30
0.0
 11
13.88273387432128
 21
12.19018060124724
 31
0.0
  0
LWPOLYLINE
  5
F4
330
1F
100
AcDbEntity
  8
0
  6
CONTINUOUS
 62
     7
100
AcDbPolyline
 90
       43
 70
   128
 43
0.0
 10
8.690344427615732
 20
12.77998562157335
 10
8.688136689720083
 20
12.7810837900925
 10
8.684129847626573
 20
12.78280530345358
 10
8.67954625210117
 20
12.78448062165922
 10
8.674402628186863
 20
12.78610363165497
 10
8.668717744409512
 20
12.78766841125338
 10
8.662512344293514
 20
12.78916925074336
 10
8.655809070670935
 20
12.7906006737244
 10
8.648632383060281
 20
12.79195745708926
 10
8.64100846841635
 20
12.79323465008259
 10
8.632965145576893
 20
12.79442759236566
 10
8.62453176375468
 20
12.79553193102144
 10
8.615739095445405
 20
12.79654363643796
 10
8.606619224142198
 20
12.79745901701184
 10
8.597205427266423
 20
12.79827473261867
 10
8.587532054741984
 20
12.79898780680063
 10
8.57763440365618
 20
12.79959563762739
 10
8.567548589464454
 20
12.80009600719015
 10
8.557311414209021
 20
12.80048708969466
 10
8.5469602322322
 20
12.80076745812328
 10
8.536532813874474
 20
12.800936089442
 10
8.526067207654611
 20
12.80099236833343
 10
8.515601601434747
 20
12.800936089442
 10
8.505174183077022
 20
12.80076745812328
 10
8.494823001100201
 20
12.80048708969466
 10
8.484585825844767
 20
12.80009600719015
 10
8.474500011653042
 20
12.79959563762739
 10
8.464602360567239
 20
12.79898780680063
 10
8.4549289880428
 20
12.79827473261867
 10
8.445515191167023
 20
12.79745901701184
 10
8.436395319863816
 20
12.79654363643796
 10
8.427602651554543
 20
12.79553193102144
 10
8.419169269732329
 20
12.79442759236566
 10
8.411125946892873
 20
12.79323465008259
 10
8.403502032248942
 20
12.79195745708926
 10
8.396325344638286
 20
12.7906006737244
 10
8.389622071015709
 20
12.78916925074336
 10
8.383416670899711
 20
12.78766841125337
 10
8.37773178712236
 20
12.78610363165497
 10
8.372588163208055
 20
12.78448062165922
 10
8.368004567682648
 20
12.78280530345358
 10
8.36399772558914
 20
12.7810837900925
 10
8.361789987693523
 20
12.77998562157336
  0
LWPOLYLINE
  5
F5
330
1F
100
AcDbEntity
  8
0
  6
CONTINUOUS
 62
     7
100
AcDbPolyline
 90
       45
 70
   128
 43
0.0
 10
4.541547059194353
 20
14.69049017462232
 10
4.542373937304406
 20
14.73951233724446
 10
4.544828856508819
 20
14.78852039318067
 10
4.548904048545793
 20
14.83743402757682
 10
4.554591745153531
 20
14.88617292557879
 10
4.561884178070234
 20
14.93465677233249
 10
4.571061436960812
 20
14.9842559928785
 10
4.581930494795218
 20
15.03355718445245
 10
4.594472167164552
 20
15.08247453953102
 10
4.60866726965991
 20
15.13092225059086
 10
4.624496617872388
 20
15.17881451010864
 10
4.64145453286301
 20
15.22482090386685
 10
4.659955614478035
 20
15.27027312551048
 10
4.679968185503515
 20
15.31509519622983
 10
4.701460568725495
 20
15.35921113721518
 10
4.724401086930021
 20
15.40254496965682
 10
4.749520968776728
 20
15.44632046468819
 10
4.776152551505632
 20
15.48924548194159
 10
4.804246659870966
 20
15.53124561339418
 10
4.833754118626971
 20
15.57224645102308
 10
4.864625752527881
 20
15.61217358680544
 10
4.895776212520932
 20
15.64973586826215
 10
4.928202203309401
 20
15.68625797866551
 10
4.96184606547413
 20
15.72168038611762
 10
4.996650139595955
 20
15.75594355872059
 10
5.032556766255716
 20
15.78898796457655
 10
5.070666608624287
 20
15.82173146662612
 10
5.109914881503848
 20
15.85317312975726
 10
5.150232844184916
 20
15.88325488150545
 10
5.191551755958003
 20
15.91191864940616
 10
5.233802876113628
 20
15.93910636099485
 10
5.275285449635966
 20
15.96382855308868
 10
5.317612309951832
 20
15.9871607357367
 10
5.360711315889743
 20
16.00906322778111
 10
5.404510326278209
 20
16.02949634806414
 10
5.448937199945745
 20
16.04842041542801
 10
5.495342736389791
 20
16.06632435902576
 10
5.542386991941227
 20
16.08261480218584
 10
5.589983970257502
 20
16.09726176023688
 10
5.638047674996064
 20
16.1102352485075
 10
5.686492109814363
 20
16.12150528232632
 10
5.735223865508891
 20
16.13104823692916
 10
5.784260936944829
 20
16.13887042908414
 10
5.833791679550458
 20
16.1449816612107
 10
5.88350824370066
 20
16.14932605821221
  0
LWPOLYLINE
  5
F7
330
1F
100
AcDbEntity
  8
0
  6
CONTINUOUS
 62
     7
100
AcDbPolyline
 90
       44
 70
   128
 43
0.0
 10
5.883508243700658
 20
13.23103514428229
 10
5.836384070512347
 20
13.2351121967668
 10
5.789384573834221
 20
13.24078381698241
 10
5.742588185944764
 20
13.24803298089652
 10
5.696073339122456
 20
13.25684266447658
 10
5.649918465645781
 20
13.26719584369
 10
5.602796327665334
 20
13.27946097797109
 10
5.556080840368726
 20
13.29334503690565
 10
5.509852070348653
 20
13.30881885446962
 10
5.464190084197808
 20
13.32585326463898
 10
5.419174948508886
 20
13.34441910138966
 10
5.365409714025033
 20
13.36901566980997
 10
5.312661232581939
 20
13.39583530998046
 10
5.261059690328839
 20
13.42480194993615
 10
5.210735273414968
 20
13.45583951771209
 10
5.170328902116957
 20
13.48289915411957
 10
5.130818659213566
 20
13.51132118301018
 10
5.092266780264513
 20
13.54105328098974
 10
5.054735500829514
 20
13.57204312466411
 10
5.018287056468291
 20
13.60423839063913
 10
4.98335700444033
 20
13.63722952268026
 10
4.949513010914904
 20
13.67138987076536
 10
4.916808085310861
 20
13.70666072812539
 10
4.885295237047046
 20
13.74298338799132
 10
4.855027475542311
 20
13.78029914359409
 10
4.825199311152553
 20
13.81969869206178
 10
4.796688136617304
 20
13.86011298753016
 10
4.769540237142004
 20
13.90147229911248
 10
4.743801897932089
 20
13.94370689592202
 10
4.719519404192999
 20
13.98674704707203
 10
4.69710055007982
 20
14.02979847398536
 10
4.676106103104829
 20
14.07360660546865
 10
4.656566180084413
 20
14.11809749082254
 10
4.638510897834954
 20
14.16319717934765
 10
4.621970373172838
 20
14.20883172034463
 10
4.606542128148044
 20
14.25631527853703
 10
4.592717091480589
 20
14.30433456712438
 10
4.580513656394519
 20
14.35280637202734
 10
4.569950216113877
 20
14.40164747916656
 10
4.561045163862708
 20
14.45077467446269
 10
4.552543878193477
 20
14.5101589121856
 10
4.54645236823235
 20
14.56983851893278
 10
4.542768453419204
 20
14.63011429491381
 10
4.541547059194353
 20
14.69049017462232
  0
LWPOLYLINE
  5
F9
330
1F
100
AcDbEntity
  8
0
  6
CONTINUOUS
 62
     7
100
AcDbPolyline
 90
       45
 70
   128
 43
0.0
 10
11.13340847563304
 20
16.14921452386902
 10
11.18263075639595
 20
16.14486267235958
 10
11.23171560274936
 20
16.1388003095033
 10
11.2805794414939
 20
16.13105507678874
 10
11.32913869943021
 20
16.12165461570441
 10
11.37730980335889
 20
16.11062656773885
 10
11.42650848021433
 20
16.09757872158456
 10
11.47527259166407
 20
16.08283687647133
 10
11.52352209701772
 20
16.0664395427384
 10
11.57117695558489
 20
16.04842523072502
 10
11.61815712667519
 20
16.02883245077043
 10
11.66308863465044
 20
16.00832148501109
 10
11.7073666107869
 20
15.98634824768129
 10
11.75092548478944
 20
15.96295333867296
 10
11.79369968636291
 20
15.93817735787802
 10
11.83562364521215
 20
15.91206090518841
 10
11.87778487211813
 20
15.88384827287062
 10
11.9190278187317
 20
15.8542383800251
 10
11.95928737199975
 20
15.82328164876605
 10
11.99849841886914
 20
15.79102850120768
 10
12.03659584628677
 20
15.75752935946421
 10
12.0738251240845
 20
15.72253796197527
 10
12.10990107902921
 20
15.68629799657813
 10
12.14476177926579
 20
15.64886837233955
 10
12.17834529293916
 20
15.61030799832631
 10
12.21058968819421
 20
15.57067578360517
 10
12.24237446984334
 20
15.52874826308455
 10
12.2727055370116
 20
15.48569725044672
 10
12.30152092499898
 20
15.44159874488693
 10
12.32875866910541
 20
15.39652874560045
 10
12.35435680463086
 20
15.35056325178253
 10
12.37729008356682
 20
15.30575686839383
 10
12.39868833672101
 20
15.26014672124572
 10
12.41850441753292
 20
15.21381171132703
 10
12.43669117944204
 20
15.16683073962659
 10
12.45320147588782
 20
15.1192827071332
 10
12.46846899227858
 20
15.06958983825196
 10
12.48190912991256
 20
15.01931543560205
 10
12.49348277488425
 20
14.9685616309594
 10
12.50315081328815
 20
14.91743055609994
 10
12.51087413121874
 20
14.86602434279962
 10
12.51587741515034
 20
14.82231897371987
 10
12.51946815597527
 20
14.7784749970341
 10
12.52164083206423
 20
14.73435149891371
 10
12.52236745457975
 20
14.69018060124725
  0
LWPOLYLINE
  5
FA
330
1F
100
AcDbEntity
  8
0
  6
CONTINUOUS
 62
     7
100
AcDbPolyline
 90
       44
 70
   128
 43
0.0
 10
12.52236745457975
 20
14.69018060124725
 10
12.52155420426356
 20
14.6435388518118
 10
12.51912503542931
 20
14.59691216533995
 10
12.51509582124849
 20
14.55038180152143
 10
12.50948243489256
 20
14.50402902004596
 10
12.50230074953303
 20
14.45793508060326
 10
12.49326911002939
 20
14.41072918606436
 10
12.48259987203322
 20
14.36382317254611
 10
12.47032614115888
 20
14.31729555423291
 10
12.45648102302073
 20
14.27122484530917
 10
12.4410976232331
 20
14.22568955995927
 10
12.42039788646005
 20
14.17120548870862
 10
12.39749700644743
 20
14.11755831433776
 10
12.37246993570793
 20
14.06486808597271
 10
12.34539162675424
 20
14.01325485273948
 10
12.31550232244001
 20
13.96144202298677
 10
12.28353016809001
 20
13.91083135352889
 10
12.24956659155899
 20
13.86153386827565
 10
12.21370302070168
 20
13.8136605911369
 10
12.17500705202766
 20
13.76610184703447
 10
12.13439757500616
 20
13.72010059103063
 10
12.09198150420335
 20
13.67575899411669
 10
12.04786575418539
 20
13.63317922728396
 10
12.01038656055301
 20
13.59954978421522
 10
11.97179768115774
 20
13.56713729330799
 10
11.93216252807539
 20
13.53599138057281
 10
11.89154451338172
 20
13.5061616720202
 10
11.8500070491525
 20
13.4776977936607
 10
11.80695883756127
 20
13.45024195014558
 10
11.76298656435267
 20
13.4242085033809
 10
11.71816246521081
 20
13.39964241251197
 10
11.67255877581977
 20
13.37658863668409
 10
11.62624773186367
 20
13.35509213504254
 10
11.57783541691512
 20
13.33460234672235
 10
11.5286947402408
 20
13.31579069161112
 10
11.47891361476244
 20
13.29869984827917
 10
11.42857995340178
 20
13.28337249529689
 10
11.37778166908055
 20
13.26985131123462
 10
11.33771637019624
 20
13.26054357032124
 10
11.29739761791318
 20
13.25236367609543
 10
11.25687207224634
 20
13.24532827228515
 10
11.2158626729296
 20
13.23941048504908
 10
11.17469122496931
 20
13.23467790219437
 10
11.13340847563304
 20
13.23114667862548
  0
CIRCLE
  5
FB
330
1F
100
AcDbEntity
  8
0
  6
CONTINUOUS
 62
     7
100
AcDbCircle
 10
8.526067207654614
 20
14.69018060124725
 30
0.0
 40
0.4111434996699366
  0
CIRCLE
  5
FC
330
1F
100
AcDbEntity
  8
0
  6
CONTINUOUS
 62
     7
100
AcDbCircle
 10
8.526067207654614
 20
14.69018060124725
 30
0.0
 40
0.3349887506559384
  0
CIRCLE
  5
FD
330
1F
100
AcDbEntity
  8
0
  6
CONTINUOUS
 62
     7
100
AcDbCircle
 10
8.526067207654614
 20
14.69018060124725
 30
0.0
 40
0.1733333333333338
  0
ENDSEC
  0
SECTION
  2
OBJECTS
  0
DICTIONARY
  5
C
330
0
100
AcDbDictionary
  3
ACAD_GROUP
350
D
  3
ACAD_LAYOUT
350
1A
  3
ACAD_MLINESTYLE
350
17
  3
ACAD_PLOTSETTINGS
350
19
  3
ACAD_PLOTSTYLENAME
350
E
  3
ACDBHEADERROUNDTRIPXREC
350
144
  3
ACDBVARIABLEDICTIONARY
350
13E
  0
DICTIONARY
  5
106
330
1F
100
AcDbDictionary
280
     1
  3
ACAD_LAYOUTSELFREF
360
166
  0
DICTIONARY
  5
108
330
1B
100
AcDbDictionary
280
     1
  3
ACAD_LAYOUTSELFREF
360
165
  0
DICTIONARY
  5
D
102
{ACAD_REACTORS
330
C
102
}
330
C
100
AcDbDictionary
  0
DICTIONARY
  5
1A
102
{ACAD_REACTORS
330
C
102
}
330
C
100
AcDbDictionary
  0
DICTIONARY
  5
17
102
{ACAD_REACTORS
330
C
102
}
330
C
100
AcDbDictionary
  3
STANDARD
350
18
  0
DICTIONARY
  5
19
102
{ACAD_REACTORS
330
C
102
}
330
C
100
AcDbDictionary
  0
ACDBDICTIONARYWDFLT
  5
E
102
{ACAD_REACTORS
330
C
102
}
330
C
100
AcDbDictionary
281
     1
  3
Normal
350
F
100
AcDbDictionaryWithDefault
340
F
  0
DICTIONARY
  5
144
102
{ACAD_REACTORS
330
C
102
}
330
C
100
AcDbDictionary
  3
CEPSNTYPE
350
14E
  3
DIMSTYLEDATA
350
152
  3
FINGERPRINTGUID
350
14F
  3
HYPERLINKBASE
350
147
  3
INSUNITS
350
14D
  3
LAYOUTDICT
350
149
  3
LWETCUNION
350
14C
  3
PLOTSETDICT
350
14A
  3
PLOTSTYLNAMDICT
350
14B
  3
PSVPSCALE
350
151
  3
PUCSBASE
350
155
  3
PUCSORGBACK
350
15B
  3
PUCSORGBOTTOM
350
157
  3
PUCSORGFRONT
350
15A
  3
PUCSORGLEFT
350
158
  3
PUCSORGRIGHT
350
159
  3
PUCSORGTOP
350
156
  3
PUCSORTHOREF
350
153
  3
PUCSORTHOVIEW
350
154
  3
STYLESHEET
350
148
  3
TSTACKALIGN
350
145
  3
TSTACKSIZE
350
146
  3
UCSBASE
350
15E
  3
UCSORGBACK
350
164
  3
UCSORGBOTTOM
350
160
  3
UCSORGFRONT
350
163
  3
UCSORGLEFT
350
161
  3
UCSORGRIGHT
350
162
  3
UCSORGTOP
350
15F
  3
UCSORTHOREF
350
15C
  3
UCSORTHOVIEW
350
15D
  3
VERSIONGUID
350
150
  0
DICTIONARY
  5
13E
102
{ACAD_REACTORS
330
C
102
}
330
C
100
AcDbDictionary
  3
DIMASSOC
350
13F
  0
XRECORD
  5
166
102
{ACAD_REACTORS
330
106
102
}
330
106
100
AcDbXrecord
340
1F
  0
XRECORD
  5
165
102
{ACAD_REACTORS
330
108
102
}
330
108
100
AcDbXrecord
340
1B
  0
MLINESTYLE
  5
18
102
{ACAD_REACTORS
330
17
102
}
330
17
100
AcDbMlineStyle
  2
STANDARD
 70
     0
  3

 62
   256
 51
90.0
 52
90.0
 71
     2
 49
0.5
 62
   256
  6
BYLAYER
 49
-0.5
 62
   256
  6
BYLAYER
  0
ACDBPLACEHOLDER
  5
F
102
{ACAD_REACTORS
330
E
102
}
330
E
100
AcDbPlaceHolder
280
     0
  0
XRECORD
  5
14E
102
{ACAD_REACTORS
330
144
102
}
330
144
100
AcDbXrecord
 90
        0
  0
XRECORD
  5
152
102
{ACAD_REACTORS
330
144
102
}
330
144
100
AcDbXrecord
1000
DSTYLE
1002
{
1070
   278
 70
    44
1002
}
  0
XRECORD
  5
14F
102
{ACAD_REACTORS
330
144
102
}
330
144
100
AcDbXrecord
  1
{C9383167-CBCA-4390-B57D-F8976FA056E6}
  0
XRECORD
  5
147
102
{ACAD_REACTORS
330
144
102
}
330
144
100
AcDbXrecord
  1

  0
XRECORD
  5
14D
102
{ACAD_REACTORS
330
144
102
}
330
144
100
AcDbXrecord
 90
        4
  0
XRECORD
  5
149
102
{ACAD_REACTORS
330
144
102
}
330
144
100
AcDbXrecord
340
1A
  0
XRECORD
  5
14C
102
{ACAD_REACTORS
330
144
102
}
330
144
100
AcDbXrecord
 90
    10781
  0
XRECORD
  5
14A
102
{ACAD_REACTORS
330
144
102
}
330
144
100
AcDbXrecord
340
19
  0
XRECORD
  5
14B
102
{ACAD_REACTORS
330
144
102
}
330
144
100
AcDbXrecord
340
E
  0
XRECORD
  5
151
102
{ACAD_REACTORS
330
144
102
}
330
144
100
AcDbXrecord
 40
0.0
  0
XRECORD
  5
155
102
{ACAD_REACTORS
330
144
102
}
330
144
100
AcDbXrecord
340
0
  0
XRECORD
  5
15B
102
{ACAD_REACTORS
330
144
102
}
330
144
100
AcDbXrecord
 10
0.0
 20
0.0
 30
0.0
  0
XRECORD
  5
157
102
{ACAD_REACTORS
330
144
102
}
330
144
100
AcDbXrecord
 10
0.0
 20
0.0
 30
0.0
  0
XRECORD
  5
15A
102
{ACAD_REACTORS
330
144
102
}
330
144
100
AcDbXrecord
 10
0.0
 20
0.0
 30
0.0
  0
XRECORD
  5
158
102
{ACAD_REACTORS
330
144
102
}
330
144
100
AcDbXrecord
 10
0.0
 20
0.0
 30
0.0
  0
XRECORD
  5
159
102
{ACAD_REACTORS
330
144
102
}
330
144
100
AcDbXrecord
 10
0.0
 20
0.0
 30
0.0
  0
XRECORD
  5
156
102
{ACAD_REACTORS
330
144
102
}
330
144
100
AcDbXrecord
 10
0.0
 20
0.0
 30
0.0
  0
XRECORD
  5
153
102
{ACAD_REACTORS
330
144
102
}
330
144
100
AcDbXrecord
340
0
  0
XRECORD
  5
154
102
{ACAD_REACTORS
330
144
102
}
330
144
100
AcDbXrecord
 70
     0
  0
XRECORD
  5
148
102
{ACAD_REACTORS
330
144
102
}
330
144
100
AcDbXrecord
  1

  0
XRECORD
  5
145
102
{ACAD_REACTORS
330
144
102
}
330
144
100
AcDbXrecord
 90
        1
  0
XRECORD
  5
146
102
{ACAD_REACTORS
330
144
102
}
330
144
100
AcDbXrecord
 90
       70
  0
XRECORD
  5
15E
102
{ACAD_REACTORS
330
144
102
}
330
144
100
AcDbXrecord
340
0
  0
XRECORD
  5
164
102
{ACAD_REACTORS
330
144
102
}
330
144
100
AcDbXrecord
 10
0.0
 20
0.0
 30
0.0
  0
XRECORD
  5
160
102
{ACAD_REACTORS
330
144
102
}
330
144
100
AcDbXrecord
 10
0.0
 20
0.0
 30
0.0
  0
XRECORD
  5
163
102
{ACAD_REACTORS
330
144
102
}
330
144
100
AcDbXrecord
 10
0.0
 20
0.0
 30
0.0
  0
XRECORD
  5
161
102
{ACAD_REACTORS
330
144
102
}
330
144
100
AcDbXrecord
 10
0.0
 20
0.0
 30
0.0
  0
XRECORD
  5
162
102
{ACAD_REACTORS
330
144
102
}
330
144
100
AcDbXrecord
 10
0.0
 20
0.0
 30
0.0
  0
XRECORD
  5
15F
102
{ACAD_REACTORS
330
144
102
}
330
144
100
AcDbXrecord
 10
0.0
 20
0.0
 30
0.0
  0
XRECORD
  5
15C
102
{ACAD_REACTORS
330
144
102
}
330
144
100
AcDbXrecord
340
0
  0
XRECORD
  5
15D
102
{ACAD_REACTORS
330
144
102
}
330
144
100
AcDbXrecord
 70
     0
  0
XRECORD
  5
150
102
{ACAD_REACTORS
330
144
102
}
330
144
100
AcDbXrecord
  1
{6EA2FC04-B8D1-41C0-919D-287190409AB4}
  0
DICTIONARYVAR
  5
13F
102
{ACAD_REACTORS
330
13E
102
}
330
13E
100
DictionaryVariables
280
     0
  1
1
  0
ENDSEC
  0
EOF
