  0
SECTION
  2
HEADER
  9
$ACADVER
  1
AC1014
  9
$ACADMAINTVER
 70
     9
  9
$DWGCODEPAGE
  3
ANSI_1250
  9
$INSBASE
 10
0.0
 20
0.0
 30
0.0
  9
$EXTMIN
 10
2.856431652065872
 20
2.210357717483255
 30
-0.0015258207003583
  9
$EXTMAX
 10
15.52524724503194
 20
15.28569034985929
 30
0.0000000349246037
  9
$LIMMIN
 10
0.0
 20
0.0
  9
$LIMMAX
 10
0.0
 20
0.0
  9
$ORTHOMODE
 70
     0
  9
$REGENMODE
 70
     1
  9
$FILLMODE
 70
     1
  9
$QTEXTMODE
 70
     0
  9
$MIRRTEXT
 70
     1
  9
$DRAGMODE
 70
     2
  9
$LTSCALE
 40
1.0
  9
$OSMODE
 70
  1007
  9
$ATTMODE
 70
     1
  9
$TEXTSIZE
 40
2.5
  9
$TRACEWID
 40
1.0
  9
$TEXTSTYLE
  7
STANDARD
  9
$CLAYER
  8
0
  9
$CELTYPE
  6
BYLAYER
  9
$CECOLOR
 62
   256
  9
$CELTSCALE
 40
1.0
  9
$DELOBJ
 70
     1
  9
$DISPSILH
 70
     0
  9
$DIMSCALE
 40
1.0
  9
$DIMASZ
 40
0.3
  9
$DIMEXO
 40
0.1
  9
$DIMDLI
 40
3.75
  9
$DIMRND
 40
0.0
  9
$DIMDLE
 40
0.0
  9
$DIMEXE
 40
0.1
  9
$DIMTP
 40
0.0
  9
$DIMTM
 40
0.0
  9
$DIMTXT
 40
0.2822222222222222
  9
$DIMCEN
 40
2.5
  9
$DIMTSZ
 40
0.0
  9
$DIMTOL
 70
     0
  9
$DIMLIM
 70
     0
  9
$DIMTIH
 70
     1
  9
$DIMTOH
 70
     1
  9
$DIMSE1
 70
     0
  9
$DIMSE2
 70
     0
  9
$DIMTAD
 70
     1
  9
$DIMZIN
 70
     0
  9
$DIMBLK
  1

  9
$DIMASO
 70
     1
  9
$DIMSHO
 70
     1
  9
$DIMPOST
  1

  9
$DIMAPOST
  1

  9
$DIMALT
 70
     0
  9
$DIMALTD
 70
     3
  9
$DIMALTF
 40
0.3937007874015748
  9
$DIMLFAC
 40
15.0
  9
$DIMTOFL
 70
     1
  9
$DIMTVP
 40
0.0
  9
$DIMTIX
 70
     0
  9
$DIMSOXD
 70
     0
  9
$DIMSAH
 70
     0
  9
$DIMBLK1
  1

  9
$DIMBLK2
  1

  9
$DIMSTYLE
  2
ISO-25
  9
$DIMCLRD
 70
     0
  9
$DIMCLRE
 70
     0
  9
$DIMCLRT
 70
     0
  9
$DIMTFAC
 40
1.0
  9
$DIMGAP
 40
0.1524
  9
$DIMJUST
 70
     0
  9
$DIMSD1
 70
     0
  9
$DIMSD2
 70
     0
  9
$DIMTOLJ
 70
     0
  9
$DIMTZIN
 70
     0
  9
$DIMALTZ
 70
     0
  9
$DIMALTTZ
 70
     0
  9
$DIMFIT
 70
     3
  9
$DIMUPT
 70
     0
  9
$DIMUNIT
 70
     2
  9
$DIMDEC
 70
     2
  9
$DIMTDEC
 70
     2
  9
$DIMALTU
 70
     2
  9
$DIMALTTD
 70
     3
  9
$DIMTXSTY
  7
STANDARD
  9
$DIMAUNIT
 70
     0
  9
$LUNITS
 70
     2
  9
$LUPREC
 70
     0
  9
$SKETCHINC
 40
1.0
  9
$FILLETRAD
 40
10.0
  9
$AUNITS
 70
     0
  9
$AUPREC
 70
     0
  9
$MENU
  1
.
  9
$ELEVATION
 40
0.0
  9
$PELEVATION
 40
0.0
  9
$THICKNESS
 40
0.0
  9
$LIMCHECK
 70
     0
  9
$BLIPMODE
 70
     0
  9
$CHAMFERA
 40
10.0
  9
$CHAMFERB
 40
10.0
  9
$CHAMFERC
 40
20.0
  9
$CHAMFERD
 40
0.0
  9
$SKPOLY
 70
     0
  9
$TDCREATE
 40
2454418.374840486
  9
$TDUPDATE
 40
2454420.408683981
  9
$TDINDWG
 40
0.0008228588
  9
$TDUSRTIMER
 40
0.0008228588
  9
$USRTIMER
 70
     1
  9
$ANGBASE
 50
0.0
  9
$ANGDIR
 70
     0
  9
$PDMODE
 70
     0
  9
$PDSIZE
 40
-1.0
  9
$PLINEWID
 40
0.0
  9
$COORDS
 70
     1
  9
$SPLFRAME
 70
     0
  9
$SPLINETYPE
 70
     6
  9
$SPLINESEGS
 70
     8
  9
$ATTDIA
 70
     0
  9
$ATTREQ
 70
     1
  9
$HANDLING
 70
 22529
  9
$HANDSEED
  5
2B8
  9
$SURFTAB1
 70
     6
  9
$SURFTAB2
 70
     6
  9
$SURFTYPE
 70
     6
  9
$SURFU
 70
     6
  9
$SURFV
 70
     6
  9
$UCSNAME
  2

  9
$UCSORG
 10
0.0
 20
0.0
 30
0.0
  9
$UCSXDIR
 10
1.0
 20
0.0
 30
0.0
  9
$UCSYDIR
 10
0.0
 20
1.0
 30
0.0
  9
$PUCSNAME
  2

  9
$PUCSORG
 10
0.0
 20
0.0
 30
0.0
  9
$PUCSXDIR
 10
1.0
 20
0.0
 30
0.0
  9
$PUCSYDIR
 10
0.0
 20
1.0
 30
0.0
  9
$USERI1
 70
     0
  9
$USERI2
 70
     0
  9
$USERI3
 70
     0
  9
$USERI4
 70
     0
  9
$USERI5
 70
     0
  9
$USERR1
 40
0.0
  9
$USERR2
 40
0.0
  9
$USERR3
 40
0.0
  9
$USERR4
 40
0.0
  9
$USERR5
 40
0.0
  9
$WORLDVIEW
 70
     1
  9
$SHADEDGE
 70
     3
  9
$SHADEDIF
 70
    70
  9
$TILEMODE
 70
     1
  9
$MAXACTVP
 70
    64
  9
$PINSBASE
 10
0.0
 20
0.0
 30
0.0
  9
$PLIMCHECK
 70
     0
  9
$PEXTMIN
 10
1.000000000000000E+20
 20
1.000000000000000E+20
 30
1.000000000000000E+20
  9
$PEXTMAX
 10
-1.000000000000000E+20
 20
-1.000000000000000E+20
 30
-1.000000000000000E+20
  9
$PLIMMIN
 10
0.0
 20
0.0
  9
$PLIMMAX
 10
420.0
 20
297.0
  9
$UNITMODE
 70
     0
  9
$VISRETAIN
 70
     1
  9
$PLINEGEN
 70
     0
  9
$PSLTSCALE
 70
     1
  9
$TREEDEPTH
 70
  3020
  9
$PICKSTYLE
 70
     1
  9
$CMLSTYLE
  2
STANDARD
  9
$CMLJUST
 70
     0
  9
$CMLSCALE
 40
20.0
  9
$PROXYGRAPHICS
 70
     1
  9
$MEASUREMENT
 70
     1
  0
ENDSEC
  0
SECTION
  2
CLASSES
  0
CLASS
  1
ACDBDICTIONARYWDFLT
  2
AcDbDictionaryWithDefault
  3
AutoCAD 2000
 90
        0
280
     0
281
     0
  0
CLASS
  1
ACDBPLACEHOLDER
  2
AcDbPlaceHolder
  3
AutoCAD 2000
 90
        0
280
     0
281
     0
  0
CLASS
  1
LAYOUT
  2
AcDbLayout
  3
AutoCAD 2000
 90
        0
280
     0
281
     0
  0
CLASS
  1
DICTIONARYVAR
  2
AcDbDictionaryVar
  3
AutoCAD 2000
 90
        0
280
     0
281
     0
  0
CLASS
  1
LONG_TRANSACTION
  2
AcDbLongTransaction
  3
AutoCAD 2000
 90
        0
280
     0
281
     0
  0
CLASS
  1
LWPOLYLINE
  2
AcDbPolyline
  3
AutoCAD 2000
 90
        0
280
     0
281
     1
  0
CLASS
  1
HATCH
  2
AcDbHatch
  3
AutoCAD 2000
 90
        0
280
     0
281
     1
  0
CLASS
  1
XRECORD
  2
AcDbXrecord
  3
AutoCAD 2000
 90
        0
280
     0
281
     0
  0
ENDSEC
  0
SECTION
  2
TABLES
  0
TABLE
  2
VPORT
  5
8
330
0
100
AcDbSymbolTable
 70
     3
  0
VPORT
  5
290
330
8
100
AcDbSymbolTableRecord
100
AcDbViewportTableRecord
  2
*ACTIVE
 70
     0
 10
0.0
 20
0.0
 11
1.0
 21
1.0
 12
9.190839448548906
 22
8.748024033671274
 13
0.0
 23
0.0
 14
10.0
 24
10.0
 15
10.0
 25
10.0
 16
0.0
 26
0.0
 36
1.0
 17
0.0
 27
0.0
 37
0.0
 40
13.20415364353245
 41
1.981907894736841
 42
50.0
 43
0.0
 44
0.0
 50
0.0
 51
0.0
 71
     0
 72
  2000
 73
     1
 74
     3
 75
     0
 76
     0
 77
     0
 78
     0
  0
ENDTAB
  0
TABLE
  2
LTYPE
  5
5
330
0
100
AcDbSymbolTable
 70
     6
  0
LTYPE
  5
14
330
5
100
AcDbSymbolTableRecord
100
AcDbLinetypeTableRecord
  2
BYBLOCK
 70
     0
  3

 72
    65
 73
     0
 40
0.0
  0
LTYPE
  5
15
330
5
100
AcDbSymbolTableRecord
100
AcDbLinetypeTableRecord
  2
BYLAYER
 70
     0
  3

 72
    65
 73
     0
 40
0.0
  0
LTYPE
  5
16
330
5
100
AcDbSymbolTableRecord
100
AcDbLinetypeTableRecord
  2
CONTINUOUS
 70
     0
  3
Solid line
 72
    65
 73
     0
 40
0.0
  0
ENDTAB
  0
TABLE
  2
LAYER
  5
2
330
0
100
AcDbSymbolTable
 70
     3
  0
LAYER
  5
10
330
2
100
AcDbSymbolTableRecord
100
AcDbLayerTableRecord
  2
0
 70
     0
 62
     7
  6
CONTINUOUS
  0
ENDTAB
  0
TABLE
  2
STYLE
  5
3
330
0
100
AcDbSymbolTable
 70
     4
  0
STYLE
  5
11
330
3
100
AcDbSymbolTableRecord
100
AcDbTextStyleTableRecord
  2
STANDARD
 70
     0
 40
0.0
 41
1.0
 50
0.0
 71
     0
 42
2.5
  3
ARIAL.TTF
  4

1001
ACAD
1000
Arial
1071
       34
  0
ENDTAB
  0
TABLE
  2
VIEW
  5
6
330
0
100
AcDbSymbolTable
 70
     0
  0
ENDTAB
  0
TABLE
  2
UCS
  5
7
330
0
100
AcDbSymbolTable
 70
     0
  0
ENDTAB
  0
TABLE
  2
APPID
  5
9
330
0
100
AcDbSymbolTable
 70
     1
  0
APPID
  5
12
330
9
100
AcDbSymbolTableRecord
100
AcDbRegAppTableRecord
  2
ACAD
 70
     0
  0
ENDTAB
  0
TABLE
  2
DIMSTYLE
  5
A
330
0
100
AcDbSymbolTable
 70
     5
  0
DIMSTYLE
105
27
330
A
100
AcDbSymbolTableRecord
100
AcDbDimStyleTableRecord
  2
ISO-25
 70
     0
  3

  4

  5

  6

  7

 40
1.0
 41
2.5
 42
0.625
 43
3.75
 44
1.25
 45
0.0
 46
0.0
 47
0.0
 48
0.0
140
2.5
141
2.5
142
0.0
143
0.03937007874016
144
1.0
145
0.0
146
1.0
147
0.625
 71
     0
 72
     0
 73
     0
 74
     0
 75
     0
 76
     0
 77
     1
 78
     8
170
     0
171
     3
172
     1
173
     0
174
     0
175
     0
176
     0
177
     0
178
     0
270
     2
271
     2
272
     2
273
     2
274
     3
340
11
275
     0
280
     0
281
     0
282
     0
283
     0
284
     8
285
     0
286
     0
287
     3
288
     0
  0
ENDTAB
  0
TABLE
  2
BLOCK_RECORD
  5
1
330
0
100
AcDbSymbolTable
 70
    28
  0
BLOCK_RECORD
  5
1F
102
{ACAD_XDICTIONARY
360
2B4
102
}
330
1
100
AcDbSymbolTableRecord
100
AcDbBlockTableRecord
  2
*MODEL_SPACE
  0
BLOCK_RECORD
  5
1B
102
{ACAD_XDICTIONARY
360
2B2
102
}
330
1
100
AcDbSymbolTableRecord
100
AcDbBlockTableRecord
  2
*PAPER_SPACE
  0
ENDTAB
  0
ENDSEC
  0
SECTION
  2
BLOCKS
  0
BLOCK
  5
20
330
1F
100
AcDbEntity
  8
0
100
AcDbBlockBegin
  2
*MODEL_SPACE
 70
     0
 10
0.0
 20
0.0
 30
0.0
  3
*MODEL_SPACE
  1

  0
ENDBLK
  5
21
330
1F
100
AcDbEntity
  8
0
100
AcDbBlockEnd
  0
BLOCK
  5
1C
330
1B
100
AcDbEntity
 67
     1
  8
0
100
AcDbBlockBegin
  2
*PAPER_SPACE
 70
     0
 10
0.0
 20
0.0
 30
0.0
  3
*PAPER_SPACE
  1

  0
ENDBLK
  5
1D
330
1B
100
AcDbEntity
 67
     1
  8
0
100
AcDbBlockEnd
  0
ENDSEC
  0
SECTION
  2
ENTITIES
  0
LINE
  5
E7
330
1F
100
AcDbEntity
  8
0
100
AcDbLine
 10
8.643388515482991
 20
2.37592648618219
 30
0.0
 11
8.643388515482991
 21
2.210843955663205
 31
0.0
  0
LINE
  5
E8
330
1F
100
AcDbEntity
  8
0
100
AcDbLine
 10
8.643388515482991
 20
2.210843955663205
 30
0.0
 11
5.379016547511006
 21
2.307118201784577
 31
0.0
  0
LINE
  5
E9
330
1F
100
AcDbEntity
  8
0
100
AcDbLine
 10
5.233475349852015
 20
2.435540081852171
 30
0.0
 11
5.379016547511006
 21
2.307118201784577
 31
0.0
  0
LINE
  5
EA
330
1F
100
AcDbEntity
  8
0
100
AcDbLine
 10
8.643388515482991
 20
2.210843955663205
 30
0.0
 11
9.740360107975973
 21
2.210843955663205
 31
0.0
  0
LINE
  5
EB
330
1F
100
AcDbEntity
  8
0
100
AcDbLine
 10
9.740360107975973
 20
2.210843955663205
 30
0.0
 11
12.06520203764563
 21
2.252782008177085
 31
0.0
  0
LINE
  5
EC
330
1F
100
AcDbEntity
  8
0
100
AcDbLine
 10
9.740360107975973
 20
2.377655347337113
 30
0.0
 11
9.740360107975973
 21
2.210843955663205
 31
0.0
  0
LINE
  5
ED
330
1F
100
AcDbEntity
  8
0
100
AcDbLine
 10
12.23563436404092
 20
2.417129771412533
 30
0.0
 11
12.06520203764563
 21
2.252782008177085
 31
0.0
  0
CIRCLE
  5
EE
330
1F
100
AcDbEntity
  8
0
100
AcDbCircle
 10
9.191874311729481
 20
5.077510622329871
 30
0.0
 40
0.1700000000000001
  0
LWPOLYLINE
  5
EF
330
1F
100
AcDbEntity
  8
0
100
AcDbPolyline
 90
        3
 70
   128
 43
0.0
 10
4.352242595319163
 20
5.210843954669794
 10
4.522258884076487
 20
3.896150588181972
 10
4.709536280596466
 20
2.447985310541948
  0
LWPOLYLINE
  5
F0
330
1F
100
AcDbEntity
  8
0
100
AcDbPolyline
 90
        3
 70
   128
 43
0.0
 10
12.65404666102351
 20
2.42814034142828
 10
13.33723986781061
 20
3.889853556143601
 10
13.95466014381668
 20
5.210843954669794
  0
LINE
  5
F1
330
1F
100
AcDbEntity
  8
0
100
AcDbLine
 10
5.007780836387685
 20
2.439854839630286
 30
0.0
 11
8.817423156265627
 21
2.363662023531755
 31
0.0
  0
LINE
  5
F2
330
1F
100
AcDbEntity
  8
0
100
AcDbLine
 10
9.566325467193337
 20
2.363662023531755
 30
0.0
 11
12.35203409827174
 21
2.419376273142656
 31
0.0
  0
ARC
  5
F3
330
1F
100
AcDbEntity
  8
0
100
AcDbCircle
 10
9.191874311729481
 20
2.817016569161475
 30
0.0
 40
0.5880000000000005
100
AcDbArc
 50
286.8050184659896
 51
309.5552288032999
  0
ARC
  5
F4
330
1F
100
AcDbEntity
  8
0
100
AcDbCircle
 10
9.191874311729481
 20
2.817016569161475
 30
0.0
 40
0.5880000000000003
100
AcDbArc
 50
230.4447711967017
 51
253.1949815340122
  0
LINE
  5
F5
330
1F
100
AcDbEntity
  8
0
100
AcDbLine
 10
12.52520764506281
 20
5.210843954669794
 30
0.0
 11
12.52520764506281
 21
5.444177288996537
 31
0.0
  0
LINE
  5
F6
330
1F
100
AcDbEntity
  8
0
100
AcDbLine
 10
12.52520764506281
 20
5.444177288996537
 30
0.0
 11
15.52520756558995
 21
5.444177288996537
 31
0.0
  0
LINE
  5
F7
330
1F
100
AcDbEntity
  8
0
100
AcDbLine
 10
15.52520756558995
 20
5.210843954669794
 30
0.0
 11
15.52520756558995
 21
5.444177288996537
 31
0.0
  0
LINE
  5
F8
330
1F
100
AcDbEntity
  8
0
100
AcDbLine
 10
15.52520756558995
 20
5.210843954669794
 30
0.0
 11
12.52520764506281
 21
5.210843954669794
 31
0.0
  0
LINE
  5
F9
330
1F
100
AcDbEntity
  8
0
100
AcDbLine
 10
5.858540978396149
 20
5.210843954669794
 30
0.0
 11
5.858540978396149
 21
5.444177288996537
 31
0.0
  0
LINE
  5
FA
330
1F
100
AcDbEntity
  8
0
100
AcDbLine
 10
12.52520764506281
 20
5.210843954669794
 30
0.0
 11
5.858540978396149
 21
5.210843954669794
 31
0.0
  0
LINE
  5
FB
330
1F
100
AcDbEntity
  8
0
100
AcDbLine
 10
5.858540978396149
 20
5.444177288996537
 30
0.0
 11
12.52520764506281
 21
5.444177288996537
 31
0.0
  0
LINE
  5
FC
330
1F
100
AcDbEntity
  8
0
100
AcDbLine
 10
2.858541057869008
 20
5.210843954669794
 30
0.0
 11
2.858541057869008
 21
5.444177288996537
 31
0.0
  0
LINE
  5
FD
330
1F
100
AcDbEntity
  8
0
100
AcDbLine
 10
5.858540978396149
 20
5.210843954669794
 30
0.0
 11
2.858541057869008
 21
5.210843954669794
 31
0.0
  0
LINE
  5
FE
330
1F
100
AcDbEntity
  8
0
100
AcDbLine
 10
2.858541057869008
 20
5.444177288996537
 30
0.0
 11
5.858540978396149
 21
5.444177288996537
 31
0.0
  0
LWPOLYLINE
  5
FF
330
1F
100
AcDbEntity
  8
0
100
AcDbPolyline
 90
       57
 70
   128
 43
0.0
 10
10.22335792220057
 20
2.382558682747046
 10
9.893536663417231
 20
2.377769648221493
 10
9.563700304790549
 20
2.374199926045895
 10
9.233810112614643
 20
2.372656165746212
 10
8.903917840484988
 20
2.373573083865007
 10
8.574074254795126
 20
2.376719017016252
 10
8.244246389830323
 20
2.381266255366166
 10
7.914418326183369
 20
2.386561333325863
 10
7.584597713117015
 20
2.392298876431942
 10
6.58507649736028
 20
2.410872478472551
 10
6.521766033137055
 20
2.412078081754208
 10
6.458432521784515
 20
2.413278519299984
 10
6.395181662206065
 20
2.414470413513343
 10
6.332119153305104
 20
2.415650784162044
 10
6.269350296620737
 20
2.416816452331702
 10
6.205205764734954
 20
2.417998611119748
 10
6.141421642267914
 20
2.419167060839494
 10
6.078118131919912
 20
2.420320410715898
 10
6.015415237709096
 20
2.421457269973914
 10
5.953432963653614
 20
2.422576247838498
 10
5.893703347806346
 20
2.423651118265947
 10
5.8346971336645
 20
2.424709895439307
 10
5.776519424085032
 20
2.425751585947832
 10
5.719275123242747
 20
2.426775196380774
 10
5.663068340583852
 20
2.427779733327389
 10
5.606180872881623
 20
2.428796588567257
 10
5.550435430173289
 20
2.429793972956499
 10
5.495937313997955
 20
2.430771091766517
 10
5.442791031166127
 20
2.431726554222266
 10
5.39110148585261
 20
2.43265956559515
 10
5.344489461545359
 20
2.433504958140214
 10
5.29915575818639
 20
2.434331674563249
 10
5.255173093442332
 20
2.435139317499956
 10
5.212615377072703
 20
2.435927092221737
 10
5.171556121472727
 20
2.436693806635698
 10
5.130885885520985
 20
2.437461713142554
 10
5.091822590792389
 20
2.43820836065944
 10
5.054432199760488
 20
2.438933351822059
 10
5.01878146962743
 20
2.439635693219662
 10
4.984936760231069
 20
2.440314788805803
 10
4.953752404813181
 20
2.440953551915646
 10
4.924292213086497
 20
2.441571056035519
 10
4.896601881945343
 20
2.442166903801124
 10
4.870728697741241
 20
2.442740300483862
 10
4.84671835736852
 20
2.443291047401587
 10
4.823970443372141
 20
2.443833847033342
 10
4.803208556139678
 20
2.444353202171485
 10
4.784464484815012
 20
2.444848318087419
 10
4.76777081327062
 20
2.445318996098995
 10
4.753158933286082
 20
2.445764640159766
 10
4.740950312578888
 20
2.446174720115821
 10
4.730724539721222
 20
2.446561355578264
 10
4.722492740913441
 20
2.446924546547095
 10
4.716267234448802
 20
2.447263696975867
 10
4.712059543891958
 20
2.447579005546729
 10
4.709845827385
 20
2.447878220863501
 10
4.709809667233836
 20
2.448020675964515
  0
LWPOLYLINE
  5
100
330
1F
100
AcDbEntity
  8
0
100
AcDbPolyline
 90
       52
 70
   128
 43
0.0
 10
12.65382254755915
 20
2.428245046920936
 10
12.65380546089431
 20
2.42809245903031
 10
12.65163465973159
 20
2.427723307597001
 10
12.64733875430048
 20
2.427333294538021
 10
12.64092291033686
 20
2.426922817217668
 10
12.6326581302923
 20
2.426504392611345
 10
12.62239619728347
 20
2.426066298472246
 10
12.61015817161819
 20
2.42560873348252
 10
12.59596471623998
 20
2.425132095006466
 10
12.57983649409235
 20
2.424636979090532
 10
12.56122315562189
 20
2.424107888527075
 10
12.54057372248591
 20
2.423558333702247
 10
12.51792753374995
 20
2.422989308026791
 10
12.49332392847956
 20
2.422400811500708
 10
12.466801848376
 20
2.421793638852596
 10
12.4391504589361
 20
2.421184280700842
 10
12.40970198945622
 20
2.420556643791358
 10
12.37850670652013
 20
2.41991112548844
 10
12.34561527407587
 20
2.419248123156389
 10
12.31107815738937
 20
2.418568630205949
 10
12.27383578455866
 20
2.417851387647152
 10
12.23487779136917
 20
2.417115667648475
 10
12.19427451130172
 20
2.416362264938513
 10
12.15209607915502
 20
2.415591576881568
 10
12.10841223236343
 20
2.414804199524085
 10
12.06437194979609
 20
2.414020199763139
 10
12.01892738179784
 20
2.413219510701656
 10
11.97215601440689
 20
2.412402927068233
 10
11.92413573102574
 20
2.411571243591468
 10
11.87494381901046
 20
2.410725056317806
 10
11.82312155402125
 20
2.409838735249997
 10
11.77008792396804
 20
2.408936122245948
 10
11.7159378989182
 20
2.408018012034257
 10
11.66076684630335
 20
2.407085199343522
 10
11.60467013355514
 20
2.40613847890234
 10
11.54906217889409
 20
2.405201096522172
 10
11.49260267254135
 20
2.404249210345109
 10
11.43538658456425
 20
2.403283813781897
 10
11.37750928239446
 20
2.402305900243282
 10
11.31906514005284
 20
2.401316264457862
 10
11.25835761066696
 20
2.400284905421098
 10
11.1970846318843
 20
2.399240035998186
 10
11.13535408811193
 20
2.398182252235572
 10
11.07327326771041
 20
2.397112547544002
 10
11.01095045245112
 20
2.396032114016374
 10
10.95876042680364
 20
2.395119964269161
 10
10.90643648938756
 20
2.394198079096635
 10
10.85402980085632
 20
2.393270432141781
 10
10.80159122384013
 20
2.392340202318986
 10
10.74917162096918
 20
2.391410965906938
 10
10.4877911471965
 20
2.386879423446814
 10
10.22335792220057
 20
2.382558682747046
  0
LWPOLYLINE
  5
101
330
1F
100
AcDbEntity
  8
0
100
AcDbPolyline
 90
       47
 70
   128
 43
0.0
 10
9.094536735479247
 20
5.210843954669794
 10
9.085676529868653
 20
5.204640228735765
 10
9.071474531158022
 20
5.192077854461829
 10
9.058743438486468
 20
5.177987962153911
 10
9.047722701096743
 20
5.162635519293308
 10
9.038541909420699
 20
5.146149867959182
 10
9.031262332066109
 20
5.128702495681604
 10
9.026020861033808
 20
5.110621501194795
 10
9.022896360719414
 20
5.092071219471455
 10
9.021889004969807
 20
5.073233419842879
 10
9.023017755512606
 20
5.054462377416451
 10
9.026301785175215
 20
5.035938868112723
 10
9.031680222714157
 20
5.017834453967571
 10
9.039051926497828
 20
5.000489651349544
 10
9.048374266787579
 20
4.984081287371477
 10
9.059532119695555
 20
4.968751469440619
 10
9.072315676872145
 20
4.954788386014461
 10
9.086625274384232
 20
4.942345072018464
 10
9.102304592842074
 20
4.931518086977164
 10
9.119058750683278
 20
4.922510980752468
 10
9.13674232499223
 20
4.915435661064942
 10
9.155175371829878
 20
4.910332162367661
 10
9.174011228098681
 20
4.907296547479789
 10
9.193075088916961
 20
4.906386831588904
 10
9.212183675531756
 20
4.907582252410412
 10
9.230977631597928
 20
4.910860309190909
 10
9.249272473269911
 20
4.916218816426754
 10
9.266902254386954
 20
4.92357840059932
 10
9.283535433425715
 20
4.932800530580044
 10
9.298998647793343
 20
4.943823118197282
 10
9.313162002825947
 20
4.95651706972456
 10
9.325759134058367
 20
4.970643618889014
 10
9.336647362872174
 20
4.986087579714617
 10
9.345747477177988
 20
5.002684791075548
 10
9.352888337139498
 20
5.020123073644797
 10
9.357974016531517
 20
5.038247206993262
 10
9.360984932744713
 20
5.056876415200393
 10
9.361864436531277
 20
5.075660396801789
 10
9.36057419465404
 20
5.094421356109142
 10
9.357156439487349
 20
5.112982316998005
 10
9.351675432288857
 20
5.130994219767412
 10
9.344154741728516
 20
5.148276834872723
 10
9.334693634375145
 20
5.164676928706328
 10
9.323470067346306
 20
5.179886072066784
 10
9.310566816592427
 20
5.193741867132346
 10
9.296129044258805
 20
5.206132108159224
 10
9.289209665223173
 20
5.210843954669794
  0
ARC
  5
102
330
1F
100
AcDbEntity
  8
0
100
AcDbCircle
 10
9.19185667498454
 20
5.079513155402452
 30
0.0
 40
0.17002942643596
100
AcDbArc
 50
181.7079696232219
 51
359.3251801487392
  0
LINE
  5
103
330
1F
100
AcDbEntity
  8
0
100
AcDbLine
 10
8.817423156265627
 20
2.363662023531755
 30
0.0
 11
9.566325467193337
 21
2.363662023531755
 31
0.0
  0
LINE
  5
104
330
1F
100
AcDbEntity
  8
0
100
AcDbLine
 10
9.191874311729481
 20
2.254127561238766
 30
0.0
 11
9.021874314908396
 21
2.254127561238766
 31
0.0
  0
LINE
  5
105
330
1F
100
AcDbEntity
  8
0
100
AcDbLine
 10
9.361874308550568
 20
2.254127561238766
 30
0.0
 11
9.191874311729481
 21
2.254127561238766
 31
0.0
  0
POINT
  5
141
330
1F
100
AcDbEntity
  8
0
100
AcDbPoint
 10
12.64039837394718
 20
12.28544985901619
 30
0.0
  0
POINT
  5
142
330
1F
100
AcDbEntity
  8
0
100
AcDbPoint
 10
4.728330449892208
 20
12.28544985901619
 30
0.0
  0
POINT
  5
143
330
1F
100
AcDbEntity
  8
0
100
AcDbPoint
 10
6.636979694683375
 20
14.09878252967458
 30
0.0
  0
POINT
  5
144
330
1F
100
AcDbEntity
  8
0
100
AcDbPoint
 10
6.636979694683375
 20
10.47624262903832
 30
0.0
  0
LINE
  5
145
330
1F
100
AcDbEntity
  8
0
100
AcDbLine
 10
5.858540978396149
 20
15.28556442523599
 30
0.0
 11
2.858541057869008
 21
12.28556450470884
 31
0.0
  0
ARC
  5
146
330
1F
100
AcDbEntity
  8
0
100
AcDbCircle
 10
6.671616038304936
 20
12.29036143112345
 30
0.0
 40
2.325089675937121
100
AcDbArc
 50
113.2697567164075
 51
160.2682123540337
  0
ARC
  5
147
330
1F
100
AcDbEntity
  8
0
100
AcDbCircle
 10
11.70101604851312
 20
12.26780328700519
 30
0.0
 40
2.3486989170386
100
AcDbArc
 50
66.69737726783032
 51
87.95552425811889
  0
LWPOLYLINE
  5
148
330
1F
100
AcDbEntity
  8
0
100
AcDbPolyline
 90
       12
 70
   128
 43
0.0
 10
11.78480649626673
 20
14.61500710511804
 10
11.73339093363703
 20
14.61619269117315
 10
11.68195550279241
 20
14.61648793284694
 10
11.63051848249059
 20
14.61646021668712
 10
9.979420499368718
 20
14.61646021668712
 10
8.328322516246847
 20
14.61646021668712
 10
7.073431657119802
 20
14.61646021668712
 10
6.978511856361439
 20
14.61683244769374
 10
6.88358371095281
 20
14.61752520267765
 10
6.788659936551463
 20
14.61790264909069
 10
6.693753050132802
 20
14.61732890471418
 10
6.598875369990081
 20
14.61516808732946
  0
LINE
  5
149
330
1F
100
AcDbEntity
  8
0
100
AcDbLine
 10
12.52520764506281
 20
15.28556442523599
 30
0.0
 11
5.858540978396149
 21
15.28556442523599
 31
0.0
  0
LINE
  5
14A
330
1F
100
AcDbEntity
  8
0
100
AcDbLine
 10
15.52520756558995
 20
12.28556450470884
 30
0.0
 11
12.52520764506281
 21
15.28556442523599
 31
0.0
  0
ARC
  5
14B
330
1F
100
AcDbEntity
  8
0
100
AcDbCircle
 10
11.71696639895748
 20
12.29912367183347
 30
0.0
 40
2.313624733215782
100
AcDbArc
 50
19.60314804153742
 51
66.75332769895826
  0
ARC
  5
14C
330
1F
100
AcDbEntity
  8
0
100
AcDbCircle
 10
6.67691986665596
 20
12.27713176922708
 30
0.0
 40
2.339338532197842
100
AcDbArc
 50
91.91184393328617
 51
113.2610832538808
  0
ARC
  5
14D
330
1F
100
AcDbEntity
  8
0
100
AcDbCircle
 10
11.67309501794528
 20
12.28556440536777
 30
0.0
 40
2.359503267233608
100
AcDbArc
 50
340.4440978183448
 51
19.55590218165607
  0
ARC
  5
14E
330
1F
100
AcDbEntity
  8
0
100
AcDbCircle
 10
11.71707999422579
 20
12.27189839053802
 30
0.0
 40
2.313481908451838
100
AcDbArc
 50
293.2451298825656
 51
340.398398585949
  0
ARC
  5
14F
330
1F
100
AcDbEntity
  8
0
100
AcDbCircle
 10
11.70106382102534
 20
12.3031129837924
 30
0.0
 40
2.348484907720481
100
AcDbArc
 50
272.0434958831422
 51
293.3036025909098
  0
LWPOLYLINE
  5
150
330
1F
100
AcDbEntity
  8
0
100
AcDbPolyline
 90
       12
 70
   128
 43
0.0
 10
6.598875369990081
 20
9.955960673735541
 10
6.650370206797333
 20
9.95486196145018
 10
6.701883123680166
 20
9.954621953413886
 10
6.753397033973744
 20
9.95466844503681
 10
8.41998184359492
 20
9.95466844503681
 10
10.08656655387502
 20
9.95466844503681
 10
11.32588709032954
 20
9.95466844503681
 10
11.41768042878728
 20
9.954300088332098
 10
11.50948250925959
 20
9.953621390110257
 10
11.60128002004247
 20
9.953271709527573
 10
11.69305925206761
 20
9.953891995197535
 10
11.78480649626673
 20
9.956121606276434
  0
ARC
  5
151
330
1F
100
AcDbEntity
  8
0
100
AcDbCircle
 10
6.676927232579184
 20
12.29402941641849
 30
0.0
 40
2.33937118447772
100
AcDbArc
 50
246.7390641477249
 51
268.0880022552329
  0
ARC
  5
152
330
1F
100
AcDbEntity
  8
0
100
AcDbCircle
 10
6.671589292226652
 20
12.28074223611323
 30
0.0
 40
2.325056011458164
100
AcDbArc
 50
199.7314269447617
 51
246.7306039847988
  0
ARC
  5
153
330
1F
100
AcDbEntity
  8
0
100
AcDbCircle
 10
6.684577628860073
 20
12.28556440536777
 30
0.0
 40
2.338909769854331
100
AcDbArc
 50
160.2647999419279
 51
199.7352000580729
  0
LWPOLYLINE
  5
154
330
1F
100
AcDbEntity
  8
0
100
AcDbPolyline
 90
      218
 70
   128
 43
0.0
 10
6.543610340718639
 20
14.09900363549194
 10
7.026588962837269
 20
14.09790959223708
 10
7.509577717745513
 20
14.09696018958689
 10
7.992586340868683
 20
14.09619347517293
 10
8.475605047110926
 20
14.09565117224654
 10
8.859618401889216
 20
14.09540629649759
 10
9.243634184315018
 20
14.09533924127222
 10
9.627660857006125
 20
14.09545517230631
 10
10.0116844439151
 20
14.09574644033711
 10
10.33215139941792
 20
14.09611420099538
 10
10.65261388457239
 20
14.09658319020868
 10
10.65261507666529
 20
14.09658319020868
 10
10.71674520409525
 20
14.09689780339202
 10
10.78090076284032
 20
14.09718658789596
 10
10.84503794348658
 20
14.09677620991668
 10
10.90911293662012
 20
14.09499343499145
 10
10.97308203216812
 20
14.09116502865753
 10
11.03784386949163
 20
14.0848482277453
 10
11.1024002694728
 20
14.07620833580296
 10
11.16662745313268
 20
14.06526432697575
 10
11.2304018401744
 20
14.05203497672678
 10
11.29359925425471
 20
14.03653945788345
 10
11.35148887471776
 20
14.02019983792902
 10
11.40885278221389
 20
14.00193657740554
 10
11.46559719876866
 20
13.9817806707283
 10
11.52162735299687
 20
13.95976311231256
 10
11.57684946692408
 20
13.93591519459685
 10
11.63280630743922
 20
13.90947050119043
 10
11.6878758334758
 20
13.88110574349364
 10
11.74196287628433
 20
13.85087247952422
 10
11.79497206843317
 20
13.81882206861775
 10
11.84680804249069
 20
13.7850058701098
 10
11.89604684349319
 20
13.75045087202987
 10
11.94414838787338
 20
13.71424641474685
 10
11.99103538827519
 20
13.67645557984313
 10
12.03663055734258
 20
13.63714095219573
 10
12.08085621035517
 20
13.59636541470489
 10
12.12491914268753
 20
13.55288422370554
 10
12.16750129696151
 20
13.50787655775349
 10
12.20853174364985
 20
13.46142506862284
 10
12.24793875849665
 20
13.41361240808766
 10
12.28565141197464
 20
13.3645210292399
 10
12.32062384125015
 20
13.31565038625996
 10
12.35397482550562
 20
13.26559917394917
 10
12.38565231001795
 20
13.21445242826741
 10
12.41560483611048
 20
13.16229597990315
 10
12.44378015037796
 20
13.10921526218058
 10
12.47090721762598
 20
13.05363412960967
 10
12.49613309538782
 20
12.99710468714039
 10
12.51941645777643
 20
12.93972826266886
 10
12.54071637626907
 20
12.88160578672688
 10
12.55999172366083
 20
12.82283858721058
 10
12.57673586047114
 20
12.76526765291493
 10
12.59156827764134
 20
12.70712352061869
 10
12.60446712013504
 20
12.64850314721069
 10
12.6154097381872
 20
12.58950348957977
 10
12.62437427676142
 20
12.53022130593261
 10
12.63152723149876
 20
12.46893958513539
 10
12.6365852816544
 20
12.40739520653686
 10
12.63954087730667
 20
12.34569625322621
 10
12.64038766062678
 20
12.28395060961049
 10
12.63911927378595
 20
12.22226655746103
 10
12.63585850235244
 20
12.16242289806009
 10
12.63060852524063
 20
12.10267102981211
 10
12.62338007128657
 20
12.04310969774525
 10
12.61418386932632
 20
11.98383724952341
 10
12.60303184028884
 20
11.92495203281046
 10
12.58951271212519
 20
11.86478511755268
 10
12.5739320579809
 20
11.80506364767354
 10
12.55632087227127
 20
11.74588974579772
 10
12.53671134150446
 20
11.68736752137145
 10
12.51513446009577
 20
11.62959909701944
 10
12.49224190549474
 20
11.57410995428364
 10
12.46749604380549
 20
11.51936825379333
 10
12.44094257192235
 20
11.46546181305846
 10
12.41262718673965
 20
11.41247805222472
 10
12.38259558515172
 20
11.36050598089497
 10
12.3499068084997
 20
11.30810555085143
 10
12.31541598475397
 20
11.25680820410054
 10
12.27918828165949
 20
11.20670056605936
 10
12.24128846959691
 20
11.15786846741638
 10
12.20178131894689
 20
11.11039734149576
 10
12.1617607736232
 20
11.06548444692891
 10
12.12023620442967
 20
11.02188960974019
 10
12.0772793356222
 20
10.97968236868184
 10
12.03296149409235
 20
10.9389306730489
 10
11.98735440409602
 20
10.89970406159362
 10
11.93909649686436
 20
10.86095150574645
 10
11.889502452179
 20
10.82383450135192
 10
11.83866068359634
 20
10.78841503724059
 10
11.7866592073085
 20
10.75475430751444
 10
11.73358683423619
 20
10.72291430100402
 10
11.68083374337773
 20
10.69364007576903
 10
11.62709499037684
 20
10.66610829298298
 10
11.57246018088282
 20
10.6403626627187
 10
11.51701852318069
 20
10.61644610032043
 10
11.46085962291977
 20
10.5944019184967
 10
11.4023483260117
 20
10.57368612552286
 10
11.34311382608037
 20
10.55495914086303
 10
11.28325963652552
 20
10.53825156156819
 10
11.22289006547551
 20
10.52359358732503
 10
11.16210842764796
 20
10.51101502045593
 10
11.10085730390172
 20
10.5005126820465
 10
11.03923007484695
 20
10.49209889039001
 10
10.97733462489069
 20
10.4857839769582
 10
10.91527824239354
 20
10.48157827322285
 10
10.85316901044469
 20
10.47949131592712
 10
10.77443395690541
 20
10.47917580867411
 10
10.69569363828918
 20
10.47962999606729
 10
10.54370219147623
 20
10.48009093865356
 10
10.22307609157185
 20
10.48101520801187
 10
9.91364076372406
 20
10.48181232079467
 10
9.604191130761515
 20
10.48242744072875
 10
9.294729924563776
 20
10.48274930581054
 10
8.98518104986768
 20
10.48267261450093
 10
8.675637291236929
 20
10.48223909005126
 10
8.366109675530802
 20
10.48155562345784
 10
7.901973472400716
 20
10.48027968669535
 10
7.437852071090748
 20
10.47884917522074
 10
7.252201484008839
 20
10.4777441051066
 10
7.06654851274114
 20
10.47613001132608
 10
6.880897726977081
 20
10.47479526464741
 10
6.695253696406097
 20
10.47452982529601
 10
6.509621388081919
 20
10.47612166667581
 10
6.449598318700205
 20
10.47802464430134
 10
6.389621939623565
 20
10.48192676171264
 10
6.329790995880178
 20
10.48781848216654
 10
6.270205027226817
 20
10.49569026891987
 10
6.210962977373809
 20
10.50553218786519
 10
6.150377438827566
 20
10.51772133772175
 10
6.090192443494212
 20
10.53199347123107
 10
6.030512100819956
 20
10.54831799134215
 10
5.971440520251007
 20
10.56666390363972
 10
5.913081811233571
 20
10.58700140580138
 10
5.857073114677479
 20
10.60867405200601
 10
5.801771130526275
 20
10.63221907878519
 10
5.74726546442927
 20
10.65759357079467
 10
5.693645125989329
 20
10.68475381796162
 10
5.641000316902211
 20
10.71365611021321
 10
5.587865160270742
 20
10.74521239861449
 10
5.535795337323558
 20
10.77859894697468
 10
5.484879460299225
 20
10.81375257437031
 10
5.435206538800609
 20
10.85061168933511
 10
5.386865185066274
 20
10.88911350830993
 10
5.341160740816803
 20
10.92811322475077
 10
5.296739783251496
 20
10.96864398583373
 10
5.253675030036977
 20
11.01063585544229
 10
5.212036814654083
 20
11.05402048691711
 10
5.171897457405141
 20
11.09872873887023
 10
5.13217453794103
 20
11.14610251053771
 10
5.094058559700063
 20
11.19484758639933
 10
5.057614690427195
 20
11.2448777384023
 10
5.022907700503083
 20
11.29610594376525
 10
4.99000236030838
 20
11.34844637179971
 10
4.959728763862661
 20
11.40042281413675
 10
4.931173768007965
 20
11.45341968799234
 10
4.904382274910023
 20
11.50734838112792
 10
4.879399981463166
 20
11.56212067866922
 10
4.856272187197418
 20
11.61764717364908
 10
4.834421521787059
 20
11.67555547023416
 10
4.814545359575958
 20
11.73422789836527
 10
4.796674694979401
 20
11.79356114332478
 10
4.780840522412669
 20
11.85345149303079
 10
4.767073836291046
 20
11.9137952354014
 10
4.755673454567006
 20
11.97293555999399
 10
4.746239628756256
 20
12.03247205679219
 10
4.738783882423452
 20
12.09230578208567
 10
4.733316547040354
 20
12.15233719611765
 10
4.729848748807322
 20
12.21246735517781
 10
4.728376911445669
 20
12.27442777419687
 10
4.72902938362381
 20
12.33645693723958
 10
4.731799012784373
 20
12.39844596648813
 10
4.73667983846288
 20
12.46028677885335
 10
4.743665105466257
 20
12.52187049651743
 10
4.75247745351415
 20
12.58147295578918
 10
4.763277815147451
 20
12.64079825346272
 10
4.776044335329742
 20
12.69974923396707
 10
4.79075436429601
 20
12.75822814568481
 10
4.807386841738433
 20
12.81613783304493
 10
4.826509203875275
 20
12.87511543695729
 10
4.847656931841584
 20
12.93345527117055
 10
4.870790289207509
 20
12.99105620647074
 10
4.895868744814606
 20
13.04781751100819
 10
4.922852562233022
 20
13.10363745952249
 10
4.950892573956858
 20
13.15695739055277
 10
4.980713175102285
 20
13.2093594100535
 10
5.012263900403392
 20
13.26075808470051
 10
5.045493489865672
 20
13.31106718644103
 10
5.080350683494619
 20
13.36020128195088
 10
5.117911941174876
 20
13.40951796635589
 10
5.157171136502634
 20
13.45756407841643
 10
5.198058730725657
 20
13.50425617162984
 10
5.240504390363108
 20
13.54951139553985
 10
5.284437384569855
 20
13.59324670100809
 10
5.32854045069636
 20
13.6342709885498
 10
5.374020384117177
 20
13.67383923396072
 10
5.420800493522695
 20
13.71188785895309
 10
5.468803292874705
 20
13.74835338458022
 10
5.517952488227894
 20
13.78317223255437
 10
5.569715148572337
 20
13.81726728145878
 10
5.622662749254913
 20
13.84959654276173
 10
5.676699525479685
 20
13.88010746503473
 10
5.731730109815012
 20
13.90874719882608
 10
5.787659134829254
 20
13.93546319270731
 10
5.842840320233714
 20
13.95955986047388
 10
5.898840076093089
 20
13.98182229463856
 10
5.955564227068634
 20
14.00221811001103
 10
6.012918001775156
 20
14.02071482205988
 10
6.070806827509613
 20
14.03728004559478
 10
6.13092446959437
 20
14.05229793255131
 10
6.191575175885569
 20
14.06525558496118
 10
6.252651459340465
 20
14.07613462472559
 10
6.314045435552012
 20
14.08491697176895
 10
6.375650014841766
 20
14.09158424799244
 10
6.41751890019994
 20
14.09489945833485
 10
6.459453350667368
 20
14.09724251692097
 10
6.501521712903392
 20
14.09861332440973
 10
6.543610340718639
 20
14.09900363549194
  0
LWPOLYLINE
  5
155
330
1F
100
AcDbEntity
  8
0
100
AcDbPolyline
 90
       99
 70
   128
 43
0.0
 10
9.191874311729481
 20
9.98687124515176
 10
9.20276624875934
 20
9.986931247160836
 10
9.213613429530671
 20
9.98711045845946
 10
9.224371279392849
 20
9.987408481683337
 10
9.234995590015463
 20
9.987823727375271
 10
9.245442707205029
 20
9.98835500344237
 10
9.255669703199675
 20
9.988999925698839
 10
9.265634544307204
 20
9.989755712594591
 10
9.275296295796048
 20
9.990619582579537
 10
9.284615246071629
 20
9.991587562010687
 10
9.293553099149676
 20
9.992655677245062
 10
9.302073142294299
 20
9.993819954639675
 10
9.310140345359057
 20
9.995075228458645
 10
9.31772157188675
 20
9.996416332966091
 10
9.324785666032841
 20
9.997838102426134
 10
9.331303595368277
 20
9.999334576374295
 10
9.337248587473444
 20
10.00089939698179
 10
9.342596192026347
 20
10.00252620641986
 10
9.3473244546495
 20
10.00420864685972
 10
9.351413941745173
 20
10.005939565744
 10
9.354847852254124
 20
10.00771141315103
 10
9.357612054908486
 20
10.00951743388772
 10
9.359695212408118
 20
10.01135047539671
 10
9.361088756585331
 20
10.01320219302773
 10
9.361786962910704
 20
10.01506543422341
 10
9.361786962910704
 20
10.01693264906208
 10
9.361088756585331
 20
10.01879628762206
 10
9.359695212408118
 20
10.02064800525307
 10
9.357612054908486
 20
10.02248064939777
 10
9.354847852254124
 20
10.02428706749876
 10
9.351413941745173
 20
10.02605891490579
 10
9.3473244546495
 20
10.02778983379006
 10
9.342596192026347
 20
10.02947187686562
 10
9.337248587473444
 20
10.03109908366799
 10
9.331303595368277
 20
10.0326639042755
 10
9.324785666032841
 20
10.03416037822365
 10
9.31772157188675
 20
10.0355821476837
 10
9.310140345359057
 20
10.03692325219115
 10
9.302073142294299
 20
10.03817852601011
 10
9.293553099149676
 20
10.03934280340473
 10
9.284615246071629
 20
10.0404109186391
 10
9.275296295796048
 20
10.04137889807026
 10
9.265634544307204
 20
10.0422427680552
 10
9.255669703199675
 20
10.04299855495095
 10
9.245442707205029
 20
10.04364347720742
 10
9.234995590015463
 20
10.04417475327452
 10
9.224371279392849
 20
10.04458999896645
 10
9.213613429530671
 20
10.04488802219033
 10
9.20276624875934
 20
10.04506723348896
 10
9.191874311729481
 20
10.04512723549803
 10
9.180982374699624
 20
10.04506723348896
 10
9.170135193928292
 20
10.04488802219033
 10
9.159377344066115
 20
10.04458999896645
 10
9.148753033443501
 20
10.04417475327452
 10
9.138305916253935
 20
10.04364347720742
 10
9.128078920259289
 20
10.04299855495095
 10
9.11811407915176
 20
10.0422427680552
 10
9.108452327662917
 20
10.04137889807026
 10
9.099133377387335
 20
10.0404109186391
 10
9.090195524309288
 20
10.03934280340473
 10
9.081675481164666
 20
10.03817852601011
 10
9.073608278099905
 20
10.03692325219115
 10
9.066027051572215
 20
10.0355821476837
 10
9.058962957426123
 20
10.03416037822365
 10
9.052445028090687
 20
10.0326639042755
 10
9.04650003598552
 20
10.03109908366799
 10
9.041152431432616
 20
10.02947187686562
 10
9.036424168809464
 20
10.02778983379006
 10
9.032334681713791
 20
10.02605891490579
 10
9.02890077120484
 20
10.02428706749876
 10
9.026136568550478
 20
10.02248064939777
 10
9.024053411050847
 20
10.02064800525307
 10
9.022659866873633
 20
10.01879628762206
 10
9.02196166054826
 20
10.01693264906208
 10
9.02196166054826
 20
10.01506543422341
 10
9.022659866873633
 20
10.01320219302773
 10
9.024053411050847
 20
10.01135047539671
 10
9.026136568550478
 20
10.00951743388772
 10
9.02890077120484
 20
10.00771141315103
 10
9.032334681713791
 20
10.005939565744
 10
9.036424168809464
 20
10.00420864685972
 10
9.041152431432616
 20
10.00252620641986
 10
9.04650003598552
 20
10.00089939698179
 10
9.052445028090687
 20
9.999334576374295
 10
9.058962957426123
 20
9.997838102426134
 10
9.066027051572215
 20
9.996416332966091
 10
9.073608278099905
 20
9.995075228458645
 10
9.081675481164666
 20
9.993819954639675
 10
9.090195524309288
 20
9.992655677245062
 10
9.099133377387335
 20
9.991587562010687
 10
9.108452327662917
 20
9.990619582579537
 10
9.11811407915176
 20
9.989755712594591
 10
9.128078920259289
 20
9.988999925698839
 10
9.138305916253935
 20
9.98835500344237
 10
9.148753033443501
 20
9.987823727375271
 10
9.159377344066115
 20
9.987408481683337
 10
9.170135193928292
 20
9.98711045845946
 10
9.180982374699624
 20
9.986931247160836
 10
9.191874311729481
 20
9.98687124515176
  0
LINE
  5
156
330
1F
100
AcDbEntity
  8
0
100
AcDbLine
 10
2.858541057869008
 20
12.28556450470884
 30
0.0
 11
5.858540978396149
 21
9.285564584181708
 31
0.0
  0
LINE
  5
157
330
1F
100
AcDbEntity
  8
0
100
AcDbLine
 10
12.52520764506281
 20
9.285564584181708
 30
0.0
 11
15.52520756558995
 21
12.28556450470884
 31
0.0
  0
LINE
  5
158
330
1F
100
AcDbEntity
  8
0
100
AcDbLine
 10
5.858540978396149
 20
9.285564584181708
 30
0.0
 11
12.52520764506281
 21
9.285564584181708
 31
0.0
  0
LWPOLYLINE
  5
159
330
1F
100
AcDbEntity
  8
0
100
AcDbPolyline
 90
       23
 70
   128
 43
0.0
 10
9.033451821768494
 20
10.00544921819965
 10
9.039051926497828
 20
10.00774042074482
 10
9.048374266787579
 20
10.01059429113666
 10
9.059532119695555
 20
10.01326020821531
 10
9.072315676872145
 20
10.01568850144346
 10
9.086625274384232
 20
10.01785254741311
 10
9.102304592842074
 20
10.01973565682371
 10
9.119058750683278
 20
10.02130206688841
 10
9.13674232499223
 20
10.02253270412087
 10
9.155175371829878
 20
10.02342001859943
 10
9.174011228098681
 20
10.02394811575214
 10
9.193075088916961
 20
10.02410626674294
 10
9.212183675531756
 20
10.02389844521483
 10
9.230977631597928
 20
10.02332822744648
 10
9.249272473269911
 20
10.02239640816649
 10
9.266902254386954
 20
10.02111649776101
 10
9.283535433425715
 20
10.01951273545225
 10
9.298998647793343
 20
10.01759585007628
 10
9.313162002825947
 20
10.0153880940338
 10
9.325759134058367
 20
10.01293119057616
 10
9.336647362872174
 20
10.01024540528258
 10
9.345747477177988
 20
10.00735895101825
 10
9.350102416042696
 20
10.00550922020872
  0
CIRCLE
  5
15A
330
1F
100
AcDbEntity
  8
0
100
AcDbCircle
 10
9.191874311729481
 20
11.285564425236
 30
0.0
 40
0.3665179007108037
  0
CIRCLE
  5
15B
330
1F
100
AcDbEntity
  8
0
100
AcDbCircle
 10
9.191874311729481
 20
11.285564425236
 30
0.0
 40
0.1699999999999999
  0
ENDSEC
  0
SECTION
  2
OBJECTS
  0
DICTIONARY
  5
C
330
0
100
AcDbDictionary
  3
ACAD_GROUP
350
D
  3
ACAD_LAYOUT
350
1A
  3
ACAD_MLINESTYLE
350
17
  3
ACAD_PLOTSETTINGS
350
19
  3
ACAD_PLOTSTYLENAME
350
E
  3
ACDBHEADERROUNDTRIPXREC
350
291
  3
ACDBVARIABLEDICTIONARY
350
28E
  0
DICTIONARY
  5
2B4
330
1F
100
AcDbDictionary
280
     1
  3
ACAD_LAYOUTSELFREF
360
2B5
  0
DICTIONARY
  5
2B2
330
1B
100
AcDbDictionary
280
     1
  3
ACAD_LAYOUTSELFREF
360
2B3
  0
DICTIONARY
  5
D
102
{ACAD_REACTORS
330
C
102
}
330
C
100
AcDbDictionary
  0
DICTIONARY
  5
1A
102
{ACAD_REACTORS
330
C
102
}
330
C
100
AcDbDictionary
  0
DICTIONARY
  5
17
102
{ACAD_REACTORS
330
C
102
}
330
C
100
AcDbDictionary
  3
STANDARD
350
18
  0
DICTIONARY
  5
19
102
{ACAD_REACTORS
330
C
102
}
330
C
100
AcDbDictionary
  0
ACDBDICTIONARYWDFLT
  5
E
102
{ACAD_REACTORS
330
C
102
}
330
C
100
AcDbDictionary
281
     1
  3
Normal
350
F
100
AcDbDictionaryWithDefault
340
F
  0
DICTIONARY
  5
291
102
{ACAD_REACTORS
330
C
102
}
330
C
100
AcDbDictionary
  3
CEPSNTYPE
350
29B
  3
DIMSTYLEDATA
350
29F
  3
FINGERPRINTGUID
350
29C
  3
HYPERLINKBASE
350
294
  3
INSUNITS
350
29A
  3
LAYOUTDICT
350
296
  3
LWETCUNION
350
299
  3
PLOTSETDICT
350
297
  3
PLOTSTYLNAMDICT
350
298
  3
PSVPSCALE
350
29E
  3
PUCSBASE
350
2A2
  3
PUCSORGBACK
350
2A8
  3
PUCSORGBOTTOM
350
2A4
  3
PUCSORGFRONT
350
2A7
  3
PUCSORGLEFT
350
2A5
  3
PUCSORGRIGHT
350
2A6
  3
PUCSORGTOP
350
2A3
  3
PUCSORTHOREF
350
2A0
  3
PUCSORTHOVIEW
350
2A1
  3
STYLESHEET
350
295
  3
TSTACKALIGN
350
292
  3
TSTACKSIZE
350
293
  3
UCSBASE
350
2AB
  3
UCSORGBACK
350
2B1
  3
UCSORGBOTTOM
350
2AD
  3
UCSORGFRONT
350
2B0
  3
UCSORGLEFT
350
2AE
  3
UCSORGRIGHT
350
2AF
  3
UCSORGTOP
350
2AC
  3
UCSORTHOREF
350
2A9
  3
UCSORTHOVIEW
350
2AA
  3
VERSIONGUID
350
29D
  0
DICTIONARY
  5
28E
102
{ACAD_REACTORS
330
C
102
}
330
C
100
AcDbDictionary
  3
DIMASSOC
350
28F
  0
XRECORD
  5
2B5
102
{ACAD_REACTORS
330
2B4
102
}
330
2B4
100
AcDbXrecord
340
1F
  0
XRECORD
  5
2B3
102
{ACAD_REACTORS
330
2B2
102
}
330
2B2
100
AcDbXrecord
340
1B
  0
MLINESTYLE
  5
18
102
{ACAD_REACTORS
330
17
102
}
330
17
100
AcDbMlineStyle
  2
STANDARD
 70
     0
  3

 62
   256
 51
90.0
 52
90.0
 71
     2
 49
0.5
 62
   256
  6
BYLAYER
 49
-0.5
 62
   256
  6
BYLAYER
  0
ACDBPLACEHOLDER
  5
F
102
{ACAD_REACTORS
330
E
102
}
330
E
100
AcDbPlaceHolder
280
     0
  0
XRECORD
  5
29B
102
{ACAD_REACTORS
330
291
102
}
330
291
100
AcDbXrecord
 90
        0
  0
XRECORD
  5
29F
102
{ACAD_REACTORS
330
291
102
}
330
291
100
AcDbXrecord
1000
DSTYLE
1002
{
1070
   278
 70
    44
1002
}
  0
XRECORD
  5
29C
102
{ACAD_REACTORS
330
291
102
}
330
291
100
AcDbXrecord
  1
{CC8D15F8-B874-4742-A73C-A9E01D3C50E3}
  0
XRECORD
  5
294
102
{ACAD_REACTORS
330
291
102
}
330
291
100
AcDbXrecord
  1

  0
XRECORD
  5
29A
102
{ACAD_REACTORS
330
291
102
}
330
291
100
AcDbXrecord
 90
        4
  0
XRECORD
  5
296
102
{ACAD_REACTORS
330
291
102
}
330
291
100
AcDbXrecord
340
1A
  0
XRECORD
  5
299
102
{ACAD_REACTORS
330
291
102
}
330
291
100
AcDbXrecord
 90
    10781
  0
XRECORD
  5
297
102
{ACAD_REACTORS
330
291
102
}
330
291
100
AcDbXrecord
340
19
  0
XRECORD
  5
298
102
{ACAD_REACTORS
330
291
102
}
330
291
100
AcDbXrecord
340
E
  0
XRECORD
  5
29E
102
{ACAD_REACTORS
330
291
102
}
330
291
100
AcDbXrecord
 40
0.0
  0
XRECORD
  5
2A2
102
{ACAD_REACTORS
330
291
102
}
330
291
100
AcDbXrecord
340
0
  0
XRECORD
  5
2A8
102
{ACAD_REACTORS
330
291
102
}
330
291
100
AcDbXrecord
 10
0.0
 20
0.0
 30
0.0
  0
XRECORD
  5
2A4
102
{ACAD_REACTORS
330
291
102
}
330
291
100
AcDbXrecord
 10
0.0
 20
0.0
 30
0.0
  0
XRECORD
  5
2A7
102
{ACAD_REACTORS
330
291
102
}
330
291
100
AcDbXrecord
 10
0.0
 20
0.0
 30
0.0
  0
XRECORD
  5
2A5
102
{ACAD_REACTORS
330
291
102
}
330
291
100
AcDbXrecord
 10
0.0
 20
0.0
 30
0.0
  0
XRECORD
  5
2A6
102
{ACAD_REACTORS
330
291
102
}
330
291
100
AcDbXrecord
 10
0.0
 20
0.0
 30
0.0
  0
XRECORD
  5
2A3
102
{ACAD_REACTORS
330
291
102
}
330
291
100
AcDbXrecord
 10
0.0
 20
0.0
 30
0.0
  0
XRECORD
  5
2A0
102
{ACAD_REACTORS
330
291
102
}
330
291
100
AcDbXrecord
340
0
  0
XRECORD
  5
2A1
102
{ACAD_REACTORS
330
291
102
}
330
291
100
AcDbXrecord
 70
     0
  0
XRECORD
  5
295
102
{ACAD_REACTORS
330
291
102
}
330
291
100
AcDbXrecord
  1

  0
XRECORD
  5
292
102
{ACAD_REACTORS
330
291
102
}
330
291
100
AcDbXrecord
 90
        1
  0
XRECORD
  5
293
102
{ACAD_REACTORS
330
291
102
}
330
291
100
AcDbXrecord
 90
       70
  0
XRECORD
  5
2AB
102
{ACAD_REACTORS
330
291
102
}
330
291
100
AcDbXrecord
340
0
  0
XRECORD
  5
2B1
102
{ACAD_REACTORS
330
291
102
}
330
291
100
AcDbXrecord
 10
0.0
 20
0.0
 30
0.0
  0
XRECORD
  5
2AD
102
{ACAD_REACTORS
330
291
102
}
330
291
100
AcDbXrecord
 10
0.0
 20
0.0
 30
0.0
  0
XRECORD
  5
2B0
102
{ACAD_REACTORS
330
291
102
}
330
291
100
AcDbXrecord
 10
0.0
 20
0.0
 30
0.0
  0
XRECORD
  5
2AE
102
{ACAD_REACTORS
330
291
102
}
330
291
100
AcDbXrecord
 10
0.0
 20
0.0
 30
0.0
  0
XRECORD
  5
2AF
102
{ACAD_REACTORS
330
291
102
}
330
291
100
AcDbXrecord
 10
0.0
 20
0.0
 30
0.0
  0
XRECORD
  5
2AC
102
{ACAD_REACTORS
330
291
102
}
330
291
100
AcDbXrecord
 10
0.0
 20
0.0
 30
0.0
  0
XRECORD
  5
2A9
102
{ACAD_REACTORS
330
291
102
}
330
291
100
AcDbXrecord
340
0
  0
XRECORD
  5
2AA
102
{ACAD_REACTORS
330
291
102
}
330
291
100
AcDbXrecord
 70
     0
  0
XRECORD
  5
29D
102
{ACAD_REACTORS
330
291
102
}
330
291
100
AcDbXrecord
  1
{F423DC66-8539-4998-94F8-B5D26639B3C0}
  0
DICTIONARYVAR
  5
28F
102
{ACAD_REACTORS
330
28E
102
}
330
28E
100
DictionaryVariables
280
     0
  1
1
  0
ENDSEC
  0
EOF
