  0
SECTION
  2
HEADER
  9
$ACADVER
  1
AC1014
  9
$ACADMAINTVER
 70
     9
  9
$DWGCODEPAGE
  3
ANSI_1250
  9
$INSBASE
 10
0.0
 20
0.0
 30
0.0
  9
$EXTMIN
 10
3.057894408177629
 20
5.117621709520758
 30
0.0
  9
$EXTMAX
 10
12.05789440817763
 20
17.50047181719074
 30
0.0
  9
$LIMMIN
 10
0.0
 20
0.0
  9
$LIMMAX
 10
0.0
 20
0.0
  9
$ORTHOMODE
 70
     1
  9
$REGENMODE
 70
     1
  9
$FILLMODE
 70
     1
  9
$QTEXTMODE
 70
     0
  9
$MIRRTEXT
 70
     1
  9
$DRAGMODE
 70
     2
  9
$LTSCALE
 40
1.0
  9
$OSMODE
 70
  3007
  9
$ATTMODE
 70
     1
  9
$TEXTSIZE
 40
2.5
  9
$TRACEWID
 40
1.0
  9
$TEXTSTYLE
  7
STANDARD
  9
$CLAYER
  8
0
  9
$CELTYPE
  6
BYLAYER
  9
$CECOLOR
 62
   256
  9
$CELTSCALE
 40
1.0
  9
$DELOBJ
 70
     1
  9
$DISPSILH
 70
     0
  9
$DIMSCALE
 40
1.0
  9
$DIMASZ
 40
0.3
  9
$DIMEXO
 40
0.1
  9
$DIMDLI
 40
3.75
  9
$DIMRND
 40
0.0
  9
$DIMDLE
 40
0.0
  9
$DIMEXE
 40
0.1
  9
$DIMTP
 40
0.0
  9
$DIMTM
 40
0.0
  9
$DIMTXT
 40
0.2822222222222222
  9
$DIMCEN
 40
2.5
  9
$DIMTSZ
 40
0.0
  9
$DIMTOL
 70
     0
  9
$DIMLIM
 70
     0
  9
$DIMTIH
 70
     1
  9
$DIMTOH
 70
     1
  9
$DIMSE1
 70
     0
  9
$DIMSE2
 70
     0
  9
$DIMTAD
 70
     1
  9
$DIMZIN
 70
     0
  9
$DIMBLK
  1

  9
$DIMASO
 70
     1
  9
$DIMSHO
 70
     1
  9
$DIMPOST
  1

  9
$DIMAPOST
  1

  9
$DIMALT
 70
     0
  9
$DIMALTD
 70
     3
  9
$DIMALTF
 40
0.3937007874015748
  9
$DIMLFAC
 40
20.0
  9
$DIMTOFL
 70
     1
  9
$DIMTVP
 40
0.0
  9
$DIMTIX
 70
     0
  9
$DIMSOXD
 70
     0
  9
$DIMSAH
 70
     0
  9
$DIMBLK1
  1

  9
$DIMBLK2
  1

  9
$DIMSTYLE
  2
ISO-25
  9
$DIMCLRD
 70
     0
  9
$DIMCLRE
 70
     0
  9
$DIMCLRT
 70
     0
  9
$DIMTFAC
 40
1.0
  9
$DIMGAP
 40
0.1524
  9
$DIMJUST
 70
     0
  9
$DIMSD1
 70
     0
  9
$DIMSD2
 70
     0
  9
$DIMTOLJ
 70
     0
  9
$DIMTZIN
 70
     0
  9
$DIMALTZ
 70
     0
  9
$DIMALTTZ
 70
     0
  9
$DIMFIT
 70
     3
  9
$DIMUPT
 70
     0
  9
$DIMUNIT
 70
     2
  9
$DIMDEC
 70
     2
  9
$DIMTDEC
 70
     2
  9
$DIMALTU
 70
     2
  9
$DIMALTTD
 70
     3
  9
$DIMTXSTY
  7
STANDARD
  9
$DIMAUNIT
 70
     0
  9
$LUNITS
 70
     2
  9
$LUPREC
 70
     1
  9
$SKETCHINC
 40
1.0
  9
$FILLETRAD
 40
10.0
  9
$AUNITS
 70
     0
  9
$AUPREC
 70
     0
  9
$MENU
  1
.
  9
$ELEVATION
 40
0.0
  9
$PELEVATION
 40
0.0
  9
$THICKNESS
 40
0.0
  9
$LIMCHECK
 70
     0
  9
$BLIPMODE
 70
     0
  9
$CHAMFERA
 40
10.0
  9
$CHAMFERB
 40
10.0
  9
$CHAMFERC
 40
20.0
  9
$CHAMFERD
 40
0.0
  9
$SKPOLY
 70
     0
  9
$TDCREATE
 40
2453964.616773426
  9
$TDUPDATE
 40
2453966.374535590
  9
$TDINDWG
 40
0.0154649653
  9
$TDUSRTIMER
 40
0.0154649653
  9
$USRTIMER
 70
     1
  9
$ANGBASE
 50
0.0
  9
$ANGDIR
 70
     0
  9
$PDMODE
 70
     0
  9
$PDSIZE
 40
-1.0
  9
$PLINEWID
 40
0.0
  9
$COORDS
 70
     2
  9
$SPLFRAME
 70
     0
  9
$SPLINETYPE
 70
     6
  9
$SPLINESEGS
 70
     8
  9
$ATTDIA
 70
     0
  9
$ATTREQ
 70
     1
  9
$HANDLING
 70
 22529
  9
$HANDSEED
  5
196
  9
$SURFTAB1
 70
     6
  9
$SURFTAB2
 70
     6
  9
$SURFTYPE
 70
     6
  9
$SURFU
 70
     6
  9
$SURFV
 70
     6
  9
$UCSNAME
  2

  9
$UCSORG
 10
0.0
 20
0.0
 30
0.0
  9
$UCSXDIR
 10
1.0
 20
0.0
 30
0.0
  9
$UCSYDIR
 10
0.0
 20
1.0
 30
0.0
  9
$PUCSNAME
  2

  9
$PUCSORG
 10
0.0
 20
0.0
 30
0.0
  9
$PUCSXDIR
 10
1.0
 20
0.0
 30
0.0
  9
$PUCSYDIR
 10
0.0
 20
1.0
 30
0.0
  9
$USERI1
 70
     0
  9
$USERI2
 70
     0
  9
$USERI3
 70
     0
  9
$USERI4
 70
     0
  9
$USERI5
 70
     0
  9
$USERR1
 40
0.0
  9
$USERR2
 40
0.0
  9
$USERR3
 40
0.0
  9
$USERR4
 40
0.0
  9
$USERR5
 40
0.0
  9
$WORLDVIEW
 70
     1
  9
$SHADEDGE
 70
     3
  9
$SHADEDIF
 70
    70
  9
$TILEMODE
 70
     1
  9
$MAXACTVP
 70
    48
  9
$PINSBASE
 10
0.0
 20
0.0
 30
0.0
  9
$PLIMCHECK
 70
     0
  9
$PEXTMIN
 10
1.000000000000000E+20
 20
1.000000000000000E+20
 30
1.000000000000000E+20
  9
$PEXTMAX
 10
-1.000000000000000E+20
 20
-1.000000000000000E+20
 30
-1.000000000000000E+20
  9
$PLIMMIN
 10
0.0
 20
0.0
  9
$PLIMMAX
 10
420.0
 20
297.0
  9
$UNITMODE
 70
     0
  9
$VISRETAIN
 70
     1
  9
$PLINEGEN
 70
     0
  9
$PSLTSCALE
 70
     1
  9
$TREEDEPTH
 70
  3020
  9
$PICKSTYLE
 70
     1
  9
$CMLSTYLE
  2
STANDARD
  9
$CMLJUST
 70
     0
  9
$CMLSCALE
 40
20.0
  9
$PROXYGRAPHICS
 70
     1
  9
$MEASUREMENT
 70
     1
  0
ENDSEC
  0
SECTION
  2
CLASSES
  0
CLASS
  1
ACDBDICTIONARYWDFLT
  2
AcDbDictionaryWithDefault
  3
AutoCAD 2000
 90
        0
280
     0
281
     0
  0
CLASS
  1
ACDBPLACEHOLDER
  2
AcDbPlaceHolder
  3
AutoCAD 2000
 90
        0
280
     0
281
     0
  0
CLASS
  1
LAYOUT
  2
AcDbLayout
  3
AutoCAD 2000
 90
        0
280
     0
281
     0
  0
CLASS
  1
DICTIONARYVAR
  2
AcDbDictionaryVar
  3
AutoCAD 2000
 90
        0
280
     0
281
     0
  0
CLASS
  1
LONG_TRANSACTION
  2
AcDbLongTransaction
  3
AutoCAD 2000
 90
        0
280
     0
281
     0
  0
CLASS
  1
LWPOLYLINE
  2
AcDbPolyline
  3
AutoCAD 2000
 90
        0
280
     0
281
     1
  0
CLASS
  1
HATCH
  2
AcDbHatch
  3
AutoCAD 2000
 90
        0
280
     0
281
     1
  0
CLASS
  1
XRECORD
  2
AcDbXrecord
  3
AutoCAD 2000
 90
        0
280
     0
281
     0
  0
CLASS
  1
LONG_TRANSACTION
  2
AcDbLongTransaction
  3
AutoCAD 2000
 90
        0
280
     0
281
     0
  0
CLASS
  1
LWPOLYLINE
  2
AcDbPolyline
  3
AutoCAD 2000
 90
        0
280
     0
281
     1
  0
CLASS
  1
HATCH
  2
AcDbHatch
  3
AutoCAD 2000
 90
        0
280
     0
281
     1
  0
CLASS
  1
XRECORD
  2
AcDbXrecord
  3
AutoCAD 2000
 90
        0
280
     0
281
     0
  0
ENDSEC
  0
SECTION
  2
TABLES
  0
TABLE
  2
VPORT
  5
8
330
0
100
AcDbSymbolTable
 70
     2
  0
VPORT
  5
171
330
8
100
AcDbSymbolTableRecord
100
AcDbViewportTableRecord
  2
*ACTIVE
 70
     0
 10
0.0
 20
0.0
 11
1.0
 21
1.0
 12
7.5571037899087
 22
11.30909733987541
 13
0.0
 23
0.0
 14
10.0
 24
10.0
 15
10.0
 25
10.0
 16
0.0
 26
0.0
 36
1.0
 17
0.0
 27
0.0
 37
0.0
 40
12.50278416439955
 41
1.674961119751166
 42
50.0
 43
0.0
 44
0.0
 50
0.0
 51
0.0
 71
     0
 72
  2000
 73
     1
 74
     3
 75
     0
 76
     0
 77
     0
 78
     0
  0
ENDTAB
  0
TABLE
  2
LTYPE
  5
5
330
0
100
AcDbSymbolTable
 70
     1
  0
LTYPE
  5
14
330
5
100
AcDbSymbolTableRecord
100
AcDbLinetypeTableRecord
  2
BYBLOCK
 70
     0
  3

 72
    65
 73
     0
 40
0.0
  0
LTYPE
  5
15
330
5
100
AcDbSymbolTableRecord
100
AcDbLinetypeTableRecord
  2
BYLAYER
 70
     0
  3

 72
    65
 73
     0
 40
0.0
  0
LTYPE
  5
16
330
5
100
AcDbSymbolTableRecord
100
AcDbLinetypeTableRecord
  2
CONTINUOUS
 70
     0
  3
Solid line
 72
    65
 73
     0
 40
0.0
  0
ENDTAB
  0
TABLE
  2
LAYER
  5
2
330
0
100
AcDbSymbolTable
 70
     2
  0
LAYER
  5
10
330
2
100
AcDbSymbolTableRecord
100
AcDbLayerTableRecord
  2
0
 70
     0
 62
     7
  6
CONTINUOUS
  0
LAYER
  5
2F
330
2
100
AcDbSymbolTableRecord
100
AcDbLayerTableRecord
  2
DIMENSIONS
 70
     0
 62
    14
  6
CONTINUOUS
  0
ENDTAB
  0
TABLE
  2
STYLE
  5
3
330
0
100
AcDbSymbolTable
 70
     1
  0
STYLE
  5
11
330
3
100
AcDbSymbolTableRecord
100
AcDbTextStyleTableRecord
  2
STANDARD
 70
     0
 40
0.0
 41
1.0
 50
0.0
 71
     0
 42
2.5
  3
ARIAL.TTF
  4

1001
ACAD
1000
Arial
1071
       34
  0
ENDTAB
  0
TABLE
  2
VIEW
  5
6
330
0
100
AcDbSymbolTable
 70
     0
  0
ENDTAB
  0
TABLE
  2
UCS
  5
7
330
0
100
AcDbSymbolTable
 70
     0
  0
ENDTAB
  0
TABLE
  2
APPID
  5
9
330
0
100
AcDbSymbolTable
 70
     1
  0
APPID
  5
12
330
9
100
AcDbSymbolTableRecord
100
AcDbRegAppTableRecord
  2
ACAD
 70
     0
  0
ENDTAB
  0
TABLE
  2
DIMSTYLE
  5
A
330
0
100
AcDbSymbolTable
 70
     1
  0
DIMSTYLE
105
27
330
A
100
AcDbSymbolTableRecord
100
AcDbDimStyleTableRecord
  2
ISO-25
 70
     0
  3

  4

  5

  6

  7

 40
1.0
 41
2.5
 42
0.625
 43
3.75
 44
1.25
 45
0.0
 46
0.0
 47
0.0
 48
0.0
140
2.5
141
2.5
142
0.0
143
0.03937007874016
144
1.0
145
0.0
146
1.0
147
0.625
 71
     0
 72
     0
 73
     0
 74
     0
 75
     0
 76
     0
 77
     1
 78
     8
170
     0
171
     3
172
     1
173
     0
174
     0
175
     0
176
     0
177
     0
178
     0
270
     2
271
     2
272
     2
273
     2
274
     3
340
11
275
     0
280
     0
281
     0
282
     0
283
     0
284
     8
285
     0
286
     0
287
     3
288
     0
  0
ENDTAB
  0
TABLE
  2
BLOCK_RECORD
  5
1
330
0
100
AcDbSymbolTable
 70
     1
  0
BLOCK_RECORD
  5
1F
102
{ACAD_XDICTIONARY
360
132
102
}
330
1
100
AcDbSymbolTableRecord
100
AcDbBlockTableRecord
  2
*MODEL_SPACE
  0
BLOCK_RECORD
  5
1B
102
{ACAD_XDICTIONARY
360
134
102
}
330
1
100
AcDbSymbolTableRecord
100
AcDbBlockTableRecord
  2
*PAPER_SPACE
  0
ENDTAB
  0
ENDSEC
  0
SECTION
  2
BLOCKS
  0
BLOCK
  5
20
330
1F
100
AcDbEntity
  8
0
100
AcDbBlockBegin
  2
*MODEL_SPACE
 70
     0
 10
0.0
 20
0.0
 30
0.0
  3
*MODEL_SPACE
  1

  0
ENDBLK
  5
21
330
1F
100
AcDbEntity
  8
0
100
AcDbBlockEnd
  0
BLOCK
  5
1C
330
1B
100
AcDbEntity
 67
     1
  8
0
100
AcDbBlockBegin
  2
*PAPER_SPACE
 70
     0
 10
0.0
 20
0.0
 30
0.0
  3
*PAPER_SPACE
  1

  0
ENDBLK
  5
1D
330
1B
100
AcDbEntity
 67
     1
  8
0
100
AcDbBlockEnd
  0
ENDSEC
  0
SECTION
  2
ENTITIES
  0
LINE
  5
9C
330
1F
100
AcDbEntity
  8
0
  6
CONTINUOUS
 62
     7
100
AcDbLine
 10
9.441603851793153
 20
5.226710767097113
 30
0.0
 11
8.226881180116734
 21
5.201265954397127
 31
0.0
  0
LINE
  5
9D
330
1F
100
AcDbEntity
  8
0
  6
CONTINUOUS
 62
     7
100
AcDbLine
 10
7.608907636238525
 20
5.201265954397127
 30
0.0
 11
4.87517569145281
 21
5.258529475469838
 31
0.0
  0
ARC
  5
9E
330
1F
100
AcDbEntity
  8
0
  6
CONTINUOUS
 62
     7
100
AcDbCircle
 10
7.60712753054844
 20
5.116284596301765
 30
0.0
 40
0.0850000000000005
100
AcDbArc
 50
53.70542199810148
 51
88.80000000000068
  0
ARC
  5
9F
330
1F
100
AcDbEntity
  8
0
  6
CONTINUOUS
 62
     7
100
AcDbCircle
 10
8.228661285806818
 20
5.116284596301765
 30
0.0
 40
0.0850000000000003
100
AcDbArc
 50
91.19999999999873
 51
126.2945780019023
  0
ARC
  5
A0
330
1F
100
AcDbEntity
  8
0
  6
CONTINUOUS
 62
     7
100
AcDbCircle
 10
7.917894408177629
 20
5.539426354780653
 30
0.0
 40
0.4400000000000003
100
AcDbArc
 50
233.7054219981005
 51
251.4469954649786
  0
ARC
  5
A1
330
1F
100
AcDbEntity
  8
0
  6
CONTINUOUS
 62
     7
100
AcDbCircle
 10
7.917894408177629
 20
5.539426354780653
 30
0.0
 40
0.4400000000000006
100
AcDbArc
 50
288.5530045350197
 51
306.2945780018971
  0
LINE
  5
A2
330
1F
100
AcDbEntity
  8
0
  6
CONTINUOUS
 62
     7
100
AcDbLine
 10
3.057894408177629
 20
7.459796894656949
 30
0.0
 11
12.05789440817763
 21
7.459796894656949
 31
0.0
  0
LINE
  5
A3
330
1F
100
AcDbEntity
  8
0
  6
CONTINUOUS
 62
     7
100
AcDbLine
 10
12.05789440817763
 20
7.70979689465695
 30
0.0
 11
12.05789440817763
 21
7.459796894656949
 31
0.0
  0
LINE
  5
A4
330
1F
100
AcDbEntity
  8
0
  6
CONTINUOUS
 62
     7
100
AcDbLine
 10
3.057894408177629
 20
7.70979689465695
 30
0.0
 11
3.057894408177629
 21
7.459796894656949
 31
0.0
  0
LINE
  5
A5
330
1F
100
AcDbEntity
  8
0
  6
CONTINUOUS
 62
     7
100
AcDbLine
 10
3.057894408177629
 20
7.70979689465695
 30
0.0
 11
12.05789440817763
 21
7.70979689465695
 31
0.0
  0
LINE
  5
A6
330
1F
100
AcDbEntity
  8
0
  6
CONTINUOUS
 62
     7
100
AcDbLine
 10
11.25164238309289
 20
7.459796894656949
 30
0.0
 11
10.68415769533548
 21
5.274083928570699
 31
0.0
  0
LINE
  5
A7
330
1F
100
AcDbEntity
  8
0
  6
CONTINUOUS
 62
     7
100
AcDbLine
 10
3.471533095729229
 20
7.459796894656949
 30
0.0
 11
4.40808081114106
 21
5.286108242302188
 31
0.0
  0
LWPOLYLINE
  5
A8
330
1F
100
AcDbEntity
  8
0
  6
CONTINUOUS
 62
     7
100
AcDbPolyline
 90
       14
 70
   128
 43
0.0
 10
10.68415769533548
 20
5.274083928570699
 10
10.21099325669878
 20
5.267127294507988
 10
9.737816914471942
 20
5.260938918859404
 10
9.264629120452712
 20
5.255768228364233
 10
8.791430326438856
 20
5.251864649761769
 10
8.318160915753463
 20
5.249551977479604
 10
7.844882925963334
 20
5.248972776420771
 10
7.371605792660134
 20
5.250103460586381
 10
6.898338951435531
 20
5.252920443977547
 10
6.483279468164749
 20
5.256652499716481
 10
6.068228979635378
 20
5.261321928924971
 10
5.653188115145384
 20
5.266748120554325
 10
5.030627017792962
 20
5.275953008527031
 10
4.408080811141061
 20
5.286108242302188
  0
ARC
  5
A9
330
1F
100
AcDbEntity
  8
0
  6
CONTINUOUS
 62
     7
100
AcDbCircle
 10
11.05341410667578
 20
10.4730243323088
 30
0.0
 40
5.212037185106839
100
AcDbArc
 50
265.9373711398974
 51
269.8030876115547
  0
LINE
  5
AA
330
1F
100
AcDbEntity
  8
0
  6
CONTINUOUS
 62
     7
100
AcDbLine
 10
11.67744068614997
 20
7.45979689465695
 30
0.0
 11
11.03550157142209
 21
5.26118237543385
 31
0.0
  0
LWPOLYLINE
  5
AB
330
1F
100
AcDbEntity
  8
0
  6
CONTINUOUS
 62
     7
100
AcDbPolyline
 90
        4
 70
   128
 43
0.0
 10
9.441603108890369
 20
5.226746232905557
 10
9.564704754066468
 20
5.229284441359094
 10
10.05496664146018
 20
5.239794498961844
 10
11.03550157142209
 20
5.26118237543385
  0
ARC
  5
AC
330
1F
100
AcDbEntity
  8
0
  6
CONTINUOUS
 62
     7
100
AcDbCircle
 10
5.070512819285207
 20
12.43652100756241
 30
0.0
 40
7.181031881213889
100
AcDbArc
 50
264.7070844766896
 51
268.4412587791285
  0
LINE
  5
AD
330
1F
100
AcDbEntity
  8
0
  6
CONTINUOUS
 62
     7
100
AcDbLine
 10
7.91789440817763
 20
5.122293282488368
 30
0.0
 11
8.057894408177629
 21
5.122293282488369
 31
0.0
  0
LINE
  5
AE
330
1F
100
AcDbEntity
  8
0
  6
CONTINUOUS
 62
     7
100
AcDbLine
 10
7.777894408177631
 20
5.122293282488369
 30
0.0
 11
7.91789440817763
 21
5.122293282488368
 31
0.0
  0
LINE
  5
AF
330
1F
100
AcDbEntity
  8
0
  6
CONTINUOUS
 62
     7
100
AcDbLine
 10
8.226881180116734
 20
5.201265954397127
 30
0.0
 11
7.608907636238527
 21
5.201265954397127
 31
0.0
  0
LINE
  5
B0
330
1F
100
AcDbEntity
  8
0
  6
CONTINUOUS
 62
     7
100
AcDbLine
 10
7.657442167878881
 20
5.184793261960252
 30
0.0
 11
8.178346648476374
 21
5.184793261960249
 31
0.0
  0
LINE
  5
B1
330
1F
100
AcDbEntity
  8
DIMENSIONS
  6
CONTINUOUS
 62
     7
100
AcDbLine
 10
4.420854892936079
 20
11.7377407087013
 30
0.0
 11
5.155819589921945
 21
15.84902330841019
 31
0.0
  0
POINT
  5
B2
330
1F
100
AcDbEntity
  8
DIMENSIONS
  6
CONTINUOUS
 62
     7
100
AcDbPoint
 10
3.382894408177955
 20
11.40142490632363
 30
0.0
  0
POINT
  5
B3
330
1F
100
AcDbEntity
  8
DIMENSIONS
  6
CONTINUOUS
 62
     7
100
AcDbPoint
 10
3.344198881632133
 20
11.40756272638988
 30
0.0
  0
LINE
  5
B4
330
1F
100
AcDbEntity
  8
0
  6
CONTINUOUS
 62
     7
100
AcDbLine
 10
3.404266861531587
 20
11.4014875827945
 30
0.0
 11
3.184045759876605
 21
11.40084176636736
 31
0.0
  0
LINE
  5
B5
330
1F
100
AcDbEntity
  8
0
  6
CONTINUOUS
 62
     7
100
AcDbLine
 10
3.057894408177629
 20
17.50047181719074
 30
0.0
 11
3.057894408177629
 21
11.00047181719074
 31
0.0
  0
LINE
  5
B6
330
1F
100
AcDbEntity
  8
0
  6
CONTINUOUS
 62
     7
100
AcDbLine
 10
4.095325288390688
 20
16.59267880401469
 30
0.0
 11
5.972277208236258
 21
15.91489061073713
 31
0.0
  0
LINE
  5
B7
330
1F
100
AcDbEntity
  8
0
  6
CONTINUOUS
 62
     7
100
AcDbLine
 10
5.972277208236258
 20
15.91489061073713
 30
0.0
 11
6.091502408227565
 21
16.24505270302075
 31
0.0
  0
LINE
  5
B8
330
1F
100
AcDbEntity
  8
0
  6
CONTINUOUS
 62
     7
100
AcDbLine
 10
7.267194782842186
 20
15.8204971232988
 30
0.0
 11
6.091502408227565
 21
16.24505270302075
 31
0.0
  0
LINE
  5
B9
330
1F
100
AcDbEntity
  8
0
  6
CONTINUOUS
 62
     7
100
AcDbLine
 10
7.147969582850878
 20
15.49033503101518
 30
0.0
 11
7.267194782842186
 21
15.8204971232988
 31
0.0
  0
LINE
  5
BA
330
1F
100
AcDbEntity
  8
0
  6
CONTINUOUS
 62
     7
100
AcDbLine
 10
7.147969582850878
 20
15.49033503101518
 30
0.0
 11
9.264215857157193
 21
14.72613498751568
 31
0.0
  0
LINE
  5
BB
330
1F
100
AcDbEntity
  8
0
  6
CONTINUOUS
 62
     7
100
AcDbLine
 10
9.264215857157193
 20
14.72613498751568
 30
0.0
 11
9.383441057148502
 21
15.0562970797993
 31
0.0
  0
LINE
  5
BC
330
1F
100
AcDbEntity
  8
0
  6
CONTINUOUS
 62
     7
100
AcDbLine
 10
10.55913343176312
 20
14.63174150007736
 30
0.0
 11
9.383441057148502
 21
15.0562970797993
 31
0.0
  0
LINE
  5
BD
330
1F
100
AcDbEntity
  8
0
  6
CONTINUOUS
 62
     7
100
AcDbLine
 10
10.43990823177181
 20
14.30157940779374
 30
0.0
 11
10.55913343176312
 21
14.63174150007736
 31
0.0
  0
LINE
  5
BE
330
1F
100
AcDbEntity
  8
0
  6
CONTINUOUS
 62
     7
100
AcDbLine
 10
10.43990823177181
 20
14.30157940779374
 30
0.0
 11
11.50800087816561
 21
13.91587928548486
 31
0.0
  0
LINE
  5
BF
330
1F
100
AcDbEntity
  8
0
  6
CONTINUOUS
 62
     7
100
AcDbLine
 10
12.05789440817763
 20
14.25047181719074
 30
0.0
 11
3.057894408177629
 21
17.50047181719074
 31
0.0
  0
LINE
  5
C0
330
1F
100
AcDbEntity
  8
0
  6
CONTINUOUS
 62
     7
100
AcDbLine
 10
12.05789440817763
 20
11.00047181719074
 30
0.0
 11
12.05789440817763
 21
14.25047181719074
 31
0.0
  0
LINE
  5
C1
330
1F
100
AcDbEntity
  8
0
  6
CONTINUOUS
 62
     7
100
AcDbLine
 10
11.60070108207422
 20
13.88254226533737
 30
0.0
 11
11.90808501537857
 21
13.77250091346885
 31
0.0
  0
ARC
  5
C2
330
1F
100
AcDbEntity
  8
0
  6
CONTINUOUS
 62
     7
100
AcDbCircle
 10
23.21046430281318
 20
46.30977288216885
 30
0.0
 40
34.44288014319501
100
AcDbArc
 50
250.1374812130582
 51
250.3013576269543
  0
LINE
  5
C3
330
1F
100
AcDbEntity
  8
0
  6
CONTINUOUS
 62
     7
100
AcDbLine
 10
11.49285510613621
 20
11.40164830010223
 30
0.0
 11
3.522360022804825
 21
11.40164830010223
 31
0.0
  0
LINE
  5
C4
330
1F
100
AcDbEntity
  8
0
  6
CONTINUOUS
 62
     7
100
AcDbLine
 10
3.057894408177629
 20
11.00047181719074
 30
0.0
 11
12.05789440817763
 21
11.00047181719074
 31
0.0
  0
ARC
  5
C5
330
1F
100
AcDbEntity
  8
0
  6
CONTINUOUS
 62
     7
100
AcDbCircle
 10
3.514250320874252
 20
-26.7537390738129
 30
0.0
 40
38.15538823574971
100
AcDbArc
 50
89.98782212110231
 51
90.16515614319565
  0
ELLIPSE
  5
C6
330
1F
100
AcDbEntity
  8
0
  6
CONTINUOUS
 62
     7
100
AcDbEllipse
 10
3.185234574719043
 20
11.442854465979
 30
0.0
 11
-0.3048036012430213
 21
-0.0010781886461171
 31
0.0
210
0.0
220
0.0
230
-1.0
 40
0.1378211181719591
 41
3.547109874646604
 42
4.716776772598494
  0
LINE
  5
C7
330
1F
100
AcDbEntity
  8
0
  6
CONTINUOUS
 62
     7
100
AcDbLine
 10
3.465376761131073
 20
11.42727315708593
 30
0.0
 11
4.420854892936079
 21
11.7377407087013
 31
0.0
  0
ELLIPSE
  5
C8
330
1F
100
AcDbEntity
  8
0
  6
CONTINUOUS
 62
     7
100
AcDbEllipse
 10
11.49972895028594
 20
11.43675894270111
 30
0.0
 11
-0.2536938816853689
 21
-0.0009698869850574
 31
0.0
210
0.0
220
0.0
230
-1.0
 40
0.1383448582209142
 41
4.740016226835762
 42
6.034226847202979
  0
LINE
  5
C9
330
1F
100
AcDbEntity
  8
0
  6
CONTINUOUS
 62
     7
100
AcDbLine
 10
11.25388961918178
 20
11.42717118406989
 30
0.0
 11
10.67482084518769
 21
11.73941738503909
 31
0.0
  0
LWPOLYLINE
  5
CA
330
1F
100
AcDbEntity
  8
0
  6
CONTINUOUS
 62
     7
100
AcDbPolyline
 90
       14
 70
   128
 43
0.0
 10
10.67482084518769
 20
11.73941738503909
 10
10.22185862488951
 20
11.74035222344146
 10
9.768885598937023
 20
11.7411893885137
 10
9.315902008789485
 20
11.74189821558667
 10
8.862908095906181
 20
11.74244803999126
 10
8.409852204470036
 20
11.74279870590485
 10
7.956787426666149
 20
11.74292934003952
 10
7.503722218572688
 20
11.7428383527703
 10
7.050665036267814
 20
11.74252415447222
 10
6.612345761112063
 20
11.74202358160069
 10
6.174036271825555
 20
11.74136723132685
 10
5.735737774428423
 20
11.74058572954542
 10
5.078287870079341
 20
11.73923944312626
 10
4.420854892936079
 20
11.7377407087013
  0
LINE
  5
CB
330
1F
100
AcDbEntity
  8
0
  6
CONTINUOUS
 62
     7
100
AcDbLine
 10
9.264215857157193
 20
14.72613498751568
 30
0.0
 11
9.248194614232369
 21
14.68176846864694
 31
0.0
  0
LINE
  5
CC
330
1F
100
AcDbEntity
  8
0
  6
CONTINUOUS
 62
     7
100
AcDbLine
 10
7.131948339926056
 20
15.44596851214644
 30
0.0
 11
7.147969582850878
 21
15.49033503101518
 31
0.0
  0
LINE
  5
CD
330
1F
100
AcDbEntity
  8
0
  6
CONTINUOUS
 62
     7
100
AcDbLine
 10
7.131948339926056
 20
15.44596851214644
 30
0.0
 11
5.956255965311436
 21
15.87052409186839
 31
0.0
  0
LINE
  5
CE
330
1F
100
AcDbEntity
  8
0
  6
CONTINUOUS
 62
     7
100
AcDbLine
 10
5.956255965311436
 20
15.87052409186839
 30
0.0
 11
5.972277208236258
 21
15.91489061073713
 31
0.0
  0
ELLIPSE
  5
CF
330
1F
100
AcDbEntity
  8
0
  6
CONTINUOUS
 62
     7
100
AcDbEllipse
 10
4.089313261572321
 20
16.55005411285466
 30
0.0
 11
-0.2865088604327344
 21
0.1047822092786603
 31
0.0
210
0.0
220
0.0
230
-0.9999999999999998
 40
0.1380504363726416
 41
1.541309842227212
 42
2.735269317957658
  0
LINE
  5
D0
330
1F
100
AcDbEntity
  8
0
  6
CONTINUOUS
 62
     7
100
AcDbLine
 10
4.358211780960262
 20
16.46943584164755
 30
0.0
 11
5.155819589921943
 21
15.84902330841019
 31
0.0
  0
LWPOLYLINE
  5
D1
330
1F
100
AcDbEntity
  8
0
  6
CONTINUOUS
 62
     7
100
AcDbPolyline
 90
       17
 70
   128
 43
0.0
 10
5.155819589921943
 20
15.84902330841019
 10
6.133621363545847
 20
15.49274408324343
 10
6.622535245325403
 20
15.31462848284021
 10
7.111472760834507
 20
15.1365570274995
 10
7.355964437765335
 20
15.04755710417378
 10
7.600487607168925
 20
14.95861924412551
 10
7.763543711275278
 20
14.89938612910547
 10
7.926642193969156
 20
14.84024455786287
 10
8.08979423930549
 20
14.78123764159591
 10
8.25259846348425
 20
14.72254098908895
 10
8.415447000999471
 20
14.6639809419759
 10
8.578321101405165
 20
14.60551732924578
 10
8.944824483994903
 20
14.47412978995662
 10
9.311355806276431
 20
14.3428647840546
 10
9.677902743357119
 20
14.21167024595527
 10
10.04445297034435
 20
14.08049411007419
 10
11.02227286306246
 20
13.73056994852274
  0
LINE
  5
D2
330
1F
100
AcDbEntity
  8
0
  6
CONTINUOUS
 62
     7
100
AcDbLine
 10
11.6786968907953
 20
13.82817272967763
 30
0.0
 11
11.02227286306246
 21
13.73056994852274
 31
0.0
  0
ELLIPSE
  5
D3
330
1F
100
AcDbEntity
  8
0
  6
CONTINUOUS
 62
     7
100
AcDbEllipse
 10
11.9067999637884
 20
13.73574067502383
 30
0.0
 11
-0.2383927324914902
 21
0.0870145388373818
 31
0.0
210
0.0
220
0.0
230
-0.9999999999999998
 40
0.1379471054649461
 41
0.2487073508920845
 42
1.525871117778147
  0
LINE
  5
D4
330
1F
100
AcDbEntity
  8
0
  6
CONTINUOUS
 62
     7
100
AcDbLine
 10
10.43990823177181
 20
14.30157940779374
 30
0.0
 11
10.42388698884699
 21
14.257212888925
 31
0.0
  0
LINE
  5
D5
330
1F
100
AcDbEntity
  8
0
  6
CONTINUOUS
 62
     7
100
AcDbLine
 10
10.42388698884699
 20
14.257212888925
 30
0.0
 11
9.248194614232369
 21
14.68176846864694
 31
0.0
  0
LWPOLYLINE
  5
D6
330
1F
100
AcDbEntity
  8
0
  6
CONTINUOUS
 62
     7
100
AcDbPolyline
 90
       98
 70
   128
 43
0.0
 10
8.315787897493038
 20
15.02925308582412
 10
8.315927736563406
 20
15.03044303241582
 10
8.315554137810396
 20
15.03181318425703
 10
8.314668668237018
 20
15.03335779445479
 10
8.313275041810378
 20
15.03507038437713
 10
8.311379103884034
 20
15.03694377082675
 10
8.308988806680535
 20
15.03897009616983
 10
8.306114175937036
 20
15.04114086129368
 10
8.30276726885388
 20
15.04344696125499
 10
8.298962123522509
 20
15.04587872346908
 10
8.294714700044824
 20
15.04842594828013
 10
8.290042813590972
 20
15.05107795174208
 10
8.284966059676339
 20
15.05382361043074
 10
8.279505731971136
 20
15.05665140809941
 10
8.273684732987359
 20
15.05954948398193
 10
8.267527478017687
 20
15.0625056825409
 10
8.261059792729259
 20
15.06550760445221
 10
8.254308804841853
 20
15.06854265861212
 10
8.247302830344803
 20
15.07159811494874
 10
8.240071254729905
 20
15.07466115781632
 10
8.232644409738428
 20
15.07771893974862
 10
8.225053446139284
 20
15.08075863534555
 10
8.217330203071849
 20
15.0837674950674
 10
8.209507074501571
 20
15.08673289871086
 10
8.201616873348399
 20
15.08964240834249
 10
8.193692693858007
 20
15.09248382046776
 10
8.185767772793028
 20
15.09524521721677
 10
8.177875350026514
 20
15.09791501633189
 10
8.170048529122354
 20
15.10048201974782
 10
8.162320138487439
 20
15.10293546056014
 10
8.154722593677893
 20
15.10526504818544
 10
8.147287761436981
 20
15.10746101152364
 10
8.140046826034907
 20
15.10951413994134
 10
8.133030158471157
 20
15.11141582190445
 10
8.12626718908795
 20
15.11315808109794
 10
8.119786284129183
 20
15.11473360988126
 10
8.113614626762522
 20
15.11613579993917
 10
8.10777810306377
 20
15.11735876999926
 10
8.102301193441652
 20
15.1183973905001
 10
8.097206869958483
 20
15.11924730510636
 10
8.092516499977357
 20
15.1199049489808
 10
8.088249756539994
 20
15.12036756373649
 10
8.084424535851164
 20
15.12063320900635
 10
8.081056882215797
 20
15.12070077058181
 10
8.078160920743584
 20
15.12056996508615
 10
8.075748798103354
 20
15.12024134116306
 10
8.073830631575734
 20
15.1197162771755
 10
8.07241446661775
 20
15.11899697542429
 10
8.071506243117386
 20
15.11808645291095
 10
8.07110977047964
 20
15.11698852868334
 10
8.071226711648527
 20
15.11570780781721
 10
8.071856576132155
 20
15.11424966210098
 10
8.072996722059983
 20
15.1126202075045
 10
8.074642367263759
 20
15.11082627852663
 10
8.076786609335597
 20
15.10887539952895
 10
8.079420454579071
 20
15.10677575317594
 10
8.082532855731905
 20
15.10453614611409
 10
8.086110758302028
 20
15.10216597203374
 10
8.090139155322651
 20
15.09967517226867
 10
8.094601150296703
 20
15.0970741940987
 10
8.099478028066609
 20
15.0943739469302
 10
8.10474933331217
 20
15.09158575653819
 10
8.110392956347272
 20
15.08872131756212
 10
8.116385225855616
 20
15.08579264445454
 10
8.122701008176418
 20
15.08281202108825
 10
8.129313812723736
 20
15.07979194923347
 10
8.136195903097185
 20
15.07674509612112
 10
8.143318413418045
 20
15.07368424131201
 10
8.150651469402784
 20
15.07062222309494
 10
8.158164313666183
 20
15.06757188463842
 10
8.165825434728501
 20
15.06454602012201
 10
8.173602699185583
 20
15.06155732107306
 10
8.181463486487494
 20
15.05861832313402
 10
8.189374825760481
 20
15.05574135348363
 10
8.197303534098249
 20
15.05293847913242
 10
8.205216355742603
 20
15.05022145630948
 10
8.213080101569669
 20
15.04760168115277
 10
8.220861788296605
 20
15.04509014190972
 10
8.228528776824948
 20
15.04269737284875
 10
8.236048909140347
 20
15.04043341007484
 10
8.243390643194436
 20
15.03830774943465
 10
8.25052318520316
 20
15.03632930668763
 10
8.257416618806601
 20
15.03450638011021
 10
8.264042030548594
 20
15.03284661568996
 10
8.270371631149792
 20
15.03135697505569
 10
8.276378872065588
 20
15.03004370627789
 10
8.282038556839911
 20
15.02891231766221
 10
8.287326946787942
 20
15.02796755464569
 10
8.292221860564392
 20
15.02721337989275
 10
8.296702767199782
 20
15.0266529566744
 10
8.300750872214454
 20
15.02628863560038
 10
8.304349196449166
 20
15.02612194475988
 10
8.307482647281567
 20
15.02615358331222
 10
8.310138081929917
 20
15.02638341855431
 10
8.312304362578469
 20
15.02681048647728
 10
8.31397240309335
 20
15.02743299580983
 10
8.315135207132955
 20
15.02824833553149
 10
8.315787897493038
 20
15.02925308582412
  0
LINE
  5
D7
330
1F
100
AcDbEntity
  8
0
  6
CONTINUOUS
 62
     7
100
AcDbLine
 10
7.255457071325326
 20
15.78799269140597
 30
0.0
 11
6.079764696710707
 21
16.21254827112792
 31
0.0
  0
LINE
  5
D8
330
1F
100
AcDbEntity
  8
0
  6
CONTINUOUS
 62
     7
100
AcDbLine
 10
10.54739572024626
 20
14.59923706818452
 30
0.0
 11
9.371703345631642
 21
15.02379264790647
 31
0.0
  0
LWPOLYLINE
  5
D9
330
1F
100
AcDbEntity
  8
0
  6
CONTINUOUS
 62
     7
100
AcDbPolyline
 90
       37
 70
   128
 43
0.0
 10
8.307446037728521
 20
15.04016243359168
 10
8.303827485898828
 20
15.04041821537185
 10
8.299560742461462
 20
15.04088083012753
 10
8.294870372480337
 20
15.04153847400198
 10
8.289776048997168
 20
15.04238838860824
 10
8.28429913937505
 20
15.04342700910908
 10
8.278462615676296
 20
15.04464997916917
 10
8.272290958309637
 20
15.04605216922708
 10
8.265810053350868
 20
15.0476276980104
 10
8.259047083967663
 20
15.04936995720389
 10
8.252030416403911
 20
15.051271639167
 10
8.24478948100184
 20
15.0533247675847
 10
8.237354648760927
 20
15.0555207309229
 10
8.229757103951381
 20
15.0578503185482
 10
8.222028713316465
 20
15.06030375936052
 10
8.214201892412305
 20
15.06287076277645
 10
8.206309469645791
 20
15.06554056189157
 10
8.198384548580813
 20
15.06830195864058
 10
8.190460369090422
 20
15.07114337076585
 10
8.18257016793725
 20
15.07405288039748
 10
8.17474703936697
 20
15.07701828404094
 10
8.167023796299538
 20
15.08002714376279
 10
8.159432832700392
 20
15.08306683935972
 10
8.152005987708916
 20
15.08612462129201
 10
8.144774412094013
 20
15.08918766415961
 10
8.137768437596967
 20
15.09224312049621
 10
8.131017449709561
 20
15.09527817465612
 10
8.124549764421134
 20
15.09828009656744
 10
8.11839250945146
 20
15.10123629512641
 10
8.112571510467684
 20
15.10413437100893
 10
8.107111182762483
 20
15.1069621686776
 10
8.102034428847847
 20
15.10970782736626
 10
8.097362542393998
 20
15.1123598308282
 10
8.093115118916312
 20
15.11490705563926
 10
8.08930997358494
 20
15.11733881785335
 10
8.085963066501786
 20
15.11964491781466
 10
8.084631204709605
 20
15.12062334551523
  0
LWPOLYLINE
  5
DA
330
1F
100
AcDbEntity
  8
0
  6
CONTINUOUS
 62
     7
100
AcDbPolyline
 90
        5
 70
   128
 43
0.0
 10
11.02227286306246
 20
13.73056994852274
 10
10.93478920790234
 20
13.23289072384525
 10
10.84775311502415
 20
12.73513295775833
 10
10.76111676381564
 20
12.23730074334731
 10
10.67482084518769
 20
11.73941738503909
  0
LWPOLYLINE
  5
DB
330
1F
100
AcDbEntity
  8
0
  6
CONTINUOUS
 62
     7
100
AcDbPolyline
 90
        9
 70
   128
 43
0.0
 10
4.420854892936079
 20
11.7377407087013
 10
4.51449589973323
 20
12.25125830130117
 10
4.607816775567124
 20
12.76484552270535
 10
4.700728627439838
 20
13.27852889422501
 10
4.793119861260061
 20
13.79231902157489
 10
4.884886639019565
 20
14.30628331573786
 10
4.975939303337003
 20
14.82038109545981
 10
5.066238802626836
 20
15.33464251586823
 10
5.155819589921943
 20
15.84902330841019
  0
CIRCLE
  5
DC
330
1F
100
AcDbEntity
  8
0
  6
CONTINUOUS
 62
     7
100
AcDbCircle
 10
7.91789440817763
 20
14.3101473765154
 30
0.0
 40
0.1400000000000023
  0
LINE
  5
DD
330
1F
100
AcDbEntity
  8
0
  6
CONTINUOUS
 62
     7
100
AcDbLine
 10
3.184045759876605
 20
11.40084176636736
 30
0.0
 11
3.993421863934036
 21
15.95198804381618
 31
0.0
  0
LINE
  5
DF
330
1F
100
AcDbEntity
  8
0
  6
CONTINUOUS
 62
     7
100
AcDbLine
 10
4.043461058142652
 20
16.28366826459894
 30
0.0
 11
4.095325288390688
 21
16.59267880401469
 31
0.0
  0
ARC
  5
E0
330
1F
100
AcDbEntity
  8
0
  6
CONTINUOUS
 62
     7
100
AcDbCircle
 10
-21.70886723681655
 20
19.9991985753746
 30
0.0
 40
26.01898495532291
100
AcDbArc
 50
351.0513990827229
 51
351.7900544074909
  0
LINE
  5
E1
330
1F
100
AcDbEntity
  8
0
  6
CONTINUOUS
 62
     7
100
AcDbLine
 10
11.90808501537857
 20
13.77250091346885
 30
0.0
 11
11.52567371356467
 21
11.61665502475742
 31
0.0
  0
ARC
  5
E2
330
1F
100
AcDbEntity
  8
0
  6
CONTINUOUS
 62
     7
100
AcDbCircle
 10
30.48853636780926
 20
8.833910644872633
 30
0.0
 40
19.1659548764867
100
AcDbArc
 50
171.6515991601983
 51
172.0722100221076
  0
LINE
  5
E3
330
1F
100
AcDbEntity
  8
0
  6
CONTINUOUS
 62
     7
100
AcDbLine
 10
11.50575660785875
 20
11.47737407612804
 30
0.0
 11
11.49285510613621
 21
11.40164830010223
 31
0.0
  0
LINE
  5
E5
330
1F
100
AcDbEntity
  8
0
  6
CONTINUOUS
 62
     7
100
AcDbLine
 10
4.261450451071507
 20
15.90361955820266
 30
0.0
 11
3.465376761131073
 21
11.42727315708593
 31
0.0
  0
LINE
  5
E6
330
1F
100
AcDbEntity
  8
0
  6
CONTINUOUS
 62
     7
100
AcDbLine
 10
11.29382571041393
 20
11.65845926155297
 30
0.0
 11
11.6786968907953
 21
13.82817272967763
 31
0.0
  0
LINE
  5
E7
330
1F
100
AcDbEntity
  8
0
  6
CONTINUOUS
 62
     7
100
AcDbLine
 10
11.25388961918178
 20
11.42717118406989
 30
0.0
 11
11.26867299973717
 21
11.51394270795275
 31
0.0
  0
ARC
  5
E8
330
1F
100
AcDbEntity
  8
0
  6
CONTINUOUS
 62
     7
100
AcDbCircle
 10
32.75053632339347
 20
7.849210038584393
 30
0.0
 40
21.79221902358352
100
AcDbArc
 50
169.9330623199799
 51
170.3187031496627
  0
LINE
  5
E9
330
1F
100
AcDbEntity
  8
0
  6
CONTINUOUS
 62
     7
100
AcDbLine
 10
4.358211780960262
 20
16.46943584164755
 30
0.0
 11
4.319906264336577
 21
16.24120902139248
 31
0.0
  0
ARC
  5
EA
330
1F
100
AcDbEntity
  8
0
  6
CONTINUOUS
 62
     7
100
AcDbCircle
 10
-30.67503310426261
 20
22.12882152832241
 30
0.0
 40
35.48677250442642
100
AcDbArc
 50
349.8967153352684
 51
350.449719065237
  0
CIRCLE
  5
EB
330
1F
100
AcDbEntity
  8
0
  6
CONTINUOUS
 62
     7
100
AcDbCircle
 10
7.91789440817763
 20
14.3101473765154
 30
0.0
 40
0.3086726356408533
  0
CIRCLE
  5
EC
330
1F
100
AcDbEntity
  8
0
  6
CONTINUOUS
 62
     7
100
AcDbCircle
 10
7.917894408177629
 20
14.3101473765154
 30
0.0
 40
0.2515731866522
  0
ENDSEC
  0
SECTION
  2
OBJECTS
  0
DICTIONARY
  5
C
330
0
100
AcDbDictionary
  3
ACAD_GROUP
350
D
  3
ACAD_LAYOUT
350
1A
  3
ACAD_MLINESTYLE
350
17
  3
ACAD_PLOTSETTINGS
350
19
  3
ACAD_PLOTSTYLENAME
350
E
  3
ACDBHEADERROUNDTRIPXREC
350
172
  3
ACDBVARIABLEDICTIONARY
350
16C
  0
DICTIONARY
  5
132
330
1F
100
AcDbDictionary
280
     1
  3
ACAD_LAYOUTSELFREF
360
194
  0
DICTIONARY
  5
134
330
1B
100
AcDbDictionary
280
     1
  3
ACAD_LAYOUTSELFREF
360
193
  0
DICTIONARY
  5
D
102
{ACAD_REACTORS
330
C
102
}
330
C
100
AcDbDictionary
  0
DICTIONARY
  5
1A
102
{ACAD_REACTORS
330
C
102
}
330
C
100
AcDbDictionary
  0
DICTIONARY
  5
17
102
{ACAD_REACTORS
330
C
102
}
330
C
100
AcDbDictionary
  3
STANDARD
350
18
  0
DICTIONARY
  5
19
102
{ACAD_REACTORS
330
C
102
}
330
C
100
AcDbDictionary
  0
ACDBDICTIONARYWDFLT
  5
E
102
{ACAD_REACTORS
330
C
102
}
330
C
100
AcDbDictionary
281
     1
  3
Normal
350
F
100
AcDbDictionaryWithDefault
340
F
  0
DICTIONARY
  5
172
102
{ACAD_REACTORS
330
C
102
}
330
C
100
AcDbDictionary
  3
CEPSNTYPE
350
17C
  3
DIMSTYLEDATA
350
180
  3
FINGERPRINTGUID
350
17D
  3
HYPERLINKBASE
350
175
  3
INSUNITS
350
17B
  3
LAYOUTDICT
350
177
  3
LWETCUNION
350
17A
  3
PLOTSETDICT
350
178
  3
PLOTSTYLNAMDICT
350
179
  3
PSVPSCALE
350
17F
  3
PUCSBASE
350
183
  3
PUCSORGBACK
350
189
  3
PUCSORGBOTTOM
350
185
  3
PUCSORGFRONT
350
188
  3
PUCSORGLEFT
350
186
  3
PUCSORGRIGHT
350
187
  3
PUCSORGTOP
350
184
  3
PUCSORTHOREF
350
181
  3
PUCSORTHOVIEW
350
182
  3
STYLESHEET
350
176
  3
TSTACKALIGN
350
173
  3
TSTACKSIZE
350
174
  3
UCSBASE
350
18C
  3
UCSORGBACK
350
192
  3
UCSORGBOTTOM
350
18E
  3
UCSORGFRONT
350
191
  3
UCSORGLEFT
350
18F
  3
UCSORGRIGHT
350
190
  3
UCSORGTOP
350
18D
  3
UCSORTHOREF
350
18A
  3
UCSORTHOVIEW
350
18B
  3
VERSIONGUID
350
17E
  0
DICTIONARY
  5
16C
102
{ACAD_REACTORS
330
C
102
}
330
C
100
AcDbDictionary
  3
DIMASSOC
350
16D
  0
XRECORD
  5
194
102
{ACAD_REACTORS
330
132
102
}
330
132
100
AcDbXrecord
340
1F
  0
XRECORD
  5
193
102
{ACAD_REACTORS
330
134
102
}
330
134
100
AcDbXrecord
340
1B
  0
MLINESTYLE
  5
18
102
{ACAD_REACTORS
330
17
102
}
330
17
100
AcDbMlineStyle
  2
STANDARD
 70
     0
  3

 62
   256
 51
90.0
 52
90.0
 71
     2
 49
0.5
 62
   256
  6
BYLAYER
 49
-0.5
 62
   256
  6
BYLAYER
  0
ACDBPLACEHOLDER
  5
F
102
{ACAD_REACTORS
330
E
102
}
330
E
100
AcDbPlaceHolder
280
     0
  0
XRECORD
  5
17C
102
{ACAD_REACTORS
330
172
102
}
330
172
100
AcDbXrecord
 90
        0
  0
XRECORD
  5
180
102
{ACAD_REACTORS
330
172
102
}
330
172
100
AcDbXrecord
1000
DSTYLE
1002
{
1070
   278
 70
    44
1002
}
  0
XRECORD
  5
17D
102
{ACAD_REACTORS
330
172
102
}
330
172
100
AcDbXrecord
  1
{B8C3A7EE-A224-41F7-BD60-FAFD1A3A58BB}
  0
XRECORD
  5
175
102
{ACAD_REACTORS
330
172
102
}
330
172
100
AcDbXrecord
  1

  0
XRECORD
  5
17B
102
{ACAD_REACTORS
330
172
102
}
330
172
100
AcDbXrecord
 90
        4
  0
XRECORD
  5
177
102
{ACAD_REACTORS
330
172
102
}
330
172
100
AcDbXrecord
340
1A
  0
XRECORD
  5
17A
102
{ACAD_REACTORS
330
172
102
}
330
172
100
AcDbXrecord
 90
    10269
  0
XRECORD
  5
178
102
{ACAD_REACTORS
330
172
102
}
330
172
100
AcDbXrecord
340
19
  0
XRECORD
  5
179
102
{ACAD_REACTORS
330
172
102
}
330
172
100
AcDbXrecord
340
E
  0
XRECORD
  5
17F
102
{ACAD_REACTORS
330
172
102
}
330
172
100
AcDbXrecord
 40
0.0
  0
XRECORD
  5
183
102
{ACAD_REACTORS
330
172
102
}
330
172
100
AcDbXrecord
340
0
  0
XRECORD
  5
189
102
{ACAD_REACTORS
330
172
102
}
330
172
100
AcDbXrecord
 10
0.0
 20
0.0
 30
0.0
  0
XRECORD
  5
185
102
{ACAD_REACTORS
330
172
102
}
330
172
100
AcDbXrecord
 10
0.0
 20
0.0
 30
0.0
  0
XRECORD
  5
188
102
{ACAD_REACTORS
330
172
102
}
330
172
100
AcDbXrecord
 10
0.0
 20
0.0
 30
0.0
  0
XRECORD
  5
186
102
{ACAD_REACTORS
330
172
102
}
330
172
100
AcDbXrecord
 10
0.0
 20
0.0
 30
0.0
  0
XRECORD
  5
187
102
{ACAD_REACTORS
330
172
102
}
330
172
100
AcDbXrecord
 10
0.0
 20
0.0
 30
0.0
  0
XRECORD
  5
184
102
{ACAD_REACTORS
330
172
102
}
330
172
100
AcDbXrecord
 10
0.0
 20
0.0
 30
0.0
  0
XRECORD
  5
181
102
{ACAD_REACTORS
330
172
102
}
330
172
100
AcDbXrecord
340
0
  0
XRECORD
  5
182
102
{ACAD_REACTORS
330
172
102
}
330
172
100
AcDbXrecord
 70
     0
  0
XRECORD
  5
176
102
{ACAD_REACTORS
330
172
102
}
330
172
100
AcDbXrecord
  1

  0
XRECORD
  5
173
102
{ACAD_REACTORS
330
172
102
}
330
172
100
AcDbXrecord
 90
        1
  0
XRECORD
  5
174
102
{ACAD_REACTORS
330
172
102
}
330
172
100
AcDbXrecord
 90
       70
  0
XRECORD
  5
18C
102
{ACAD_REACTORS
330
172
102
}
330
172
100
AcDbXrecord
340
0
  0
XRECORD
  5
192
102
{ACAD_REACTORS
330
172
102
}
330
172
100
AcDbXrecord
 10
0.0
 20
0.0
 30
0.0
  0
XRECORD
  5
18E
102
{ACAD_REACTORS
330
172
102
}
330
172
100
AcDbXrecord
 10
0.0
 20
0.0
 30
0.0
  0
XRECORD
  5
191
102
{ACAD_REACTORS
330
172
102
}
330
172
100
AcDbXrecord
 10
0.0
 20
0.0
 30
0.0
  0
XRECORD
  5
18F
102
{ACAD_REACTORS
330
172
102
}
330
172
100
AcDbXrecord
 10
0.0
 20
0.0
 30
0.0
  0
XRECORD
  5
190
102
{ACAD_REACTORS
330
172
102
}
330
172
100
AcDbXrecord
 10
0.0
 20
0.0
 30
0.0
  0
XRECORD
  5
18D
102
{ACAD_REACTORS
330
172
102
}
330
172
100
AcDbXrecord
 10
0.0
 20
0.0
 30
0.0
  0
XRECORD
  5
18A
102
{ACAD_REACTORS
330
172
102
}
330
172
100
AcDbXrecord
340
0
  0
XRECORD
  5
18B
102
{ACAD_REACTORS
330
172
102
}
330
172
100
AcDbXrecord
 70
     0
  0
XRECORD
  5
17E
102
{ACAD_REACTORS
330
172
102
}
330
172
100
AcDbXrecord
  1
{C9345EBC-4240-41C3-AB50-7523BDAF9BD8}
  0
DICTIONARYVAR
  5
16D
102
{ACAD_REACTORS
330
16C
102
}
330
16C
100
DictionaryVariables
280
     0
  1
1
  0
ENDSEC
  0
EOF
