  0
SECTION
  2
HEADER
  9
$ACADVER
  1
AC1014
  9
$ACADMAINTVER
 70
     9
  9
$DWGCODEPAGE
  3
ANSI_1250
  9
$INSBASE
 10
0.0
 20
0.0
 30
0.0
  9
$EXTMIN
 10
6.975252175305097
 20
3.977203379920561
 30
0.0
  9
$EXTMAX
 10
18.3085858598632
 20
16.51878334030857
 30
0.0
  9
$LIMMIN
 10
0.0
 20
0.0
  9
$LIMMAX
 10
0.0
 20
0.0
  9
$ORTHOMODE
 70
     1
  9
$REGENMODE
 70
     1
  9
$FILLMODE
 70
     1
  9
$QTEXTMODE
 70
     0
  9
$MIRRTEXT
 70
     1
  9
$DRAGMODE
 70
     2
  9
$LTSCALE
 40
1.0
  9
$OSMODE
 70
  3007
  9
$ATTMODE
 70
     1
  9
$TEXTSIZE
 40
2.5
  9
$TRACEWID
 40
1.0
  9
$TEXTSTYLE
  7
STANDARD
  9
$CLAYER
  8
0
  9
$CELTYPE
  6
BYLAYER
  9
$CECOLOR
 62
   256
  9
$CELTSCALE
 40
1.0
  9
$DELOBJ
 70
     1
  9
$DISPSILH
 70
     0
  9
$DIMSCALE
 40
1.0
  9
$DIMASZ
 40
0.3
  9
$DIMEXO
 40
0.1
  9
$DIMDLI
 40
3.75
  9
$DIMRND
 40
0.0
  9
$DIMDLE
 40
0.0
  9
$DIMEXE
 40
0.1
  9
$DIMTP
 40
0.0
  9
$DIMTM
 40
0.0
  9
$DIMTXT
 40
0.2822222222222222
  9
$DIMCEN
 40
2.5
  9
$DIMTSZ
 40
0.0
  9
$DIMTOL
 70
     0
  9
$DIMLIM
 70
     0
  9
$DIMTIH
 70
     1
  9
$DIMTOH
 70
     1
  9
$DIMSE1
 70
     0
  9
$DIMSE2
 70
     0
  9
$DIMTAD
 70
     1
  9
$DIMZIN
 70
     0
  9
$DIMBLK
  1

  9
$DIMASO
 70
     1
  9
$DIMSHO
 70
     1
  9
$DIMPOST
  1

  9
$DIMAPOST
  1

  9
$DIMALT
 70
     0
  9
$DIMALTD
 70
     3
  9
$DIMALTF
 40
0.3937007874015748
  9
$DIMLFAC
 40
15.0
  9
$DIMTOFL
 70
     1
  9
$DIMTVP
 40
0.0
  9
$DIMTIX
 70
     0
  9
$DIMSOXD
 70
     0
  9
$DIMSAH
 70
     0
  9
$DIMBLK1
  1

  9
$DIMBLK2
  1

  9
$DIMSTYLE
  2
ISO-25
  9
$DIMCLRD
 70
     0
  9
$DIMCLRE
 70
     0
  9
$DIMCLRT
 70
     0
  9
$DIMTFAC
 40
1.0
  9
$DIMGAP
 40
0.1524
  9
$DIMJUST
 70
     0
  9
$DIMSD1
 70
     0
  9
$DIMSD2
 70
     0
  9
$DIMTOLJ
 70
     0
  9
$DIMTZIN
 70
     0
  9
$DIMALTZ
 70
     0
  9
$DIMALTTZ
 70
     0
  9
$DIMFIT
 70
     3
  9
$DIMUPT
 70
     0
  9
$DIMUNIT
 70
     2
  9
$DIMDEC
 70
     2
  9
$DIMTDEC
 70
     2
  9
$DIMALTU
 70
     2
  9
$DIMALTTD
 70
     3
  9
$DIMTXSTY
  7
STANDARD
  9
$DIMAUNIT
 70
     0
  9
$LUNITS
 70
     2
  9
$LUPREC
 70
     0
  9
$SKETCHINC
 40
1.0
  9
$FILLETRAD
 40
10.0
  9
$AUNITS
 70
     0
  9
$AUPREC
 70
     0
  9
$MENU
  1
.
  9
$ELEVATION
 40
0.0
  9
$PELEVATION
 40
0.0
  9
$THICKNESS
 40
0.0
  9
$LIMCHECK
 70
     0
  9
$BLIPMODE
 70
     0
  9
$CHAMFERA
 40
10.0
  9
$CHAMFERB
 40
10.0
  9
$CHAMFERC
 40
20.0
  9
$CHAMFERD
 40
0.0
  9
$SKPOLY
 70
     0
  9
$TDCREATE
 40
2453930.650342882
  9
$TDUPDATE
 40
2453966.374936516
  9
$TDINDWG
 40
0.0163057060
  9
$TDUSRTIMER
 40
0.0163057060
  9
$USRTIMER
 70
     1
  9
$ANGBASE
 50
0.0
  9
$ANGDIR
 70
     0
  9
$PDMODE
 70
     0
  9
$PDSIZE
 40
-1.0
  9
$PLINEWID
 40
0.0
  9
$COORDS
 70
     2
  9
$SPLFRAME
 70
     0
  9
$SPLINETYPE
 70
     6
  9
$SPLINESEGS
 70
     8
  9
$ATTDIA
 70
     0
  9
$ATTREQ
 70
     1
  9
$HANDLING
 70
 22529
  9
$HANDSEED
  5
3E6
  9
$SURFTAB1
 70
     6
  9
$SURFTAB2
 70
     6
  9
$SURFTYPE
 70
     6
  9
$SURFU
 70
     6
  9
$SURFV
 70
     6
  9
$UCSNAME
  2

  9
$UCSORG
 10
0.0
 20
0.0
 30
0.0
  9
$UCSXDIR
 10
1.0
 20
0.0
 30
0.0
  9
$UCSYDIR
 10
0.0
 20
1.0
 30
0.0
  9
$PUCSNAME
  2

  9
$PUCSORG
 10
0.0
 20
0.0
 30
0.0
  9
$PUCSXDIR
 10
1.0
 20
0.0
 30
0.0
  9
$PUCSYDIR
 10
0.0
 20
1.0
 30
0.0
  9
$USERI1
 70
     0
  9
$USERI2
 70
     0
  9
$USERI3
 70
     0
  9
$USERI4
 70
     0
  9
$USERI5
 70
     0
  9
$USERR1
 40
0.0
  9
$USERR2
 40
0.0
  9
$USERR3
 40
0.0
  9
$USERR4
 40
0.0
  9
$USERR5
 40
0.0
  9
$WORLDVIEW
 70
     1
  9
$SHADEDGE
 70
     3
  9
$SHADEDIF
 70
    70
  9
$TILEMODE
 70
     1
  9
$MAXACTVP
 70
    48
  9
$PINSBASE
 10
0.0
 20
0.0
 30
0.0
  9
$PLIMCHECK
 70
     0
  9
$PEXTMIN
 10
1.000000000000000E+20
 20
1.000000000000000E+20
 30
1.000000000000000E+20
  9
$PEXTMAX
 10
-1.000000000000000E+20
 20
-1.000000000000000E+20
 30
-1.000000000000000E+20
  9
$PLIMMIN
 10
0.0
 20
0.0
  9
$PLIMMAX
 10
420.0
 20
297.0
  9
$UNITMODE
 70
     0
  9
$VISRETAIN
 70
     1
  9
$PLINEGEN
 70
     0
  9
$PSLTSCALE
 70
     1
  9
$TREEDEPTH
 70
  3020
  9
$PICKSTYLE
 70
     1
  9
$CMLSTYLE
  2
STANDARD
  9
$CMLJUST
 70
     0
  9
$CMLSCALE
 40
20.0
  9
$PROXYGRAPHICS
 70
     1
  9
$MEASUREMENT
 70
     1
  0
ENDSEC
  0
SECTION
  2
CLASSES
  0
CLASS
  1
ACDBDICTIONARYWDFLT
  2
AcDbDictionaryWithDefault
  3
AutoCAD 2000
 90
        0
280
     0
281
     0
  0
CLASS
  1
ACDBPLACEHOLDER
  2
AcDbPlaceHolder
  3
AutoCAD 2000
 90
        0
280
     0
281
     0
  0
CLASS
  1
LAYOUT
  2
AcDbLayout
  3
AutoCAD 2000
 90
        0
280
     0
281
     0
  0
CLASS
  1
DICTIONARYVAR
  2
AcDbDictionaryVar
  3
AutoCAD 2000
 90
        0
280
     0
281
     0
  0
CLASS
  1
LONG_TRANSACTION
  2
AcDbLongTransaction
  3
AutoCAD 2000
 90
        0
280
     0
281
     0
  0
CLASS
  1
LWPOLYLINE
  2
AcDbPolyline
  3
AutoCAD 2000
 90
        0
280
     0
281
     1
  0
CLASS
  1
HATCH
  2
AcDbHatch
  3
AutoCAD 2000
 90
        0
280
     0
281
     1
  0
CLASS
  1
XRECORD
  2
AcDbXrecord
  3
AutoCAD 2000
 90
        0
280
     0
281
     0
  0
CLASS
  1
LONG_TRANSACTION
  2
AcDbLongTransaction
  3
AutoCAD 2000
 90
        0
280
     0
281
     0
  0
CLASS
  1
LWPOLYLINE
  2
AcDbPolyline
  3
AutoCAD 2000
 90
        0
280
     0
281
     1
  0
CLASS
  1
HATCH
  2
AcDbHatch
  3
AutoCAD 2000
 90
        0
280
     0
281
     1
  0
CLASS
  1
XRECORD
  2
AcDbXrecord
  3
AutoCAD 2000
 90
        0
280
     0
281
     0
  0
CLASS
  1
LONG_TRANSACTION
  2
AcDbLongTransaction
  3
AutoCAD 2000
 90
        0
280
     0
281
     0
  0
CLASS
  1
LWPOLYLINE
  2
AcDbPolyline
  3
AutoCAD 2000
 90
        0
280
     0
281
     1
  0
CLASS
  1
HATCH
  2
AcDbHatch
  3
AutoCAD 2000
 90
        0
280
     0
281
     1
  0
CLASS
  1
XRECORD
  2
AcDbXrecord
  3
AutoCAD 2000
 90
        0
280
     0
281
     0
  0
ENDSEC
  0
SECTION
  2
TABLES
  0
TABLE
  2
VPORT
  5
8
330
0
100
AcDbSymbolTable
 70
     2
  0
VPORT
  5
3C1
330
8
100
AcDbSymbolTableRecord
100
AcDbViewportTableRecord
  2
*ACTIVE
 70
     0
 10
0.0
 20
0.0
 11
1.0
 21
1.0
 12
12.64196681772244
 22
10.24818759929317
 13
0.0
 23
0.0
 14
10.0
 24
10.0
 15
10.0
 25
10.0
 16
0.0
 26
0.0
 36
1.0
 17
0.0
 27
0.0
 37
0.0
 40
12.66407396008119
 41
1.674961119751166
 42
50.0
 43
0.0
 44
0.0
 50
0.0
 51
0.0
 71
     0
 72
  2000
 73
     1
 74
     3
 75
     0
 76
     0
 77
     0
 78
     0
  0
ENDTAB
  0
TABLE
  2
LTYPE
  5
5
330
0
100
AcDbSymbolTable
 70
     1
  0
LTYPE
  5
14
330
5
100
AcDbSymbolTableRecord
100
AcDbLinetypeTableRecord
  2
BYBLOCK
 70
     0
  3

 72
    65
 73
     0
 40
0.0
  0
LTYPE
  5
15
330
5
100
AcDbSymbolTableRecord
100
AcDbLinetypeTableRecord
  2
BYLAYER
 70
     0
  3

 72
    65
 73
     0
 40
0.0
  0
LTYPE
  5
16
330
5
100
AcDbSymbolTableRecord
100
AcDbLinetypeTableRecord
  2
CONTINUOUS
 70
     0
  3
Solid line
 72
    65
 73
     0
 40
0.0
  0
ENDTAB
  0
TABLE
  2
LAYER
  5
2
330
0
100
AcDbSymbolTable
 70
     2
  0
LAYER
  5
10
330
2
100
AcDbSymbolTableRecord
100
AcDbLayerTableRecord
  2
0
 70
     0
 62
     7
  6
CONTINUOUS
  0
LAYER
  5
2F
330
2
100
AcDbSymbolTableRecord
100
AcDbLayerTableRecord
  2
MEASUREMENT
 70
     0
 62
     1
  6
CONTINUOUS
  0
ENDTAB
  0
TABLE
  2
STYLE
  5
3
330
0
100
AcDbSymbolTable
 70
     2
  0
STYLE
  5
11
330
3
100
AcDbSymbolTableRecord
100
AcDbTextStyleTableRecord
  2
STANDARD
 70
     0
 40
0.0
 41
1.0
 50
0.0
 71
     0
 42
2.5
  3
romans__.ttf
  4

1001
ACAD
1000
RomanS
1071
        2
  0
STYLE
  5
32
330
3
100
AcDbSymbolTableRecord
100
AcDbTextStyleTableRecord
  2
SLDTEXTSTYLE0
 70
     0
 40
0.0
 41
1.0
 50
0.0
 71
     0
 42
0.2
  3
ARIAL.TTF
  4

1001
ACAD
1000
Arial
1071
       34
  0
ENDTAB
  0
TABLE
  2
VIEW
  5
6
330
0
100
AcDbSymbolTable
 70
     0
  0
ENDTAB
  0
TABLE
  2
UCS
  5
7
330
0
100
AcDbSymbolTable
 70
     0
  0
ENDTAB
  0
TABLE
  2
APPID
  5
9
330
0
100
AcDbSymbolTable
 70
     1
  0
APPID
  5
12
330
9
100
AcDbSymbolTableRecord
100
AcDbRegAppTableRecord
  2
ACAD
 70
     0
  0
ENDTAB
  0
TABLE
  2
DIMSTYLE
  5
A
330
0
100
AcDbSymbolTable
 70
     1
  0
DIMSTYLE
105
27
330
A
100
AcDbSymbolTableRecord
100
AcDbDimStyleTableRecord
  2
ISO-25
 70
     0
  3

  4

  5

  6

  7

 40
1.0
 41
2.5
 42
0.625
 43
3.75
 44
1.25
 45
0.0
 46
0.0
 47
0.0
 48
0.0
140
2.5
141
2.5
142
0.0
143
0.03937007874016
144
1.0
145
0.0
146
1.0
147
0.625
 71
     0
 72
     0
 73
     0
 74
     0
 75
     0
 76
     0
 77
     1
 78
     8
170
     0
171
     3
172
     1
173
     0
174
     0
175
     0
176
     0
177
     0
178
     0
270
     2
271
     2
272
     2
273
     2
274
     3
340
32
275
     0
280
     0
281
     0
282
     0
283
     0
284
     8
285
     0
286
     0
287
     3
288
     0
  0
ENDTAB
  0
TABLE
  2
BLOCK_RECORD
  5
1
330
0
100
AcDbSymbolTable
 70
     1
  0
BLOCK_RECORD
  5
1F
102
{ACAD_XDICTIONARY
360
302
102
}
330
1
100
AcDbSymbolTableRecord
100
AcDbBlockTableRecord
  2
*MODEL_SPACE
  0
BLOCK_RECORD
  5
1B
102
{ACAD_XDICTIONARY
360
304
102
}
330
1
100
AcDbSymbolTableRecord
100
AcDbBlockTableRecord
  2
*PAPER_SPACE
  0
ENDTAB
  0
ENDSEC
  0
SECTION
  2
BLOCKS
  0
BLOCK
  5
20
330
1F
100
AcDbEntity
  8
0
100
AcDbBlockBegin
  2
*MODEL_SPACE
 70
     0
 10
0.0
 20
0.0
 30
0.0
  3
*MODEL_SPACE
  1

  0
ENDBLK
  5
21
330
1F
100
AcDbEntity
  8
0
100
AcDbBlockEnd
  0
BLOCK
  5
1C
330
1B
100
AcDbEntity
 67
     1
  8
0
100
AcDbBlockBegin
  2
*PAPER_SPACE
 70
     0
 10
0.0
 20
0.0
 30
0.0
  3
*PAPER_SPACE
  1

  0
ENDBLK
  5
1D
330
1B
100
AcDbEntity
 67
     1
  8
0
100
AcDbBlockEnd
  0
ENDSEC
  0
SECTION
  2
ENTITIES
  0
LINE
  5
A4
330
1F
100
AcDbEntity
  8
MEASUREMENT
 62
    27
100
AcDbLine
 10
17.57354723776195
 20
4.16928508226185
 30
0.0
 11
17.47842802413835
 21
4.000997242773945
 31
0.0
  0
LINE
  5
A5
330
1F
100
AcDbEntity
  8
MEASUREMENT
 62
    27
100
AcDbLine
 10
17.47842802413835
 20
4.000997242773945
 30
0.0
 11
15.02713381153045
 21
4.000997242773945
 31
0.0
  0
LINE
  5
A6
330
1F
100
AcDbEntity
  8
MEASUREMENT
 62
    27
100
AcDbLine
 10
15.02713381153045
 20
4.000997242773945
 30
0.0
 11
15.02713381153045
 21
4.109344479955614
 31
0.0
  0
LINE
  5
A7
330
1F
100
AcDbEntity
  8
MEASUREMENT
 62
    27
100
AcDbLine
 10
14.248028800758
 20
4.109532567709509
 30
0.0
 11
14.248028800758
 21
3.977203379920561
 31
0.0
  0
LINE
  5
A8
330
1F
100
AcDbEntity
  8
MEASUREMENT
 62
    27
100
AcDbLine
 10
14.248028800758
 20
3.977203379920561
 30
0.0
 11
9.271705826093317
 21
3.977203379920561
 31
0.0
  0
LINE
  5
A9
330
1F
100
AcDbEntity
  8
MEASUREMENT
 62
    27
100
AcDbLine
 10
9.271705826093317
 20
3.977203379920561
 30
0.0
 11
9.098414371650896
 21
4.224747295557688
 31
0.0
  0
POINT
  5
AA
330
1F
100
AcDbEntity
  8
MEASUREMENT
 62
    27
100
AcDbPoint
 10
14.20171477279836
 20
4.110536713253893
 30
0.0
  0
LWPOLYLINE
  5
AC
330
1F
100
AcDbEntity
  8
0
  6
CONTINUOUS
 62
     7
100
AcDbPolyline
 90
       18
 70
   128
 43
0.0
 10
17.90854888908886
 20
6.900997226879372
 10
17.89810536059561
 20
6.779809063122048
 10
17.88291650764965
 20
6.603514815812681
 10
17.86753294619741
 20
6.424929365958148
 10
17.85195229205313
 20
6.244005625889077
 10
17.83645270022574
 20
6.063990657970681
 10
17.82075442624909
 20
5.881628061776732
 10
17.80485429120881
 20
5.696870153591409
 10
17.78874673200471
 20
5.509668057605996
 10
17.77570920937083
 20
5.358112718110655
 10
17.76253499341828
 20
5.204934741502379
 10
17.74922090523265
 20
5.050107305691018
 10
17.73576535535676
 20
4.893602396493529
 10
17.72216516487621
 20
4.73539229775009
 10
17.70866590492747
 20
4.578319654311115
 10
17.69502359383129
 20
4.419546391015623
 10
17.68123425794465
 20
4.259044195657347
 10
17.67390844973746
 20
4.173751737123106
  0
LINE
  5
AD
330
1F
100
AcDbEntity
  8
0
  6
CONTINUOUS
 62
     7
100
AcDbLine
 10
17.17713790886426
 20
4.155959253952278
 30
0.0
 11
15.015446720052
 21
4.109091128354643
 31
0.0
  0
LINE
  5
AE
330
1F
100
AcDbEntity
  8
0
  6
CONTINUOUS
 62
     7
100
AcDbLine
 10
14.26839071266674
 20
4.109091128354643
 30
0.0
 11
13.48435876521293
 21
4.126089876339211
 31
0.0
  0
ARC
  5
AF
330
1F
100
AcDbEntity
  8
0
  6
CONTINUOUS
 62
     7
100
AcDbCircle
 10
14.64053069488964
 20
4.560328875771022
 30
0.0
 40
0.5866666666666671
100
AcDbArc
 50
287.3267599585802
 51
309.7219033523646
  0
ARC
  5
B0
330
1F
100
AcDbEntity
  8
0
  6
CONTINUOUS
 62
     7
100
AcDbCircle
 10
14.64330705572054
 20
4.560328875771022
 30
0.0
 40
0.5866666666666666
100
AcDbArc
 50
230.2780966476336
 51
252.6732400414183
  0
LINE
  5
B1
330
1F
100
AcDbEntity
  8
0
  6
CONTINUOUS
 62
     7
100
AcDbLine
 10
8.996717112787788
 20
4.230270152733102
 30
0.0
 11
7.576666352677568
 21
6.900997226879372
 31
0.0
  0
LINE
  5
B2
330
1F
100
AcDbEntity
  8
0
  6
CONTINUOUS
 62
     7
100
AcDbLine
 10
6.97525220863843
 20
7.134330735052997
 30
0.0
 11
12.48960214607739
 21
7.134330735052997
 31
0.0
  0
LINE
  5
B3
330
1F
100
AcDbEntity
  8
0
  6
CONTINUOUS
 62
     7
100
AcDbLine
 10
12.48960214607739
 20
7.134330735052997
 30
0.0
 11
13.41806012146497
 21
7.134330735052997
 31
0.0
  0
LINE
  5
B4
330
1F
100
AcDbEntity
  8
0
  6
CONTINUOUS
 62
     7
100
AcDbLine
 10
13.41806012146497
 20
7.134330735052997
 30
0.0
 11
16.95447402946973
 21
7.134330735052997
 31
0.0
  0
LINE
  5
B5
330
1F
100
AcDbEntity
  8
0
  6
CONTINUOUS
 62
     7
100
AcDbLine
 10
16.95447402946973
 20
7.134330735052997
 30
0.0
 11
17.76278851184074
 21
7.134330735052997
 31
0.0
  0
LINE
  5
B6
330
1F
100
AcDbEntity
  8
0
  6
CONTINUOUS
 62
     7
100
AcDbLine
 10
17.76278851184074
 20
7.134330735052997
 30
0.0
 11
18.3085858598632
 21
7.134330735052997
 31
0.0
  0
LINE
  5
B7
330
1F
100
AcDbEntity
  8
0
  6
CONTINUOUS
 62
     7
100
AcDbLine
 10
13.41806012146497
 20
6.900997226879372
 30
0.0
 11
16.95447402946973
 21
6.900997226879372
 31
0.0
  0
LWPOLYLINE
  5
B8
330
1F
100
AcDbEntity
  8
0
  6
CONTINUOUS
 62
     7
100
AcDbPolyline
 90
        4
 70
   128
 43
0.0
 10
13.18627832087699
 20
6.900997226879372
 10
13.23638953519686
 20
5.906003778621926
 10
13.28108507149243
 20
5.01798119688568
 10
13.32575239492281
 20
4.129957323715462
  0
LWPOLYLINE
  5
B9
330
1F
100
AcDbEntity
  8
0
  6
CONTINUOUS
 62
     7
100
AcDbPolyline
 90
       95
 70
   128
 43
0.0
 10
17.6737097675882
 20
4.173768823787942
 10
17.6734721437377
 20
4.173365101660663
 10
17.67132001869701
 20
4.172745213354999
 10
17.66713815681957
 20
4.17208181365865
 10
17.66098854693594
 20
4.171404605552926
 10
17.65284575773103
 20
4.170711403534188
 10
17.64273363106274
 20
4.170004492447152
 10
17.63133881243887
 20
4.169322217946623
 10
17.61819241198721
 20
4.168628022517139
 10
17.60325389854931
 20
4.167919919337208
 10
17.58657413475536
 20
4.167200193251545
 10
17.56822385145051
 20
4.166471228445941
 10
17.54816967003368
 20
4.165731236781055
 10
17.52635595950309
 20
4.164977834071094
 10
17.50285980853263
 20
4.164213603183998
 10
17.47644620888256
 20
4.163401092534636
 10
17.44822619113151
 20
4.162577157661691
 10
17.41811789823396
 20
4.161739116356149
 10
17.38624053947949
 20
4.160889948850249
 10
17.3544180169982
 20
4.160075153356169
 10
17.32105451576733
 20
4.159250821118925
 10
17.28606579455558
 20
4.158414667293802
 10
17.24957821520987
 20
4.157569473430887
 10
17.21173880252067
 20
4.15671802108027
 10
17.17246649417106
 20
4.15585812473831
 10
17.13166433327222
 20
4.154987201537068
 10
17.08948252352897
 20
4.154108331049854
 10
17.04382616035962
 20
4.153178796614582
 10
16.9967273647867
 20
4.15224111621119
 10
16.9480589802347
 20
4.151292408948515
 10
16.89802048358146
 20
4.150336151764168
 10
16.84936878833
 20
4.149423306629434
 10
16.79956076296989
 20
4.148504401689146
 10
16.74847719821159
 20
4.147577052757516
 10
16.69630723946118
 20
4.146644240066781
 10
16.6432559266967
 20
4.145709440554553
 10
16.58920484535718
 20
4.144770170693968
 10
16.53402604413851
 20
4.143823946958159
 10
16.47792535774732
 20
4.142874146943663
 10
16.41818481438184
 20
4.141875371779376
 10
16.35753033312981
 20
4.140873914406075
 10
16.29580137881462
 20
4.139866893932595
 10
16.23325544350171
 20
4.13885848268407
 10
16.17326615008537
 20
4.137902026817574
 10
16.11263710014844
 20
4.136945769633228
 10
16.05122444781486
 20
4.135987525627389
 10
15.98926025383496
 20
4.135031069760893
 10
15.92698373151644
 20
4.134080276335651
 10
15.86425421389763
 20
4.133133059189096
 10
15.80092467618807
 20
4.132187729522958
 10
15.73723671588127
 20
4.131248459662372
 10
15.67015367500806
 20
4.130271837557727
 10
15.60278612129712
 20
4.129305050219471
 10
15.53496159864291
 20
4.128346607531482
 10
15.46696461988314
 20
4.127402072593942
 10
15.40239292137647
 20
4.126521612649534
 10
15.3377671813252
 20
4.125657941346739
 10
15.27293958021029
 20
4.12481115802663
 10
15.20815648389681
 20
4.123986726448312
 10
15.14366425824984
 20
4.123190209711964
 10
15.07931587847893
 20
4.122422601228331
 10
15.01496273033643
 20
4.121685391113534
 10
14.95085117968742
 20
4.120985334560646
 10
14.88397635770663
 20
4.120296503549193
 10
14.81747664762362
 20
4.119659230555469
 10
14.75118515643303
 20
4.119077687904611
 10
14.68538401278679
 20
4.11856031958796
 10
14.62344525012199
 20
4.11813444440104
 10
14.56204451871737
 20
4.117777313237761
 10
14.50104353579704
 20
4.117492800400033
 10
14.44067674629712
 20
4.117286170964812
 10
14.38117144259636
 20
4.117161100551857
 10
14.32238775246167
 20
4.117118483230843
 10
14.26419375094597
 20
4.117159610435738
 10
14.20681514097078
 20
4.117283687437946
 10
14.1476086552225
 20
4.117500847027077
 10
14.08939558022046
 20
4.117803439940388
 10
14.03203365954582
 20
4.118188287263487
 10
13.97577005379224
 20
4.118648733144377
 10
13.92341333382153
 20
4.119150206889087
 10
13.87212949745679
 20
4.119709000433856
 10
13.82180569323722
 20
4.120321636841072
 10
13.7726398085835
 20
4.120981062894438
 10
13.7243950143737
 20
4.121686682547505
 10
13.67736138654573
 20
4.122430647855376
 10
13.63234120361828
 20
4.123195276106769
 10
13.58856755249524
 20
4.123989011293028
 10
13.54370552055859
 20
4.124855861510211
 10
13.50035108877047
 20
4.125747149631752
 10
13.45840253187044
 20
4.126662875657652
 10
13.41804462425732
 20
4.127596979782357
 10
13.39404541008496
 20
4.128179118479664
 10
13.37066807103975
 20
4.128766621595
 10
13.34789114944958
 20
4.129359787151589
 10
13.32575239492281
 20
4.129957323715462
  0
LINE
  5
BA
330
1F
100
AcDbEntity
  8
0
  6
CONTINUOUS
 62
     7
100
AcDbLine
 10
16.95447402946973
 20
6.900997226879372
 30
0.0
 11
17.76278851184074
 21
6.900997226879372
 31
0.0
  0
LINE
  5
BB
330
1F
100
AcDbEntity
  8
0
  6
CONTINUOUS
 62
     7
100
AcDbLine
 10
10.73217667890413
 20
4.185898468340808
 30
0.0
 11
13.32575239492281
 21
4.129957323715462
 31
0.0
  0
LWPOLYLINE
  5
BC
330
1F
100
AcDbEntity
  8
0
  6
CONTINUOUS
 62
     7
100
AcDbPolyline
 90
       48
 70
   128
 43
0.0
 10
10.73217667890413
 20
4.185898468340808
 10
10.67421831441744
 20
4.187154040183002
 10
10.6162718708597
 20
4.188411797528837
 10
10.55843271566255
 20
4.189669554874673
 10
10.50079661362194
 20
4.190925325399016
 10
10.44345853480521
 20
4.192177122280373
 10
10.3847880934956
 20
4.193460708305612
 10
10.32646852486156
 20
4.194739724641417
 10
10.26860056075278
 20
4.196012184466297
 10
10.21128652247611
 20
4.197276100958759
 10
10.15462793660982
 20
4.19852968597946
 10
10.10020949197633
 20
4.199737971470131
 10
10.04644173138165
 20
4.20093652153549
 10
9.993413863110777
 20
4.202123647377266
 10
9.941214499402281
 20
4.203297858879341
 10
9.889932451176877
 20
4.204457665925596
 10
9.838124888666705
 20
4.205636447117105
 10
9.787321664420996
 20
4.206800227806344
 10
9.737611986724768
 20
4.207947418536122
 10
9.689085063863034
 20
4.20907662853139
 10
9.641830104120806
 20
4.210186367676034
 10
9.59736364834332
 20
4.211241071865334
 10
9.554114319412144
 20
4.212277994002277
 10
9.512153444218867
 20
4.213295842652891
 10
9.471552548337212
 20
4.214293525065357
 10
9.432382958658768
 20
4.215269849146778
 10
9.393570798166825
 20
4.216252829080199
 10
9.356301801928115
 20
4.217213655953978
 10
9.320641535051896
 20
4.218151237016295
 10
9.286655165283116
 20
4.219064380174254
 10
9.254407661684584
 20
4.219951992676034
 10
9.224995948402316
 20
4.220783278788502
 10
9.197218793161939
 20
4.221591319089506
 10
9.171120899447034
 20
4.222375318850453
 10
9.146747368105481
 20
4.223134384001666
 10
9.12414310130301
 20
4.223867620473479
 10
9.102734106310435
 20
4.22459569120941
 10
9.083216565378734
 20
4.225296939855192
 10
9.065622665016084
 20
4.225970472341154
 10
9.049985585141408
 20
4.226615692620848
 10
9.036337710945037
 20
4.227231607283528
 10
9.025075611996877
 20
4.227797851408894
 10
9.015670197733468
 20
4.228337372785185
 10
9.008134779858814
 20
4.228849575365955
 10
9.002482670076913
 20
4.229334061786904
 10
8.998726981409614
 20
4.229790136660511
 10
8.996849633781339
 20
4.230230118280028
 10
8.996893542536323
 20
4.230363930707548
  0
LINE
  5
BD
330
1F
100
AcDbEntity
  8
0
  6
CONTINUOUS
 62
     7
100
AcDbLine
 10
14.26839071266674
 20
4.109091128354643
 30
0.0
 11
15.015446720052
 21
4.109091128354643
 31
0.0
  0
LINE
  5
BE
330
1F
100
AcDbEntity
  8
0
  6
CONTINUOUS
 62
     7
100
AcDbLine
 10
12.48960214607739
 20
6.900997226879372
 30
0.0
 11
13.41806012146497
 21
6.900997226879372
 31
0.0
  0
LINE
  5
BF
330
1F
100
AcDbEntity
  8
0
  6
CONTINUOUS
 62
     7
100
AcDbLine
 10
18.3085858598632
 20
7.134330735052997
 30
0.0
 11
18.3085858598632
 21
6.900997226879372
 31
0.0
  0
LINE
  5
C0
330
1F
100
AcDbEntity
  8
0
  6
CONTINUOUS
 62
     7
100
AcDbLine
 10
17.76278851184074
 20
6.900997226879372
 30
0.0
 11
18.3085858598632
 21
6.900997226879372
 31
0.0
  0
LINE
  5
C1
330
1F
100
AcDbEntity
  8
0
  6
CONTINUOUS
 62
     7
100
AcDbLine
 10
6.97525220863843
 20
7.134330735052997
 30
0.0
 11
6.975252175305097
 21
6.900997226879372
 31
0.0
  0
LINE
  5
C2
330
1F
100
AcDbEntity
  8
0
  6
CONTINUOUS
 62
     7
100
AcDbLine
 10
6.975252175305097
 20
6.900997226879372
 30
0.0
 11
12.48960214607739
 21
6.900997226879372
 31
0.0
  0
LINE
  5
C3
330
1F
100
AcDbEntity
  8
0
  6
CONTINUOUS
 62
     7
100
AcDbLine
 10
14.64191871635937
 20
4.000284041410063
 30
0.0
 11
14.46858523043815
 21
4.000284041410063
 31
0.0
  0
LINE
  5
C4
330
1F
100
AcDbEntity
  8
0
  6
CONTINUOUS
 62
     7
100
AcDbLine
 10
14.8152522022806
 20
4.000284041410063
 30
0.0
 11
14.64191871635937
 21
4.000284041410063
 31
0.0
  0
LWPOLYLINE
  5
C5
330
1F
100
AcDbEntity
  8
0
  6
CONTINUOUS
 62
     7
100
AcDbPolyline
 90
       81
 70
   128
 43
0.0
 10
12.48501656207267
 20
6.900997226879372
 10
12.49202606829826
 20
6.894975170935565
 10
12.49969043088777
 20
6.887584194983417
 10
12.50688232732637
 20
6.879737839545185
 10
12.51357513420605
 20
6.871466304307555
 10
12.51974342021171
 20
6.862800583685809
 10
12.52536334348543
 20
6.853774056281025
 10
12.5304138437194
 20
6.844420100694273
 10
12.53487584742728
 20
6.83477487707672
 10
12.53873226794425
 20
6.824874545579527
 10
12.54196880015556
 20
6.814756855811054
 10
12.54457272840364
 20
6.804460749472553
 10
12.54653411858105
 20
6.79402437353668
 10
12.54784621549471
 20
6.783487464433286
 10
12.54850345604443
 20
6.77289055332082
 10
12.54850345604443
 20
6.762273376629128
 10
12.54784621549471
 20
6.75167646551666
 10
12.54653411858105
 20
6.741139556413268
 10
12.54457272840364
 20
6.730703577841694
 10
12.54196880015556
 20
6.720407074138893
 10
12.53873226794425
 20
6.710289384370421
 10
12.53487584742728
 20
6.700389052873228
 10
12.5304138437194
 20
6.690743829255676
 10
12.52536334348543
 20
6.681390271033222
 10
12.51974342021171
 20
6.672363346264138
 10
12.51357513420605
 20
6.663697625642393
 10
12.50688232732637
 20
6.655426090404763
 10
12.49969043088777
 20
6.647579734966531
 10
12.49202606829826
 20
6.640188759014383
 10
12.48391904188021
 20
6.633280978049213
 10
12.47539955132031
 20
6.626883015479023
 10
12.46650057785534
 20
6.621018315797424
 10
12.45725510272208
 20
6.615709926133726
 10
12.4476984913431
 20
6.61097731733856
 10
12.43786730123384
 20
6.606838768169656
 10
12.42779848727408
 20
6.603310173198953
 10
12.41753059380078
 20
6.600404645448302
 10
12.40710216515088
 20
6.59813331111806
 10
12.39655293775423
 20
6.596504912222797
 10
12.38592264804069
 20
6.59552501186269
 10
12.37525222453299
 20
6.595198378409321
 10
12.3645818010253
 20
6.59552501186269
 10
12.35395151131176
 20
6.596504912222797
 10
12.34340228391512
 20
6.59813331111806
 10
12.33297385526522
 20
6.600404645448302
 10
12.32270556442761
 20
6.603310173198953
 10
12.31263714783215
 20
6.606838768169656
 10
12.3028055603586
 20
6.61097731733856
 10
12.29324934634391
 20
6.615709926133726
 10
12.28400387121065
 20
6.621018315797424
 10
12.27510489774569
 20
6.626883015479023
 10
12.26658540718579
 20
6.633280978049213
 10
12.25847838076774
 20
6.640188759014383
 10
12.25081401817822
 20
6.647579734966531
 10
12.24362212173962
 20
6.655426090404763
 10
12.23692931485994
 20
6.663697625642393
 10
12.23076102885429
 20
6.672363346264138
 10
12.22514110558056
 20
6.681390271033222
 10
12.2200906053466
 20
6.690743829255676
 10
12.21562860163871
 20
6.700389052873228
 10
12.21177218112174
 20
6.710289384370421
 10
12.20853564891044
 20
6.720407074138893
 10
12.20593172066235
 20
6.730703577841694
 10
12.20397033048494
 20
6.741139556413268
 10
12.20265823357129
 20
6.75167646551666
 10
12.20200099302156
 20
6.762273376629128
 10
12.20200099302156
 20
6.77289055332082
 10
12.20265823357129
 20
6.783487464433286
 10
12.20397033048494
 20
6.79402437353668
 10
12.20593172066235
 20
6.804460749472553
 10
12.20853564891044
 20
6.814756855811054
 10
12.21177218112174
 20
6.824874545579527
 10
12.21562860163871
 20
6.83477487707672
 10
12.2200906053466
 20
6.844420100694273
 10
12.22514110558056
 20
6.853774056281025
 10
12.23076102885429
 20
6.862800583685809
 10
12.23692931485994
 20
6.871466304307555
 10
12.24362212173962
 20
6.879737839545185
 10
12.25081401817822
 20
6.887584194983417
 10
12.25847838076774
 20
6.894975170935565
 10
12.26548788699332
 20
6.900997226879372
  0
ARC
  5
C6
330
1F
100
AcDbEntity
  8
0
  6
CONTINUOUS
 62
     7
100
AcDbCircle
 10
12.375252224533
 20
6.770761759178918
 30
0.0
 40
0.1733434496437019
100
AcDbArc
 50
180.7055501862377
 51
359.2944498134745
  0
LINE
  5
C7
330
1F
100
AcDbEntity
  8
0
  6
CONTINUOUS
 62
     7
100
AcDbLine
 10
16.95447402946973
 20
7.134330735052997
 30
0.0
 11
16.95447402946973
 21
6.900997226879372
 31
0.0
  0
LINE
  5
C8
330
1F
100
AcDbEntity
  8
0
  6
CONTINUOUS
 62
     7
100
AcDbLine
 10
13.41806012146497
 20
7.134330735052997
 30
0.0
 11
13.41806012146497
 21
6.900997226879372
 31
0.0
  0
LINE
  5
C9
330
1F
100
AcDbEntity
  8
0
  6
CONTINUOUS
 62
     7
100
AcDbLine
 10
17.76278851184074
 20
7.134330735052997
 30
0.0
 11
17.76278851184074
 21
6.900997226879372
 31
0.0
  0
LINE
  5
CA
330
1F
100
AcDbEntity
  8
0
  6
CONTINUOUS
 62
     7
100
AcDbLine
 10
12.48960214607739
 20
7.134330735052997
 30
0.0
 11
12.48960214607739
 21
6.900997226879372
 31
0.0
  0
LINE
  5
CB
330
1F
100
AcDbEntity
  8
0
  6
CONTINUOUS
 62
     7
100
AcDbLine
 10
10.73217667890413
 20
4.185898468340808
 30
0.0
 11
9.573901670702536
 21
6.900997226879372
 31
0.0
  0
ARC
  5
14E
330
1F
100
AcDbEntity
  8
MEASUREMENT
 62
     8
100
AcDbCircle
 10
9.479156349424327
 20
14.01878146453334
 30
0.0
 40
1.999038123002358
100
AcDbArc
 50
89.99978178316116
 51
269.9997817831603
  0
ARC
  5
14F
330
1F
100
AcDbEntity
  8
MEASUREMENT
 62
     8
100
AcDbCircle
 10
10.7027453712423
 20
14.02034784982571
 30
0.0
 40
1.693933488350212
100
AcDbArc
 50
89.71146954129462
 51
270.7342739279722
  0
ARC
  5
150
330
1F
100
AcDbEntity
  8
MEASUREMENT
 62
     8
100
AcDbCircle
 10
15.32384105663619
 20
13.53544338241988
 30
0.0
 40
2.331697734390714
100
AcDbArc
 50
269.6251302954834
 51
90.37486970451579
  0
ARC
  5
151
330
1F
100
AcDbEntity
  8
MEASUREMENT
 62
     8
100
AcDbCircle
 10
15.30183531912236
 20
13.51865988076858
 30
0.0
 40
2.599287061942747
100
AcDbArc
 50
270.1487945369454
 51
90.1487945369463
  0
POINT
  5
152
330
1F
100
AcDbEntity
  8
MEASUREMENT
 62
    27
100
AcDbPoint
 10
17.65547927204602
 20
13.51878334030856
 30
0.0
  0
POINT
  5
153
330
1F
100
AcDbEntity
  8
MEASUREMENT
 62
    27
100
AcDbPoint
 10
9.008812605379242
 20
14.01878334033935
 30
0.0
  0
POINT
  5
154
330
1F
100
AcDbEntity
  8
MEASUREMENT
 62
    27
100
AcDbPoint
 10
17.90754880638819
 20
13.5185008192808
 30
0.0
  0
POINT
  5
155
330
1F
100
AcDbEntity
  8
MEASUREMENT
 62
    27
100
AcDbPoint
 10
15.29508509627296
 20
16.11793817769533
 30
0.0
  0
POINT
  5
156
330
1F
100
AcDbEntity
  8
MEASUREMENT
 62
    27
100
AcDbPoint
 10
15.30858554197176
 20
10.91938158384183
 30
0.0
  0
POINT
  5
157
330
1F
100
AcDbEntity
  8
MEASUREMENT
 62
    27
100
AcDbPoint
 10
7.479046284580267
 20
14.01876735364155
 30
0.0
  0
LWPOLYLINE
  5
158
330
1F
100
AcDbEntity
  8
0
  6
CONTINUOUS
 62
     7
100
AcDbPolyline
 90
       94
 70
   128
 43
0.0
 10
10.72445350639843
 20
12.32655343359058
 10
10.66721278183483
 20
12.32737756714568
 10
10.60998358083589
 20
12.3301058704192
 10
10.55286087346895
 20
12.33473039612517
 10
10.49593804034415
 20
12.34124399170622
 10
10.43931044889314
 20
12.34963870987639
 10
10.38136638952119
 20
12.36024436300342
 10
10.32376883181754
 20
12.37283723498727
 10
10.26661771290325
 20
12.38739348397002
 10
10.21001336726371
 20
12.40388767863656
 10
10.15405632806642
 20
12.4222947850361
 10
10.1003118132832
 20
12.44201796199227
 10
10.0472100352528
 20
12.46353881503487
 10
9.994838215438761
 20
12.48681959455554
 10
9.943284370033181
 20
12.51182334567452
 10
9.892635521817441
 20
12.53851112669055
 10
9.841469106602904
 20
12.56773727084542
 10
9.79129332058453
 20
12.59873367295011
 10
9.742196179954445
 20
12.63144350990995
 10
9.694265502222611
 20
12.66580995863025
 10
9.647589303581151
 20
12.70177699074491
 10
9.6036308780593
 20
12.73810085599963
 10
9.560874479540423
 20
12.77590530063057
 10
9.519390242823197
 20
12.81512475952848
 10
9.479248700070613
 20
12.8556952570413
 10
9.440519787399205
 20
12.89755242015267
 10
9.402143932907019
 20
12.94197695399666
 10
9.365291175770991
 20
12.98774140025521
 10
9.330025690325332
 20
13.03476191506132
 10
9.29641165090425
 20
13.08295584664091
 10
9.264513430524104
 20
13.13224014585559
 10
9.235387422172458
 20
13.18079766576831
 10
9.207877097058524
 20
13.2303430333271
 10
9.182026562619437
 20
13.28079240466499
 10
9.157880124974479
 20
13.33206193591499
 10
9.135482487607232
 20
13.38406798189227
 10
9.114265220888682
 20
13.43836125677173
 10
9.094916957148143
 20
13.49340376203601
 10
9.07746968421164
 20
13.54909675265694
 10
9.061955588587352
 20
13.60534088755989
 10
9.048407055465606
 20
13.66203742171669
 10
9.037210521626697
 20
13.71713992899005
 10
9.027851400304067
 20
13.77263185327594
 10
9.020342605837409
 20
13.82842060869281
 10
9.014697449930732
 20
13.88441301331266
 10
9.010929442970182
 20
13.94051608388964
 10
9.009018518058683
 20
13.99836239164416
 10
9.009099381693427
 20
14.05629174853707
 10
9.011168656277877
 20
14.11420163457934
 10
9.015223162897649
 20
14.17198952978198
 10
9.021259722638351
 20
14.22955231810951
 10
9.028985478011987
 20
14.28498503511493
 10
9.038560765513006
 20
14.3401755585804
 10
9.049966710337224
 20
14.39503328944588
 10
9.063184238998317
 20
14.4494668339227
 10
9.078194476692102
 20
14.50338539426867
 10
9.095513798324486
 20
14.55831743225797
 10
9.114721792467655
 20
14.6126715038751
 10
9.135781106877546
 20
14.66635383114561
 10
9.15865458799225
 20
14.71927023873075
 10
9.183304684885561
 20
14.77132674997394
 10
9.20893170190674
 20
14.82102371201261
 10
9.236217913556318
 20
14.86988213604037
 10
9.265115040072023
 20
14.91782364194934
 10
9.295574801691591
 20
14.96476935292626
 10
9.3275487199706
 20
15.01064059084002
 10
9.362020867594299
 20
15.05669868931516
 10
9.398074922490337
 20
15.10159320578321
 10
9.435645120867309
 20
15.14524903839175
 10
9.474665301569517
 20
15.18759098594729
 10
9.515069502123413
 20
15.22854384725635
 10
9.555777090319214
 20
15.26711192672793
 10
9.59777531775655
 20
15.30433979576175
 10
9.640992460179544
 20
15.34016943917021
 10
9.685356793332314
 20
15.37454304044788
 10
9.730796592958984
 20
15.40740268374825
 10
9.778652168838396
 20
15.4396129344438
 10
9.827617185839232
 20
15.47020392562295
 10
9.877604621180113
 20
15.49912707950021
 10
9.928527650761816
 20
15.52633352026686
 10
9.980299251802975
 20
15.55177457079634
 10
10.03172454985798
 20
15.57493147199695
 10
10.08393106612385
 20
15.59638983950361
 10
10.13683177781921
 20
15.61611857955997
 10
10.19033966216267
 20
15.63408659840966
 10
10.24436769637288
 20
15.65026270295525
 10
10.30047096563201
 20
15.66502399191603
 10
10.35709180188995
 20
15.67788250193343
 10
10.4141310627542
 20
15.68882074897831
 10
10.47149139397165
 20
15.69782105033939
 10
10.52907345446766
 20
15.70486577297593
 10
10.58967786781809
 20
15.71014957572366
 10
10.65044996890248
 20
15.71328249519413
 10
10.71127571416716
 20
15.71425986235683
  0
LWPOLYLINE
  5
159
330
1F
100
AcDbEntity
  8
0
  6
CONTINUOUS
 62
     7
100
AcDbPolyline
 90
      104
 70
   128
 43
0.0
 10
9.479164061475009
 20
16.01781956300481
 10
9.415618158904919
 20
16.01682322169685
 10
9.352136033304741
 20
16.0138074750239
 10
9.288365421223851
 20
16.00873293424987
 10
9.224773424395134
 20
16.00161738142712
 10
9.161458390482476
 20
15.99247124736848
 10
9.098751522628678
 20
15.98135423605981
 10
9.036431091555169
 20
15.9682425056432
 10
8.972007808613987
 20
15.95247916326267
 10
8.908125934529515
 20
15.93457944140179
 10
8.844891565569453
 20
15.91457309271239
 10
8.780520337351374
 20
15.89179040933989
 10
8.71696569276672
 20
15.86682008649253
 10
8.666305519668473
 20
15.84508475606981
 10
8.616254704721981
 20
15.82195557102902
 10
8.566870369045151
 20
15.79745930378976
 10
8.507529872187191
 20
15.76571729724946
 10
8.449242887425636
 20
15.73196557109895
 10
8.392105775602869
 20
15.69626551812234
 10
8.336214996902359
 20
15.65867838209214
 10
8.281666713484341
 20
15.61926570480409
 10
8.236427086123043
 20
15.58438377524756
 10
8.192191101638689
 20
15.54821925307654
 10
8.149012205529425
 20
15.51081654375138
 10
8.108287630009865
 20
15.47349022771261
 10
8.068598983216501
 20
15.43504930481655
 10
8.029991067973986
 20
15.39553748513602
 10
7.984362222282305
 20
15.34588174964331
 10
7.940392571219023
 20
15.29467559799892
 10
7.898153739698942
 20
15.24200794046464
 10
7.857717352636871
 20
15.18796808466655
 10
7.819155233629761
 20
15.13264504020753
 10
7.787901140777485
 20
15.08468605026943
 10
7.758022623785553
 20
15.03584451422435
 10
7.729556637533724
 20
14.986179937376
 10
7.703383244602104
 20
14.93738330349666
 10
7.678563920188167
 20
14.88787240729076
 10
7.65512762221517
 20
14.83770387317083
 10
7.63294093561989
 20
14.78654898152095
 10
7.612184512146532
 20
14.73478552644791
 10
7.592883286404829
 20
14.68247350996079
 10
7.574676451611738
 20
14.62847984776241
 10
7.558013724812091
 20
14.57397775794409
 10
7.542916166313709
 20
14.51903360034369
 10
7.529300677307666
 20
14.46326729600968
 10
7.51729307326498
 20
14.40712051535986
 10
7.506908950734361
 20
14.35066319451076
 10
7.498467343576972
 20
14.2961456074848
 10
7.491537061858398
 20
14.24140470172308
 10
7.48612649989945
 20
14.18650345946691
 10
7.48159197720709
 20
14.11929723566117
 10
7.479334401615682
 20
14.05191795970343
 10
7.479353773125238
 20
13.98448166196885
 10
7.48165004206521
 20
13.91710377678615
 10
7.486223158765064
 20
13.84990013584834
 10
7.49189399433953
 20
13.7929900183811
 10
7.499197848169236
 20
13.73625454252304
 10
7.508125183511006
 20
13.67976384307287
 10
7.518232641148793
 20
13.62572567607305
 10
7.529828277755012
 20
13.57197639291825
 10
7.542898284920283
 20
13.51857738639257
 10
7.560845690496991
 20
13.45391190991146
 10
7.580975917506446
 20
13.38983254577063
 10
7.603250123588471
 20
13.32644638364853
 10
7.62762931737128
 20
13.26385991717718
 10
7.654074606824151
 20
13.20218003735286
 10
7.678138790059321
 20
13.15054830854478
 10
7.703667161393395
 20
13.09961137121262
 10
7.73062813036465
 20
13.04943141286912
 10
7.758088337906432
 20
13.00158636714361
 10
7.786860145656497
 20
12.95450585032843
 10
7.816910522707534
 20
12.90824350660386
 10
7.855304953980679
 20
12.85292205160203
 10
7.895570871758694
 20
12.79887613599839
 10
7.937637048491074
 20
12.74619476939581
 10
7.981432256627314
 20
12.69496696139715
 10
8.026885467299059
 20
12.64528172160529
 10
8.066760378607348
 20
12.60432895963731
 10
8.107794103551146
 20
12.56452060684902
 10
8.149936971593138
 20
12.52590553904913
 10
8.191796320208149
 20
12.48965995456122
 10
8.234648980228342
 20
12.45457705801072
 10
8.278446075845
 20
12.42069817528469
 10
8.333166716027495
 20
12.38100068713568
 10
8.389245845405495
 20
12.34314299568874
 10
8.446585811702647
 20
12.30718708977444
 10
8.505089161324738
 20
12.27319535558763
 10
8.564658241995411
 20
12.24123097405178
 10
8.616059896874663
 20
12.21569157585842
 10
8.668184655436116
 20
12.19163355176988
 10
8.720968144663412
 20
12.16908789620144
 10
8.772363441713887
 20
12.14883066162808
 10
8.824309485682091
 20
12.12999956752204
 10
8.876746671923241
 20
12.11261607155544
 10
8.941393670964478
 20
12.09337529485765
 10
9.006710626212992
 20
12.07631803498013
 10
9.07258448752586
 20
12.06146972323798
 10
9.138902999488751
 20
12.04885539358202
 10
9.205552913276592
 20
12.03850007996304
 10
9.262387531527121
 20
12.03148540800158
 10
9.319411692548033
 20
12.02610151912116
 10
9.376554864176352
 20
12.02235477115058
 10
9.427818236279724
 20
12.02039099678738
 10
9.479148762949545
 20
12.01974329298082
  0
LINE
  5
15A
330
1F
100
AcDbEntity
  8
0
  6
CONTINUOUS
 62
     7
100
AcDbLine
 10
10.72445350639843
 20
12.32655343359058
 30
0.0
 11
13.33609936389152
 21
12.33246899590241
 31
0.0
  0
LWPOLYLINE
  5
15B
330
1F
100
AcDbEntity
  8
0
  6
CONTINUOUS
 62
     7
100
AcDbPolyline
 90
        7
 70
   128
 43
0.0
 10
13.18565644574984
 20
12.02033337896412
 10
12.88900532079561
 20
12.0201279416218
 10
12.59234545382682
 20
12.02006078705535
 10
12.29568479212943
 20
12.02005363449798
 10
11.40569088610831
 20
12.02001628225391
 10
10.44241942716463
 20
12.01991296753629
 10
9.479148762949545
 20
12.01974329298082
  0
LINE
  5
15C
330
1F
100
AcDbEntity
  8
0
  6
CONTINUOUS
 62
     7
100
AcDbLine
 10
13.18565644574984
 20
12.02033337896412
 30
0.0
 11
13.33609936389152
 21
12.33246899590241
 31
0.0
  0
LWPOLYLINE
  5
15D
330
1F
100
AcDbEntity
  8
0
  6
CONTINUOUS
 62
     7
100
AcDbPolyline
 90
      103
 70
   128
 43
0.0
 10
12.37525222453299
 20
12.03899201696461
 10
12.38592264804069
 20
12.03902658765858
 10
12.39655293775423
 20
12.03912950501189
 10
12.40710216515088
 20
12.03930076902455
 10
12.41753059380078
 20
12.03953958496795
 10
12.42779848727408
 20
12.0398447607492
 10
12.43786730123384
 20
12.0402155016397
 10
12.4476984913431
 20
12.04065061554656
 10
12.45725510272208
 20
12.04114811564829
 10
12.46650057785534
 20
12.04170601512339
 10
12.47539955132031
 20
12.04232232715036
 10
12.48391904188021
 20
12.04299466754343
 10
12.49202606829826
 20
12.04372104948109
 10
12.49969043088777
 20
12.04449789668466
 10
12.50688232732637
 20
12.04532242760406
 10
12.51357513420605
 20
12.04619186068918
 10
12.51974342021171
 20
12.04710261966135
 10
12.52536334348543
 20
12.04805112824187
 10
12.5304138437194
 20
12.04903460488067
 10
12.53487584742728
 20
12.05004828120615
 10
12.53873226794425
 20
12.05108858093963
 10
12.54196880015556
 20
12.05215232516672
 10
12.54457272840364
 20
12.05323434815154
 10
12.54653411858105
 20
12.05433107361541
 10
12.54784621549471
 20
12.05543852791533
 10
12.54850345604443
 20
12.05655234004404
 10
12.54850345604443
 20
12.05766853635853
 10
12.54784621549471
 20
12.05878234848723
 10
12.54653411858105
 20
12.05988980278716
 10
12.54457272840364
 20
12.06098652825103
 10
12.54196880015556
 20
12.06206855123585
 10
12.53873226794425
 20
12.06313229546294
 10
12.53487584742728
 20
12.06417259519642
 10
12.5304138437194
 20
12.0651862715219
 10
12.52536334348543
 20
12.06616974816069
 10
12.51974342021171
 20
12.06711825674122
 10
12.51357513420605
 20
12.06802901571339
 10
12.50688232732637
 20
12.06889844879851
 10
12.49969043088777
 20
12.0697233770822
 10
12.49202606829826
 20
12.07049982692148
 10
12.48391904188021
 20
12.07122620885914
 10
12.47539955132031
 20
12.07189854925221
 10
12.46650057785534
 20
12.07251486127919
 10
12.45725510272208
 20
12.07307276075428
 10
12.4476984913431
 20
12.07357026085601
 10
12.43786730123384
 20
12.07400537476287
 10
12.42779848727408
 20
12.07437611565337
 10
12.41753059380078
 20
12.07468129143462
 10
12.40710216515088
 20
12.07492010737802
 10
12.39655293775423
 20
12.07509137139068
 10
12.38592264804069
 20
12.07519428874399
 10
12.37525222453299
 20
12.07522885943796
 10
12.3645818010253
 20
12.07519428874399
 10
12.35395151131176
 20
12.07509137139068
 10
12.34340228391512
 20
12.07492010737802
 10
12.33297385526522
 20
12.07468129143462
 10
12.32270556442761
 20
12.07437611565337
 10
12.31263714783215
 20
12.07400537476287
 10
12.3028055603586
 20
12.07357026085601
 10
12.29324934634391
 20
12.07307276075428
 10
12.28400387121065
 20
12.07251486127919
 10
12.27510489774569
 20
12.07189854925221
 10
12.26658540718579
 20
12.07122620885914
 10
12.25847838076774
 20
12.07049982692148
 10
12.25081401817822
 20
12.0697233770822
 10
12.24362212173962
 20
12.06889844879851
 10
12.23692931485994
 20
12.06802901571339
 10
12.23076102885429
 20
12.06711825674122
 10
12.22514110558056
 20
12.06616974816069
 10
12.2200906053466
 20
12.0651862715219
 10
12.21562860163871
 20
12.06417259519642
 10
12.21177218112174
 20
12.06313229546294
 10
12.20853564891044
 20
12.06206855123585
 10
12.20593172066235
 20
12.06098652825103
 10
12.20397033048494
 20
12.05988980278716
 10
12.20265823357129
 20
12.05878234848723
 10
12.20200099302156
 20
12.05766853635853
 10
12.20200099302156
 20
12.05655234004403
 10
12.20265823357129
 20
12.05543852791533
 10
12.20397033048494
 20
12.05433107361541
 10
12.20593172066235
 20
12.05323434815154
 10
12.20853564891044
 20
12.05215232516672
 10
12.21177218112174
 20
12.05108858093963
 10
12.21562860163871
 20
12.05004828120614
 10
12.2200906053466
 20
12.04903460488066
 10
12.22514110558056
 20
12.04805112824187
 10
12.23076102885429
 20
12.04710261966134
 10
12.23692931485994
 20
12.04619186068918
 10
12.24362212173962
 20
12.04532242760405
 10
12.25081401817822
 20
12.04449789668466
 10
12.25847838076774
 20
12.04372104948109
 10
12.26658540718579
 20
12.04299466754342
 10
12.27510489774569
 20
12.04232232715036
 10
12.28400387121065
 20
12.04170601512338
 10
12.29324934634391
 20
12.04114811564828
 10
12.3028055603586
 20
12.04065061554656
 10
12.31263714783215
 20
12.0402155016397
 10
12.32270556442761
 20
12.0398447607492
 10
12.33297385526522
 20
12.03953958496795
 10
12.34340228391512
 20
12.03930076902455
 10
12.35395151131176
 20
12.03912950501189
 10
12.3645818010253
 20
12.03902658765858
 10
12.37525222453299
 20
12.03899201696461
  0
LWPOLYLINE
  5
15E
330
1F
100
AcDbEntity
  8
0
  6
CONTINUOUS
 62
     7
100
AcDbPolyline
 90
        9
 70
   128
 43
0.0
 10
9.479164061475009
 20
16.01781956300481
 10
10.4276668802184
 20
16.01765237197622
 10
11.37617148710112
 20
16.01755039836312
 10
12.18841788920582
 20
16.01751413887089
 10
12.59454089157602
 20
16.01748135631626
 10
13.00066389394622
 20
16.01747991587068
 10
13.39904147141
 20
16.01754314646469
 10
13.79741865150949
 20
16.01757866089887
 10
14.59417460116566
 20
16.01759351238953
  0
LWPOLYLINE
  5
15F
330
1F
100
AcDbEntity
  8
0
  6
CONTINUOUS
 62
     7
100
AcDbPolyline
 90
      157
 70
   128
 43
0.0
 10
13.18565644574984
 20
12.02033337896412
 10
13.22781441363517
 20
11.96221527402943
 10
13.27159561467989
 20
11.90525628075348
 10
13.31694680206799
 20
11.8495207721526
 10
13.36381433161918
 20
11.79507192915028
 10
13.41214495651746
 20
11.74197293266998
 10
13.46186993273918
 20
11.69028736099945
 10
13.51299919439181
 20
11.63999097491648
 10
13.56712815913383
 20
11.58965286558217
 10
13.6226792907002
 20
11.54086606646921
 10
13.67958583188875
 20
11.49369018222239
 10
13.73910941434725
 20
11.44717153852529
 10
13.79996098829134
 20
11.40240368192739
 10
13.85884878787224
 20
11.36160628940013
 10
13.91888735446159
 20
11.32242179856048
 10
13.98000675194287
 20
11.28489233002411
 10
14.04213624947095
 20
11.24905920967804
 10
14.10520511620069
 20
11.21496495550222
 10
14.16914262128695
 20
11.18265089338369
 10
14.23568127307121
 20
11.15133262619721
 10
14.30310684196973
 20
11.12189905787852
 10
14.37133826566561
 20
11.09438436175731
 10
14.44029289238477
 20
11.06882191643463
 10
14.51184151324455
 20
11.04461209918406
 10
14.584063269226
 20
11.02249202077932
 10
14.65318876259351
 20
11.00344992623078
 10
14.72286818179314
 20
10.98631279612926
 10
14.79301966977938
 20
10.971096922411
 10
14.86356295896395
 20
10.95781859701223
 10
14.93441937121574
 20
10.94649411186921
 10
15.00550704948926
 20
10.93713936155386
 10
15.07872301094556
 20
10.92958705569652
 10
15.15215195966586
 20
10.92410938884166
 10
15.22570727023308
 20
10.92071152672517
 10
15.29929993304436
 20
10.91939903244721
 10
15.37489531192009
 20
10.92022316600231
 10
15.45043505979403
 20
10.92324591622102
 10
15.52199957522575
 20
10.92814939166454
 10
15.59345600756828
 20
10.93503492022899
 10
15.66472249977613
 20
10.94389137571402
 10
15.73571798953239
 20
10.95470723455496
 10
15.80636141452019
 20
10.96747176791576
 10
15.87657091769401
 20
10.98217305486747
 10
15.94819424304191
 20
10.9992815747395
 10
16.01933198921705
 20
11.01842062617687
 10
16.08989991498812
 20
11.0395651752288
 10
16.15981218966667
 20
11.06269177740165
 10
16.23090860995476
 20
11.08850058858939
 10
16.30122460676058
 20
11.11636734947908
 10
16.3671386018676
 20
11.14468273466178
 10
16.43229522062166
 20
11.17483314817496
 10
16.49661975853467
 20
11.20678004568168
 10
16.56003989530428
 20
11.24048686966646
 10
16.62248331062817
 20
11.27591547315665
 10
16.68387609474683
 20
11.3130289012725
 10
16.74580611539705
 20
11.35288096413363
 10
16.80660603198234
 20
11.39448897982983
 10
16.86620352420036
 20
11.43780049627372
 10
16.92452786120598
 20
11.48276465083508
 10
16.98308346423332
 20
11.53064824089754
 10
17.0402220661722
 20
11.58021466876416
 10
17.09306833895866
 20
11.62876344666232
 10
17.14458820971672
 20
11.67879598285108
 10
17.19472525271598
 20
11.73025227532137
 10
17.24342383695467
 20
11.78307232206413
 10
17.29062833143099
 20
11.83719572370597
 10
17.33628072095736
 20
11.89256247823784
 10
17.38153495145662
 20
11.95069687510877
 10
17.4251401201171
 20
12.01011515602816
 10
17.46704536430859
 20
12.07074460332939
 10
17.50719902667228
 20
12.13251170461723
 10
17.54660405469758
 20
12.19711876854647
 10
17.58411286029044
 20
12.26284520770459
 10
17.61787054690543
 20
12.32610639875481
 10
17.64989254626456
 20
12.39032404567152
 10
17.68014706922395
 20
12.4554242386952
 10
17.70859914772534
 20
12.52133147860914
 10
17.73521540316764
 20
12.58797185565381
 10
17.75996404640697
 20
12.65527026797681
 10
17.78342284513338
 20
12.72503551786491
 10
17.80490753802481
 20
12.79546516086011
 10
17.82439269376618
 20
12.86647336627393
 10
17.84185367577099
 20
12.93797629023939
 10
17.85767036430859
 20
13.01189876541842
 10
17.87133174889111
 20
13.08624959931125
 10
17.88229502988679
 20
13.15721369728793
 10
17.89129692070507
 20
13.22850820367882
 10
17.89833026878856
 20
13.30005165880272
 10
17.9033879215799
 20
13.3717616095677
 10
17.90646193179312
 20
13.44355659629255
 10
17.90754673632803
 20
13.51535396720319
 10
17.90658829364004
 20
13.58906643535047
 10
17.90353653582754
 20
13.6627516840433
 10
17.89839782071931
 20
13.73632070367882
 10
17.89117532722972
 20
13.80968468333631
 10
17.88159010562124
 20
13.8848002448216
 10
17.86981938037099
 20
13.95960447137902
 10
17.85666264844757
 20
14.03010126894066
 10
17.84155008944692
 20
14.10026070421288
 10
17.82450316104116
 20
14.17000390038241
 10
17.80554252617381
 20
14.23925118590742
 10
17.78468884778839
 20
14.30792328661034
 10
17.76196278882843
 20
14.37594132567792
 10
17.73668485634349
 20
14.44508231625308
 10
17.70944791786692
 20
14.51350725636233
 10
17.68028614672841
 20
14.58113448764234
 10
17.64923371625763
 20
14.64788215304761
 10
17.61538543058258
 20
14.71549527789502
 10
17.57958608620188
 20
14.782096117192
 10
17.54382568352244
 20
14.84432038610527
 10
17.50633038831574
 20
14.9055789604321
 10
17.46714629484039
 20
14.96580418890068
 10
17.42631949735504
 20
15.02492792353381
 10
17.38389450066111
 20
15.08288231437751
 10
17.33991898847442
 20
15.13959931279569
 10
17.29316272092682
 20
15.19653247739225
 10
17.24479474378448
 20
15.25214172348727
 10
17.194873072235
 20
15.30636128728935
 10
17.14345890038035
 20
15.35912510698387
 10
17.08911694837432
 20
15.41178014820167
 10
17.03326819094838
 20
15.46283381129651
 10
16.97877126686594
 20
15.50987717454978
 10
16.92295668276967
 20
15.5554166132743
 10
16.8658927853189
 20
15.59940156286308
 10
16.8076431528014
 20
15.64178185607342
 10
16.74827533714792
 20
15.68250712698051
 10
16.68786642703236
 20
15.72152820175239
 10
16.62640211733998
 20
15.75886370684056
 10
16.56199492765288
 20
15.79554922327745
 10
16.49655618024688
 20
15.83039116805144
 10
16.43016375852447
 20
15.86334727153528
 10
16.36136569333892
 20
15.89505863135406
 10
16.29167276375314
 20
15.92475197658289
 10
16.22490443540435
 20
15.95098095084576
 10
16.15738588325998
 20
15.97537181720483
 10
16.08919340126535
 20
15.99789979006199
 10
16.02040566755156
 20
16.0185399348075
 10
15.95110136024973
 20
16.0372674161727
 10
15.88135915749093
 20
16.05405734921841
 10
15.80930508924346
 20
16.06927650119213
 10
15.73681948336781
 20
16.0824512635206
 10
15.66398976000965
 20
16.09356683438368
 10
15.59090333931467
 20
16.10260833745547
 10
15.51559406273386
 20
16.10973089382398
 10
15.44010915113311
 20
16.11465617463338
 10
15.37010389320871
 20
16.11724897668111
 10
15.30000406258127
 20
16.11794861103443
 10
15.2298843637389
 20
16.11675738737332
 10
15.15982268008412
 20
16.11367756570724
 10
15.08989451083363
 20
16.10871135637509
 10
15.02017773938994
 20
16.10186106905686
 10
14.9489120419107
 20
16.09287919546512
 10
14.8778958892109
 20
16.0819238617554
 10
14.80720954887888
 20
16.06900877699601
 10
14.73693487796009
 20
16.05414765025523
 10
14.66529486331165
 20
16.03688405896571
 10
14.59417460116566
 20
16.01759351238953
  0
LINE
  5
160
330
1F
100
AcDbEntity
  8
0
  6
CONTINUOUS
 62
     7
100
AcDbLine
 10
6.975252208638398
 20
16.51878334030848
 30
0.0
 11
6.97525220863843
 21
11.51878334030848
 31
0.0
  0
LINE
  5
161
330
1F
100
AcDbEntity
  8
0
  6
CONTINUOUS
 62
     7
100
AcDbLine
 10
6.97525220863843
 20
11.51878334030848
 30
0.0
 11
12.48960214607739
 21
11.51878334030852
 31
0.0
  0
LINE
  5
162
330
1F
100
AcDbEntity
  8
0
  6
CONTINUOUS
 62
     7
100
AcDbLine
 10
17.76278851184074
 20
11.25211653059075
 30
0.0
 11
18.3085858598632
 21
11.25211653059075
 31
0.0
  0
LINE
  5
163
330
1F
100
AcDbEntity
  8
0
  6
CONTINUOUS
 62
     7
100
AcDbLine
 10
18.3085858598632
 20
11.25211653059075
 30
0.0
 11
18.30858585986317
 21
16.51878334030857
 31
0.0
  0
LINE
  5
164
330
1F
100
AcDbEntity
  8
0
  6
CONTINUOUS
 62
     7
100
AcDbLine
 10
18.30858585986317
 20
16.51878334030857
 30
0.0
 11
6.975252208638398
 21
16.51878334030848
 31
0.0
  0
ARC
  5
165
330
1F
100
AcDbEntity
  8
0
  6
CONTINUOUS
 62
     7
100
AcDbCircle
 10
17.76278661762866
 20
9.778796150229821
 30
0.0
 40
1.473321731768187
100
AcDbArc
 50
89.99992633628101
 51
123.273266002028
  0
ARC
  5
166
330
1F
100
AcDbEntity
  8
0
  6
CONTINUOUS
 62
     7
100
AcDbCircle
 10
12.4896368349311
 20
10.04550312226761
 30
0.0
 40
1.473280218449292
100
AcDbArc
 50
50.93701895051022
 51
90.0013490474444
  0
ARC
  5
167
330
1F
100
AcDbEntity
  8
0
  6
CONTINUOUS
 62
     7
100
AcDbCircle
 10
15.30858595559573
 20
13.51878501287063
 30
0.0
 40
3.000001492725961
100
AcDbArc
 50
230.9369677217738
 51
303.2730132167792
  0
LINE
  5
168
330
1F
100
AcDbEntity
  8
0
  6
CONTINUOUS
 62
     7
100
AcDbLine
 10
14.59417460116566
 20
16.01759351238953
 30
0.0
 11
14.52494420362334
 21
15.71033390308765
 31
0.0
  0
LWPOLYLINE
  5
169
330
1F
100
AcDbEntity
  8
0
  6
CONTINUOUS
 62
     7
100
AcDbPolyline
 90
      154
 70
   128
 43
0.0
 10
14.52494420362334
 20
15.71033390308765
 10
14.58563365293365
 20
15.73174801414557
 10
14.64692868543487
 20
15.75148490017005
 10
14.70875777555328
 20
15.76952394788809
 10
14.77104939771514
 20
15.7858444943562
 10
14.83373282107533
 20
15.80042577728975
 10
14.89786582939646
 20
15.81346364761738
 10
14.96237871798695
 20
15.82469748402981
 10
15.0271943981729
 20
15.83411616032668
 10
15.09223657600901
 20
15.8417085006371
 10
15.15742816282134
 20
15.8474633787607
 10
15.22501903526804
 20
15.85148152654716
 10
15.292698122589
 20
15.85353118126937
 10
15.3697605704548
 20
15.85346030141263
 10
15.44684288653553
 20
15.85083233262448
 10
15.52381711952707
 20
15.84565571889628
 10
15.60055611285389
 20
15.83793905323097
 10
15.67693509412627
 20
15.82769082929044
 10
15.7419693246764
 20
15.81691455786774
 10
15.80669758471669
 20
15.80429491346428
 10
15.87104278557321
 20
15.78984823768684
 10
15.93492704384348
 20
15.77359077280113
 10
16.00003836306752
 20
15.75501279975324
 10
16.0645814513447
 20
15.73454824035713
 10
16.12535911552927
 20
15.71335789506981
 10
16.18556139620961
 20
15.69047994360674
 10
16.24512074145497
 20
15.66594269817421
 10
16.30396721514881
 20
15.63977407361417
 10
16.362034060089
 20
15.61200248147398
 10
16.419247366516
 20
15.58266497597445
 10
16.47562938683054
 20
15.55175778215477
 10
16.53281726194244
 20
15.5182869925633
 10
16.58904113126617
 20
15.48319436058749
 10
16.6442310586852
 20
15.44652270223051
 10
16.69953065865061
 20
15.40743655905475
 10
16.7536691601358
 20
15.36675768042951
 10
16.8040088589273
 20
15.3266440525189
 10
16.85324706388335
 20
15.28512832468102
 10
16.90132893873077
 20
15.24225977008889
 10
16.94819805773915
 20
15.19808736389229
 10
16.99380037936391
 20
15.15266047860533
 10
17.03807947787465
 20
15.10603802348524
 10
17.08105363202911
 20
15.0582099650835
 10
17.1239403660379
 20
15.00769512797743
 10
17.16537989927154
 20
14.95596912448952
 10
17.20532136909983
 20
14.9030949368611
 10
17.24456665667714
 20
14.84790580417067
 10
17.28218831373077
 20
14.79159809097995
 10
17.32298411680084
 20
14.72621259038995
 10
17.36162143700144
 20
14.65945538824151
 10
17.3980398749592
 20
14.59143834258467
 10
17.43217903130076
 20
14.52227351015161
 10
17.46398009610993
 20
14.45207235162805
 10
17.48931842796824
 20
14.39121084357649
 10
17.51293060931387
 20
14.32963090087325
 10
17.53479041410309
 20
14.26740722800643
 10
17.55486923210643
 20
14.204614330782
 10
17.57363039009593
 20
14.13955049659163
 10
17.5904889678242
 20
14.07396810199172
 10
17.60733641935211
 20
13.99877584919681
 10
17.62169239672842
 20
13.92300404057254
 10
17.63353862119538
 20
13.84677804455509
 10
17.64285363508088
 20
13.77022322958062
 10
17.64961995435578
 20
13.69346496408532
 10
17.65338061007681
 20
13.62765726392816
 10
17.65527444832347
 20
13.56174307013899
 10
17.65530146909577
 20
13.49580185557753
 10
17.65346008293651
 20
13.42991289442132
 10
17.64962313327017
 20
13.36231745228519
 10
17.64382002505484
 20
13.29486267711073
 10
17.63482528679394
 20
13.21834859197686
 10
17.62328821175121
 20
13.14211226448764
 10
17.60923264178457
 20
13.06627846703281
 10
17.59268082929475
 20
12.99097197200209
 10
17.57365661613964
 20
12.91631794914951
 10
17.55542077375276
 20
12.85298920616855
 10
17.53538963946524
 20
12.79017822886854
 10
17.5135878498636
 20
12.72795932437331
 10
17.49004004153434
 20
12.66640838926385
 10
17.46404526385489
 20
12.60390854820957
 10
17.43624168388867
 20
12.54219151482334
 10
17.40242916100048
 20
12.47298694596042
 10
17.36631033572379
 20
12.40488585775445
 10
17.32794799161775
 20
12.3379983201161
 10
17.28740570697013
 20
12.27243440295607
 10
17.24474626534008
 20
12.20830457354933
 10
17.20658021919751
 20
12.15459800705661
 10
17.16689067833447
 20
12.10197386091302
 10
17.12572691592399
 20
12.0504949186777
 10
17.08313820513907
 20
12.00022396390984
 10
17.03792530052685
 20
11.9498675758178
 10
16.99126519513949
 20
11.90084911331882
 10
16.93645991636141
 20
11.84675789818515
 10
16.87984424583935
 20
11.79447151169528
 10
16.82151434573356
 20
11.744072208259
 10
16.76156558347567
 20
11.695643434379
 10
16.70009491595451
 20
11.64926784182935
 10
16.64631245288078
 20
11.61123809164116
 10
16.59145154310091
 20
11.57473342563063
 10
16.53557973854565
 20
11.53979675914197
 10
16.47876220695996
 20
11.50647180224805
 10
16.4194412802937
 20
11.47393481875806
 10
16.35919926318352
 20
11.44313829089551
 10
16.28959057482902
 20
11.41025202418714
 10
16.21887165062451
 20
11.37966689413139
 10
16.14715931567375
 20
11.3514293923512
 10
16.07457277926628
 20
11.32558640783379
 10
16.00122966123446
 20
11.30218443220207
 10
15.93790330243929
 20
11.28410991972038
 10
15.87406434369906
 20
11.26783109650362
 10
15.80978987368767
 20
11.25336624130953
 10
15.74515698107902
 20
11.24073403026013
 10
15.67842441551709
 20
11.22967299764701
 10
15.61139780037427
 20
11.22055825536796
 10
15.53482887896721
 20
11.21256964351086
 10
15.45797306053662
 20
11.2071197921569
 10
15.38095750165804
 20
11.20421267494906
 10
15.30390856417839
 20
11.20385306025891
 10
15.22695419940178
 20
11.20604571645805
 10
15.1612158393147
 20
11.20994862859794
 10
15.09558794650261
 20
11.21571358984061
 10
15.0301491990966
 20
11.2233326529001
 10
14.96497827522779
 20
11.23279667839754
 10
14.89834664019768
 20
11.24443587606498
 10
14.83208058032219
 20
11.25800546949454
 10
14.75712177905266
 20
11.27580460851737
 10
14.68273200345858
 20
11.29609244014172
 10
14.60903125755811
 20
11.31883121475923
 10
14.53614034009798
 20
11.34398238803295
 10
14.46418004982495
 20
11.37150821035453
 10
14.40338251742546
 20
11.39693396235851
 10
14.34330262494906
 20
11.42407791758923
 10
14.28401269269808
 20
11.45290669744559
 10
14.22558504097485
 20
11.48338692332653
 10
14.16649776451611
 20
11.51639915451753
 10
14.10839436206047
 20
11.55111170754182
 10
14.05403254183952
 20
11.58571895902701
 10
14.0006180381062
 20
11.6218377843037
 10
13.94821204496248
 20
11.65942487066336
 10
13.89687496178174
 20
11.69843770012605
 10
13.84666639320874
 20
11.73883335734752
 10
13.79764991753125
 20
11.78055978760468
 10
13.74980566653434
 20
11.8236249381835
 10
13.70176352811678
 20
11.8693758740559
 10
13.65503507607007
 20
11.91648698792207
 10
13.60967872294608
 20
11.96490066195873
 10
13.564772186208
 20
12.01569534287202
 10
13.52136490496818
 20
12.06777708674816
 10
13.48803915334566
 20
12.1099581017628
 10
13.45569290471895
 20
12.15290404305207
 10
13.42435238513175
 20
12.19658033992198
 10
13.39388606700126
 20
12.24118686661469
 10
13.36446044596854
 20
12.28649553602285
 10
13.33609936389152
 20
12.33246899590241
  0
LWPOLYLINE
  5
16A
330
1F
100
AcDbEntity
  8
0
  6
CONTINUOUS
 62
     7
100
AcDbPolyline
 90
        9
 70
   128
 43
0.0
 10
14.52494420362334
 20
15.71033390308765
 10
14.08042706800323
 20
15.71042852546123
 10
13.6359131112975
 20
15.71064250613597
 10
13.19139557831308
 20
15.71096779848483
 10
12.74688559525034
 20
15.71139243190831
 10
12.30236289653004
 20
15.71190364107834
 10
11.85784893982431
 20
15.71248871033734
 10
10.96883652362049
 20
15.71383468255744
 10
10.71127571416716
 20
15.71425986235683
  0
LWPOLYLINE
  5
16B
330
1F
100
AcDbEntity
  8
0
  6
CONTINUOUS
 62
     7
100
AcDbPolyline
 90
       35
 70
   128
 43
0.0
 10
12.52013879768872
 20
12.04716540322051
 10
12.51974342021171
 20
12.04722778941538
 10
12.51357513420605
 20
12.04813854838755
 10
12.50688232732637
 20
12.04900798147267
 10
12.49969043088777
 20
12.04983290975636
 10
12.49202606829826
 20
12.05060975695993
 10
12.48391904188021
 20
12.0513357415333
 10
12.47539955132031
 20
12.05200808192636
 10
12.46650057785534
 20
12.05262439395334
 10
12.45725510272208
 20
12.05318229342844
 10
12.4476984913431
 20
12.05367979353016
 10
12.43786730123384
 20
12.05411490743702
 10
12.42779848727408
 20
12.05448564832753
 10
12.41753059380078
 20
12.05479122147307
 10
12.40710216515088
 20
12.05502964005217
 10
12.39655293775423
 20
12.05520090406483
 10
12.38592264804069
 20
12.05530382141814
 10
12.37525222453299
 20
12.05533839211211
 10
12.3645818010253
 20
12.05530382141814
 10
12.35395151131176
 20
12.05520090406483
 10
12.34340228391512
 20
12.05502964005217
 10
12.33297385526522
 20
12.05479122147307
 10
12.32270556442761
 20
12.05448564832753
 10
12.31263714783215
 20
12.05411490743702
 10
12.3028055603586
 20
12.05367979353016
 10
12.29324934634391
 20
12.05318229342844
 10
12.28400387121065
 20
12.05262439395334
 10
12.27510489774569
 20
12.05200808192636
 10
12.26658540718579
 20
12.05133574153329
 10
12.25847838076774
 20
12.05060975695993
 10
12.25081401817822
 20
12.04983290975636
 10
12.24362212173962
 20
12.04900798147267
 10
12.23692931485994
 20
12.04813854838754
 10
12.23076102885429
 20
12.04722778941538
 10
12.23036565137728
 20
12.04716540322051
  0
CIRCLE
  5
16C
330
1F
100
AcDbEntity
  8
0
  6
CONTINUOUS
 62
     7
100
AcDbCircle
 10
14.64191887530509
 20
12.08545000697522
 30
0.0
 40
0.3660478538564149
  0
CIRCLE
  5
16D
330
1F
100
AcDbEntity
  8
0
  6
CONTINUOUS
 62
     7
100
AcDbCircle
 10
14.64191887530509
 20
12.08545000697522
 30
0.0
 40
0.173333333333332
  0
LINE
  5
16E
330
1F
100
AcDbEntity
  8
0
  6
CONTINUOUS
 62
     7
100
AcDbLine
 10
10.72445350639843
 20
12.32655343359058
 30
0.0
 11
9.479148762949545
 21
12.01974329298082
 31
0.0
  0
LINE
  5
16F
330
1F
100
AcDbEntity
  8
0
  6
CONTINUOUS
 62
     7
100
AcDbLine
 10
9.479164061475009
 20
16.01781956300481
 30
0.0
 11
10.71127571416716
 21
15.71425986235683
 31
0.0
  0
ENDSEC
  0
SECTION
  2
OBJECTS
  0
DICTIONARY
  5
C
330
0
100
AcDbDictionary
  3
ACAD_GROUP
350
D
  3
ACAD_LAYOUT
350
1A
  3
ACAD_MLINESTYLE
350
17
  3
ACAD_PLOTSETTINGS
350
19
  3
ACAD_PLOTSTYLENAME
350
E
  3
ACDBHEADERROUNDTRIPXREC
350
3C2
  3
ACDBVARIABLEDICTIONARY
350
342
  0
DICTIONARY
  5
302
330
1F
100
AcDbDictionary
280
     1
  3
ACAD_LAYOUTSELFREF
360
3E4
  0
DICTIONARY
  5
304
330
1B
100
AcDbDictionary
280
     1
  3
ACAD_LAYOUTSELFREF
360
3E3
  0
DICTIONARY
  5
D
102
{ACAD_REACTORS
330
C
102
}
330
C
100
AcDbDictionary
  0
DICTIONARY
  5
1A
102
{ACAD_REACTORS
330
C
102
}
330
C
100
AcDbDictionary
  0
DICTIONARY
  5
17
102
{ACAD_REACTORS
330
C
102
}
330
C
100
AcDbDictionary
  3
STANDARD
350
18
  0
DICTIONARY
  5
19
102
{ACAD_REACTORS
330
C
102
}
330
C
100
AcDbDictionary
  0
ACDBDICTIONARYWDFLT
  5
E
102
{ACAD_REACTORS
330
C
102
}
330
C
100
AcDbDictionary
281
     1
  3
Normal
350
F
100
AcDbDictionaryWithDefault
340
F
  0
DICTIONARY
  5
3C2
102
{ACAD_REACTORS
330
C
102
}
330
C
100
AcDbDictionary
  3
CEPSNTYPE
350
3CC
  3
DIMSTYLEDATA
350
3D0
  3
FINGERPRINTGUID
350
3CD
  3
HYPERLINKBASE
350
3C5
  3
INSUNITS
350
3CB
  3
LAYOUTDICT
350
3C7
  3
LWETCUNION
350
3CA
  3
PLOTSETDICT
350
3C8
  3
PLOTSTYLNAMDICT
350
3C9
  3
PSVPSCALE
350
3CF
  3
PUCSBASE
350
3D3
  3
PUCSORGBACK
350
3D9
  3
PUCSORGBOTTOM
350
3D5
  3
PUCSORGFRONT
350
3D8
  3
PUCSORGLEFT
350
3D6
  3
PUCSORGRIGHT
350
3D7
  3
PUCSORGTOP
350
3D4
  3
PUCSORTHOREF
350
3D1
  3
PUCSORTHOVIEW
350
3D2
  3
STYLESHEET
350
3C6
  3
TSTACKALIGN
350
3C3
  3
TSTACKSIZE
350
3C4
  3
UCSBASE
350
3DC
  3
UCSORGBACK
350
3E2
  3
UCSORGBOTTOM
350
3DE
  3
UCSORGFRONT
350
3E1
  3
UCSORGLEFT
350
3DF
  3
UCSORGRIGHT
350
3E0
  3
UCSORGTOP
350
3DD
  3
UCSORTHOREF
350
3DA
  3
UCSORTHOVIEW
350
3DB
  3
VERSIONGUID
350
3CE
  0
DICTIONARY
  5
342
102
{ACAD_REACTORS
330
C
102
}
330
C
100
AcDbDictionary
  3
DIMASSOC
350
343
  0
XRECORD
  5
3E4
102
{ACAD_REACTORS
330
302
102
}
330
302
100
AcDbXrecord
340
1F
  0
XRECORD
  5
3E3
102
{ACAD_REACTORS
330
304
102
}
330
304
100
AcDbXrecord
340
1B
  0
MLINESTYLE
  5
18
102
{ACAD_REACTORS
330
17
102
}
330
17
100
AcDbMlineStyle
  2
STANDARD
 70
     0
  3

 62
   256
 51
90.0
 52
90.0
 71
     2
 49
0.5
 62
   256
  6
BYLAYER
 49
-0.5
 62
   256
  6
BYLAYER
  0
ACDBPLACEHOLDER
  5
F
102
{ACAD_REACTORS
330
E
102
}
330
E
100
AcDbPlaceHolder
280
     0
  0
XRECORD
  5
3CC
102
{ACAD_REACTORS
330
3C2
102
}
330
3C2
100
AcDbXrecord
 90
        0
  0
XRECORD
  5
3D0
102
{ACAD_REACTORS
330
3C2
102
}
330
3C2
100
AcDbXrecord
1000
DSTYLE
1002
{
1070
   278
 70
    44
1002
}
  0
XRECORD
  5
3CD
102
{ACAD_REACTORS
330
3C2
102
}
330
3C2
100
AcDbXrecord
  1
{21A968E4-AF55-4C8B-A060-41372ACBA765}
  0
XRECORD
  5
3C5
102
{ACAD_REACTORS
330
3C2
102
}
330
3C2
100
AcDbXrecord
  1

  0
XRECORD
  5
3CB
102
{ACAD_REACTORS
330
3C2
102
}
330
3C2
100
AcDbXrecord
 90
        4
  0
XRECORD
  5
3C7
102
{ACAD_REACTORS
330
3C2
102
}
330
3C2
100
AcDbXrecord
340
1A
  0
XRECORD
  5
3CA
102
{ACAD_REACTORS
330
3C2
102
}
330
3C2
100
AcDbXrecord
 90
    10781
  0
XRECORD
  5
3C8
102
{ACAD_REACTORS
330
3C2
102
}
330
3C2
100
AcDbXrecord
340
19
  0
XRECORD
  5
3C9
102
{ACAD_REACTORS
330
3C2
102
}
330
3C2
100
AcDbXrecord
340
E
  0
XRECORD
  5
3CF
102
{ACAD_REACTORS
330
3C2
102
}
330
3C2
100
AcDbXrecord
 40
0.0
  0
XRECORD
  5
3D3
102
{ACAD_REACTORS
330
3C2
102
}
330
3C2
100
AcDbXrecord
340
0
  0
XRECORD
  5
3D9
102
{ACAD_REACTORS
330
3C2
102
}
330
3C2
100
AcDbXrecord
 10
0.0
 20
0.0
 30
0.0
  0
XRECORD
  5
3D5
102
{ACAD_REACTORS
330
3C2
102
}
330
3C2
100
AcDbXrecord
 10
0.0
 20
0.0
 30
0.0
  0
XRECORD
  5
3D8
102
{ACAD_REACTORS
330
3C2
102
}
330
3C2
100
AcDbXrecord
 10
0.0
 20
0.0
 30
0.0
  0
XRECORD
  5
3D6
102
{ACAD_REACTORS
330
3C2
102
}
330
3C2
100
AcDbXrecord
 10
0.0
 20
0.0
 30
0.0
  0
XRECORD
  5
3D7
102
{ACAD_REACTORS
330
3C2
102
}
330
3C2
100
AcDbXrecord
 10
0.0
 20
0.0
 30
0.0
  0
XRECORD
  5
3D4
102
{ACAD_REACTORS
330
3C2
102
}
330
3C2
100
AcDbXrecord
 10
0.0
 20
0.0
 30
0.0
  0
XRECORD
  5
3D1
102
{ACAD_REACTORS
330
3C2
102
}
330
3C2
100
AcDbXrecord
340
0
  0
XRECORD
  5
3D2
102
{ACAD_REACTORS
330
3C2
102
}
330
3C2
100
AcDbXrecord
 70
     0
  0
XRECORD
  5
3C6
102
{ACAD_REACTORS
330
3C2
102
}
330
3C2
100
AcDbXrecord
  1

  0
XRECORD
  5
3C3
102
{ACAD_REACTORS
330
3C2
102
}
330
3C2
100
AcDbXrecord
 90
        1
  0
XRECORD
  5
3C4
102
{ACAD_REACTORS
330
3C2
102
}
330
3C2
100
AcDbXrecord
 90
       70
  0
XRECORD
  5
3DC
102
{ACAD_REACTORS
330
3C2
102
}
330
3C2
100
AcDbXrecord
340
0
  0
XRECORD
  5
3E2
102
{ACAD_REACTORS
330
3C2
102
}
330
3C2
100
AcDbXrecord
 10
0.0
 20
0.0
 30
0.0
  0
XRECORD
  5
3DE
102
{ACAD_REACTORS
330
3C2
102
}
330
3C2
100
AcDbXrecord
 10
0.0
 20
0.0
 30
0.0
  0
XRECORD
  5
3E1
102
{ACAD_REACTORS
330
3C2
102
}
330
3C2
100
AcDbXrecord
 10
0.0
 20
0.0
 30
0.0
  0
XRECORD
  5
3DF
102
{ACAD_REACTORS
330
3C2
102
}
330
3C2
100
AcDbXrecord
 10
0.0
 20
0.0
 30
0.0
  0
XRECORD
  5
3E0
102
{ACAD_REACTORS
330
3C2
102
}
330
3C2
100
AcDbXrecord
 10
0.0
 20
0.0
 30
0.0
  0
XRECORD
  5
3DD
102
{ACAD_REACTORS
330
3C2
102
}
330
3C2
100
AcDbXrecord
 10
0.0
 20
0.0
 30
0.0
  0
XRECORD
  5
3DA
102
{ACAD_REACTORS
330
3C2
102
}
330
3C2
100
AcDbXrecord
340
0
  0
XRECORD
  5
3DB
102
{ACAD_REACTORS
330
3C2
102
}
330
3C2
100
AcDbXrecord
 70
     0
  0
XRECORD
  5
3CE
102
{ACAD_REACTORS
330
3C2
102
}
330
3C2
100
AcDbXrecord
  1
{AC560EAB-DA99-4FC8-90B3-C476E3926CBA}
  0
DICTIONARYVAR
  5
343
102
{ACAD_REACTORS
330
342
102
}
330
342
100
DictionaryVariables
280
     0
  1
1
  0
ENDSEC
  0
EOF
