  0
SECTION
  2
HEADER
  9
$ACADVER
  1
AC1014
  9
$ACADMAINTVER
 70
     9
  9
$DWGCODEPAGE
  3
ANSI_1250
  9
$INSBASE
 10
0.0
 20
0.0
 30
0.0
  9
$EXTMIN
 10
-1181.19125638351
 20
-1116.412704455214
 30
0.0
  9
$EXTMAX
 10
622.9508315565042
 20
613.9129756812433
 30
0.0
  9
$LIMMIN
 10
0.0
 20
0.0
  9
$LIMMAX
 10
420.0
 20
297.0
  9
$ORTHOMODE
 70
     0
  9
$REGENMODE
 70
     1
  9
$FILLMODE
 70
     1
  9
$QTEXTMODE
 70
     0
  9
$MIRRTEXT
 70
     1
  9
$DRAGMODE
 70
     2
  9
$LTSCALE
 40
1.0
  9
$OSMODE
 70
  3007
  9
$ATTMODE
 70
     1
  9
$TEXTSIZE
 40
50.0
  9
$TRACEWID
 40
1.0
  9
$TEXTSTYLE
  7
ISO50
  9
$CLAYER
  8
PEN50
  9
$CELTYPE
  6
BYLAYER
  9
$CECOLOR
 62
   256
  9
$CELTSCALE
 40
1.0
  9
$DELOBJ
 70
     1
  9
$DISPSILH
 70
     0
  9
$DIMSCALE
 40
10.0
  9
$DIMASZ
 40
3.5
  9
$DIMEXO
 40
0.875
  9
$DIMDLI
 40
5.25
  9
$DIMRND
 40
0.0
  9
$DIMDLE
 40
0.0
  9
$DIMEXE
 40
1.75
  9
$DIMTP
 40
0.0
  9
$DIMTM
 40
0.0
  9
$DIMTXT
 40
5.0
  9
$DIMCEN
 40
0.0
  9
$DIMTSZ
 40
0.0
  9
$DIMTOL
 70
     0
  9
$DIMLIM
 70
     0
  9
$DIMTIH
 70
     0
  9
$DIMTOH
 70
     0
  9
$DIMSE1
 70
     0
  9
$DIMSE2
 70
     0
  9
$DIMTAD
 70
     1
  9
$DIMZIN
 70
     8
  9
$DIMBLK
  1

  9
$DIMASO
 70
     1
  9
$DIMSHO
 70
     1
  9
$DIMPOST
  1

  9
$DIMAPOST
  1

  9
$DIMALT
 70
     0
  9
$DIMALTD
 70
     4
  9
$DIMALTF
 40
0.0394
  9
$DIMLFAC
 40
1.0
  9
$DIMTOFL
 70
     1
  9
$DIMTVP
 40
0.0
  9
$DIMTIX
 70
     0
  9
$DIMSOXD
 70
     0
  9
$DIMSAH
 70
     0
  9
$DIMBLK1
  1

  9
$DIMBLK2
  1

  9
$DIMSTYLE
  2
ISO-35
  9
$DIMCLRD
 70
   256
  9
$DIMCLRE
 70
   256
  9
$DIMCLRT
 70
     2
  9
$DIMTFAC
 40
1.0
  9
$DIMGAP
 40
1.0
  9
$DIMJUST
 70
     0
  9
$DIMSD1
 70
     0
  9
$DIMSD2
 70
     0
  9
$DIMTOLJ
 70
     1
  9
$DIMTZIN
 70
     0
  9
$DIMALTZ
 70
     0
  9
$DIMALTTZ
 70
     0
  9
$DIMFIT
 70
     3
  9
$DIMUPT
 70
     0
  9
$DIMUNIT
 70
     8
  9
$DIMDEC
 70
     4
  9
$DIMTDEC
 70
     4
  9
$DIMALTU
 70
     8
  9
$DIMALTTD
 70
     4
  9
$DIMTXSTY
  7
ISO50
  9
$DIMAUNIT
 70
     0
  9
$LUNITS
 70
     2
  9
$LUPREC
 70
     2
  9
$SKETCHINC
 40
1.0
  9
$FILLETRAD
 40
10.0
  9
$AUNITS
 70
     0
  9
$AUPREC
 70
     0
  9
$MENU
  1
.
  9
$ELEVATION
 40
0.0
  9
$PELEVATION
 40
0.0
  9
$THICKNESS
 40
0.0
  9
$LIMCHECK
 70
     0
  9
$BLIPMODE
 70
     0
  9
$CHAMFERA
 40
10.0
  9
$CHAMFERB
 40
10.0
  9
$CHAMFERC
 40
20.0
  9
$CHAMFERD
 40
0.0
  9
$SKPOLY
 70
     1
  9
$TDCREATE
 40
2450892.674230093
  9
$TDUPDATE
 40
2453966.375098552
  9
$TDINDWG
 40
0.6303598032
  9
$TDUSRTIMER
 40
0.6303598032
  9
$USRTIMER
 70
     1
  9
$ANGBASE
 50
0.0
  9
$ANGDIR
 70
     0
  9
$PDMODE
 70
     0
  9
$PDSIZE
 40
0.0
  9
$PLINEWID
 40
0.0
  9
$COORDS
 70
     2
  9
$SPLFRAME
 70
     0
  9
$SPLINETYPE
 70
     6
  9
$SPLINESEGS
 70
     8
  9
$ATTDIA
 70
     0
  9
$ATTREQ
 70
     1
  9
$HANDLING
 70
 22529
  9
$HANDSEED
  5
33A0
  9
$SURFTAB1
 70
     6
  9
$SURFTAB2
 70
     6
  9
$SURFTYPE
 70
     6
  9
$SURFU
 70
     6
  9
$SURFV
 70
     6
  9
$UCSNAME
  2

  9
$UCSORG
 10
0.0
 20
0.0
 30
0.0
  9
$UCSXDIR
 10
1.0
 20
0.0
 30
0.0
  9
$UCSYDIR
 10
0.0
 20
1.0
 30
0.0
  9
$PUCSNAME
  2

  9
$PUCSORG
 10
0.0
 20
0.0
 30
0.0
  9
$PUCSXDIR
 10
1.0
 20
0.0
 30
0.0
  9
$PUCSYDIR
 10
0.0
 20
1.0
 30
0.0
  9
$USERI1
 70
     0
  9
$USERI2
 70
     0
  9
$USERI3
 70
     0
  9
$USERI4
 70
     0
  9
$USERI5
 70
     0
  9
$USERR1
 40
0.0
  9
$USERR2
 40
0.0
  9
$USERR3
 40
0.0
  9
$USERR4
 40
0.0
  9
$USERR5
 40
0.0
  9
$WORLDVIEW
 70
     1
  9
$SHADEDGE
 70
     3
  9
$SHADEDIF
 70
    70
  9
$TILEMODE
 70
     1
  9
$MAXACTVP
 70
    48
  9
$PINSBASE
 10
0.0
 20
0.0
 30
0.0
  9
$PLIMCHECK
 70
     0
  9
$PEXTMIN
 10
20.0
 20
10.0
 30
0.0
  9
$PEXTMAX
 10
420.5017985111746
 20
287.0
 30
0.0
  9
$PLIMMIN
 10
12.97568881859913
 20
2.215161950974304
  9
$PLIMMAX
 10
427.6002994766161
 20
295.378111086691
  9
$UNITMODE
 70
     0
  9
$VISRETAIN
 70
     1
  9
$PLINEGEN
 70
     0
  9
$PSLTSCALE
 70
     0
  9
$TREEDEPTH
 70
  3020
  9
$PICKSTYLE
 70
     1
  9
$CMLSTYLE
  2
STANDARD
  9
$CMLJUST
 70
     0
  9
$CMLSCALE
 40
1.0
  9
$PROXYGRAPHICS
 70
     1
  9
$MEASUREMENT
 70
     1
  0
ENDSEC
  0
SECTION
  2
CLASSES
  0
CLASS
  1
DICTIONARYVAR
  2
AcDbDictionaryVar
  3
AutoCAD 2000
 90
        0
280
     0
281
     0
  0
CLASS
  1
LWPOLYLINE
  2
AcDbPolyline
  3
AutoCAD 2000
 90
        0
280
     0
281
     1
  0
CLASS
  1
HATCH
  2
AcDbHatch
  3
AutoCAD 2000
 90
        0
280
     0
281
     1
  0
CLASS
  1
ACDBDICTIONARYWDFLT
  2
AcDbDictionaryWithDefault
  3
AutoCAD 2000
 90
        0
280
     0
281
     0
  0
CLASS
  1
ACDBPLACEHOLDER
  2
AcDbPlaceHolder
  3
AutoCAD 2000
 90
        0
280
     0
281
     0
  0
CLASS
  1
LAYOUT
  2
AcDbLayout
  3
AutoCAD 2000
 90
        0
280
     0
281
     0
  0
CLASS
  1
LONG_TRANSACTION
  2
AcDbLongTransaction
  3
AutoCAD 2000
 90
        0
280
     0
281
     0
  0
CLASS
  1
LWPOLYLINE
  2
AcDbPolyline
  3
AutoCAD 2000
 90
        0
280
     0
281
     1
  0
CLASS
  1
HATCH
  2
AcDbHatch
  3
AutoCAD 2000
 90
        0
280
     0
281
     1
  0
CLASS
  1
XRECORD
  2
AcDbXrecord
  3
AutoCAD 2000
 90
        0
280
     0
281
     0
  0
CLASS
  1
LONG_TRANSACTION
  2
AcDbLongTransaction
  3
AutoCAD 2000
 90
        0
280
     0
281
     0
  0
CLASS
  1
LWPOLYLINE
  2
AcDbPolyline
  3
AutoCAD 2000
 90
        0
280
     0
281
     1
  0
CLASS
  1
HATCH
  2
AcDbHatch
  3
AutoCAD 2000
 90
        0
280
     0
281
     1
  0
CLASS
  1
XRECORD
  2
AcDbXrecord
  3
AutoCAD 2000
 90
        0
280
     0
281
     0
  0
CLASS
  1
LONG_TRANSACTION
  2
AcDbLongTransaction
  3
AutoCAD 2000
 90
        0
280
     0
281
     0
  0
CLASS
  1
LWPOLYLINE
  2
AcDbPolyline
  3
AutoCAD 2000
 90
        0
280
     0
281
     1
  0
CLASS
  1
HATCH
  2
AcDbHatch
  3
AutoCAD 2000
 90
        0
280
     0
281
     1
  0
CLASS
  1
XRECORD
  2
AcDbXrecord
  3
AutoCAD 2000
 90
        0
280
     0
281
     0
  0
CLASS
  1
LONG_TRANSACTION
  2
AcDbLongTransaction
  3
AutoCAD 2000
 90
        0
280
     0
281
     0
  0
CLASS
  1
LWPOLYLINE
  2
AcDbPolyline
  3
AutoCAD 2000
 90
        0
280
     0
281
     1
  0
CLASS
  1
HATCH
  2
AcDbHatch
  3
AutoCAD 2000
 90
        0
280
     0
281
     1
  0
CLASS
  1
XRECORD
  2
AcDbXrecord
  3
AutoCAD 2000
 90
        0
280
     0
281
     0
  0
CLASS
  1
LONG_TRANSACTION
  2
AcDbLongTransaction
  3
AutoCAD 2000
 90
        0
280
     0
281
     0
  0
CLASS
  1
LWPOLYLINE
  2
AcDbPolyline
  3
AutoCAD 2000
 90
        0
280
     0
281
     1
  0
CLASS
  1
HATCH
  2
AcDbHatch
  3
AutoCAD 2000
 90
        0
280
     0
281
     1
  0
CLASS
  1
XRECORD
  2
AcDbXrecord
  3
AutoCAD 2000
 90
        0
280
     0
281
     0
  0
CLASS
  1
LONG_TRANSACTION
  2
AcDbLongTransaction
  3
AutoCAD 2000
 90
        0
280
     0
281
     0
  0
CLASS
  1
LWPOLYLINE
  2
AcDbPolyline
  3
AutoCAD 2000
 90
        0
280
     0
281
     1
  0
CLASS
  1
HATCH
  2
AcDbHatch
  3
AutoCAD 2000
 90
        0
280
     0
281
     1
  0
CLASS
  1
XRECORD
  2
AcDbXrecord
  3
AutoCAD 2000
 90
        0
280
     0
281
     0
  0
CLASS
  1
LONG_TRANSACTION
  2
AcDbLongTransaction
  3
AutoCAD 2000
 90
        0
280
     0
281
     0
  0
CLASS
  1
LWPOLYLINE
  2
AcDbPolyline
  3
AutoCAD 2000
 90
        0
280
     0
281
     1
  0
CLASS
  1
HATCH
  2
AcDbHatch
  3
AutoCAD 2000
 90
        0
280
     0
281
     1
  0
CLASS
  1
XRECORD
  2
AcDbXrecord
  3
AutoCAD 2000
 90
        0
280
     0
281
     0
  0
CLASS
  1
LONG_TRANSACTION
  2
AcDbLongTransaction
  3
AutoCAD 2000
 90
        0
280
     0
281
     0
  0
CLASS
  1
LWPOLYLINE
  2
AcDbPolyline
  3
AutoCAD 2000
 90
        0
280
     0
281
     1
  0
CLASS
  1
HATCH
  2
AcDbHatch
  3
AutoCAD 2000
 90
        0
280
     0
281
     1
  0
CLASS
  1
XRECORD
  2
AcDbXrecord
  3
AutoCAD 2000
 90
        0
280
     0
281
     0
  0
CLASS
  1
LONG_TRANSACTION
  2
AcDbLongTransaction
  3
AutoCAD 2000
 90
        0
280
     0
281
     0
  0
CLASS
  1
LWPOLYLINE
  2
AcDbPolyline
  3
AutoCAD 2000
 90
        0
280
     0
281
     1
  0
CLASS
  1
HATCH
  2
AcDbHatch
  3
AutoCAD 2000
 90
        0
280
     0
281
     1
  0
CLASS
  1
XRECORD
  2
AcDbXrecord
  3
AutoCAD 2000
 90
        0
280
     0
281
     0
  0
CLASS
  1
LONG_TRANSACTION
  2
AcDbLongTransaction
  3
AutoCAD 2000
 90
        0
280
     0
281
     0
  0
CLASS
  1
LWPOLYLINE
  2
AcDbPolyline
  3
AutoCAD 2000
 90
        0
280
     0
281
     1
  0
CLASS
  1
HATCH
  2
AcDbHatch
  3
AutoCAD 2000
 90
        0
280
     0
281
     1
  0
CLASS
  1
XRECORD
  2
AcDbXrecord
  3
AutoCAD 2000
 90
        0
280
     0
281
     0
  0
CLASS
  1
LONG_TRANSACTION
  2
AcDbLongTransaction
  3
AutoCAD 2000
 90
        0
280
     0
281
     0
  0
CLASS
  1
LWPOLYLINE
  2
AcDbPolyline
  3
AutoCAD 2000
 90
        0
280
     0
281
     1
  0
CLASS
  1
HATCH
  2
AcDbHatch
  3
AutoCAD 2000
 90
        0
280
     0
281
     1
  0
CLASS
  1
XRECORD
  2
AcDbXrecord
  3
AutoCAD 2000
 90
        0
280
     0
281
     0
  0
CLASS
  1
LONG_TRANSACTION
  2
AcDbLongTransaction
  3
AutoCAD 2000
 90
        0
280
     0
281
     0
  0
CLASS
  1
LWPOLYLINE
  2
AcDbPolyline
  3
AutoCAD 2000
 90
        0
280
     0
281
     1
  0
CLASS
  1
HATCH
  2
AcDbHatch
  3
AutoCAD 2000
 90
        0
280
     0
281
     1
  0
CLASS
  1
XRECORD
  2
AcDbXrecord
  3
AutoCAD 2000
 90
        0
280
     0
281
     0
  0
CLASS
  1
LONG_TRANSACTION
  2
AcDbLongTransaction
  3
AutoCAD 2000
 90
        0
280
     0
281
     0
  0
CLASS
  1
LWPOLYLINE
  2
AcDbPolyline
  3
AutoCAD 2000
 90
        0
280
     0
281
     1
  0
CLASS
  1
HATCH
  2
AcDbHatch
  3
AutoCAD 2000
 90
        0
280
     0
281
     1
  0
CLASS
  1
XRECORD
  2
AcDbXrecord
  3
AutoCAD 2000
 90
        0
280
     0
281
     0
  0
CLASS
  1
LONG_TRANSACTION
  2
AcDbLongTransaction
  3
AutoCAD 2000
 90
        0
280
     0
281
     0
  0
CLASS
  1
LWPOLYLINE
  2
AcDbPolyline
  3
AutoCAD 2000
 90
        0
280
     0
281
     1
  0
CLASS
  1
HATCH
  2
AcDbHatch
  3
AutoCAD 2000
 90
        0
280
     0
281
     1
  0
CLASS
  1
XRECORD
  2
AcDbXrecord
  3
AutoCAD 2000
 90
        0
280
     0
281
     0
  0
CLASS
  1
LONG_TRANSACTION
  2
AcDbLongTransaction
  3
AutoCAD 2000
 90
        0
280
     0
281
     0
  0
CLASS
  1
LWPOLYLINE
  2
AcDbPolyline
  3
AutoCAD 2000
 90
        0
280
     0
281
     1
  0
CLASS
  1
HATCH
  2
AcDbHatch
  3
AutoCAD 2000
 90
        0
280
     0
281
     1
  0
CLASS
  1
XRECORD
  2
AcDbXrecord
  3
AutoCAD 2000
 90
        0
280
     0
281
     0
  0
CLASS
  1
LONG_TRANSACTION
  2
AcDbLongTransaction
  3
AutoCAD 2000
 90
        0
280
     0
281
     0
  0
CLASS
  1
LWPOLYLINE
  2
AcDbPolyline
  3
AutoCAD 2000
 90
        0
280
     0
281
     1
  0
CLASS
  1
HATCH
  2
AcDbHatch
  3
AutoCAD 2000
 90
        0
280
     0
281
     1
  0
CLASS
  1
XRECORD
  2
AcDbXrecord
  3
AutoCAD 2000
 90
        0
280
     0
281
     0
  0
CLASS
  1
LONG_TRANSACTION
  2
AcDbLongTransaction
  3
AutoCAD 2000
 90
        0
280
     0
281
     0
  0
CLASS
  1
LWPOLYLINE
  2
AcDbPolyline
  3
AutoCAD 2000
 90
        0
280
     0
281
     1
  0
CLASS
  1
HATCH
  2
AcDbHatch
  3
AutoCAD 2000
 90
        0
280
     0
281
     1
  0
CLASS
  1
XRECORD
  2
AcDbXrecord
  3
AutoCAD 2000
 90
        0
280
     0
281
     0
  0
ENDSEC
  0
SECTION
  2
TABLES
  0
TABLE
  2
VPORT
  5
8
330
0
100
AcDbSymbolTable
 70
     2
  0
VPORT
  5
337C
330
8
100
AcDbSymbolTableRecord
100
AcDbViewportTableRecord
  2
*ACTIVE
 70
     0
 10
0.0
 20
0.0
 11
1.0
 21
1.0
 12
-279.2299305493452
 22
-251.2427003420393
 13
0.0
 23
0.0
 14
1.0
 24
1.0
 15
10.0
 25
10.0
 16
0.0
 26
0.0
 36
1.0
 17
0.0
 27
0.0
 37
0.0
 40
1746.766763636351
 41
1.674961119751166
 42
50.0
 43
0.0
 44
0.0
 50
0.0
 51
0.0
 71
     0
 72
   100
 73
     1
 74
     1
 75
     0
 76
     0
 77
     0
 78
     0
  0
ENDTAB
  0
TABLE
  2
LTYPE
  5
5
330
0
100
AcDbSymbolTable
 70
     1
  0
LTYPE
  5
14
330
5
100
AcDbSymbolTableRecord
100
AcDbLinetypeTableRecord
  2
BYBLOCK
 70
     0
  3

 72
    65
 73
     0
 40
0.0
  0
LTYPE
  5
15
330
5
100
AcDbSymbolTableRecord
100
AcDbLinetypeTableRecord
  2
BYLAYER
 70
     0
  3

 72
    65
 73
     0
 40
0.0
  0
LTYPE
  5
16
330
5
100
AcDbSymbolTableRecord
100
AcDbLinetypeTableRecord
  2
CONTINUOUS
 70
     0
  3
Solid line
 72
    65
 73
     0
 40
0.0
  0
ENDTAB
  0
TABLE
  2
LAYER
  5
2
102
{ACAD_XDICTIONARY
360
320D
102
}
330
0
100
AcDbSymbolTable
 70
     5
  0
LAYER
  5
F
330
2
100
AcDbSymbolTableRecord
100
AcDbLayerTableRecord
  2
0
 70
     0
 62
     7
  6
CONTINUOUS
  0
LAYER
  5
7D
330
2
100
AcDbSymbolTableRecord
100
AcDbLayerTableRecord
  2
PEN50
 70
     0
 62
     7
  6
CONTINUOUS
  0
LAYER
  5
C3
330
2
100
AcDbSymbolTableRecord
100
AcDbLayerTableRecord
  2
KADER
 70
     0
 62
     5
  6
CONTINUOUS
  0
LAYER
  5
CA
330
2
100
AcDbSymbolTableRecord
100
AcDbLayerTableRecord
  2
TITELBLOK
 70
     0
 62
     7
  6
CONTINUOUS
  0
LAYER
  5
CB
330
2
100
AcDbSymbolTableRecord
100
AcDbLayerTableRecord
  2
VIEWPORT
 70
     0
 62
     7
  6
CONTINUOUS
  0
ENDTAB
  0
TABLE
  2
STYLE
  5
3
330
0
100
AcDbSymbolTable
 70
     2
  0
STYLE
  5
10
330
3
100
AcDbSymbolTableRecord
100
AcDbTextStyleTableRecord
  2
STANDARD
 70
     0
 40
3.5
 41
1.0
 50
0.0
 71
     0
 42
3.5
  3
isocp.shx
  4

  0
STYLE
  5
2FC
330
3
100
AcDbSymbolTableRecord
100
AcDbTextStyleTableRecord
  2
ISO50
 70
     0
 40
50.0
 41
0.85
 50
0.0
 71
     0
 42
50.0
  3
romans.shx
  4

  0
ENDTAB
  0
TABLE
  2
VIEW
  5
6
330
0
100
AcDbSymbolTable
 70
     0
  0
ENDTAB
  0
TABLE
  2
UCS
  5
7
330
0
100
AcDbSymbolTable
 70
     0
  0
ENDTAB
  0
TABLE
  2
APPID
  5
9
330
0
100
AcDbSymbolTable
 70
     2
  0
APPID
  5
11
330
9
100
AcDbSymbolTableRecord
100
AcDbRegAppTableRecord
  2
ACAD
 70
     0
  0
APPID
  5
1DC2
330
9
100
AcDbSymbolTableRecord
100
AcDbRegAppTableRecord
  2
CONTENTBLOCKICON
 70
     0
  0
ENDTAB
  0
TABLE
  2
DIMSTYLE
  5
A
330
0
100
AcDbSymbolTable
 70
     1
  0
DIMSTYLE
105
25
330
A
100
AcDbSymbolTableRecord
100
AcDbDimStyleTableRecord
  2
ISO-35
 70
     0
  3

  4

  5

  6

  7

 40
1.0
 41
3.5
 42
0.875
 43
5.25
 44
1.75
 45
0.0
 46
0.0
 47
0.0
 48
0.0
140
3.5
141
3.5
142
0.0
143
0.0394
144
1.0
145
0.0
146
1.0
147
0.875
 71
     0
 72
     0
 73
     0
 74
     0
 75
     0
 76
     0
 77
     1
 78
     8
170
     0
171
     4
172
     1
173
     0
174
     0
175
     0
176
     0
177
     0
178
     0
270
     8
271
     4
272
     4
273
     8
274
     4
340
10
275
     0
280
     0
281
     0
282
     0
283
     1
284
     0
285
     0
286
     0
287
     3
288
     0
  0
ENDTAB
  0
TABLE
  2
BLOCK_RECORD
  5
1
330
0
100
AcDbSymbolTable
 70
     0
  0
BLOCK_RECORD
  5
1A
102
{ACAD_XDICTIONARY
360
1D3A
102
}
330
1
100
AcDbSymbolTableRecord
100
AcDbBlockTableRecord
  2
*MODEL_SPACE
  0
BLOCK_RECORD
  5
17
102
{ACAD_XDICTIONARY
360
1D38
102
}
330
1
100
AcDbSymbolTableRecord
100
AcDbBlockTableRecord
  2
*PAPER_SPACE
  0
ENDTAB
  0
ENDSEC
  0
SECTION
  2
BLOCKS
  0
BLOCK
  5
1B
330
1A
100
AcDbEntity
  8
0
100
AcDbBlockBegin
  2
*MODEL_SPACE
 70
     0
 10
0.0
 20
0.0
 30
0.0
  3
*MODEL_SPACE
  1

  0
ENDBLK
  5
1C
330
1A
100
AcDbEntity
  8
0
100
AcDbBlockEnd
  0
BLOCK
  5
18
330
17
100
AcDbEntity
 67
     1
  8
0
100
AcDbBlockBegin
  2
*PAPER_SPACE
 70
     0
 10
0.0
 20
0.0
 30
0.0
  3
*PAPER_SPACE
  1

  0
ENDBLK
  5
19
330
17
100
AcDbEntity
 67
     1
  8
0
100
AcDbBlockEnd
  0
ENDSEC
  0
SECTION
  2
ENTITIES
  0
ARC
  5
239E
330
1A
100
AcDbEntity
  8
PEN50
100
AcDbCircle
 10
610.8797637446387
 20
-278.1580682887642
 30
0.0
 40
10.0
100
AcDbArc
 50
270.0
 51
0.0
  0
ARC
  5
239F
330
1A
100
AcDbEntity
  8
PEN50
100
AcDbCircle
 10
610.8797637446387
 20
601.8419078693778
 30
0.0
 40
10.0
100
AcDbArc
 50
0.0
 51
90.0
  0
LWPOLYLINE
  5
23A4
330
1A
100
AcDbEntity
  8
PEN50
100
AcDbPolyline
 90
       10
 70
   128
 43
0.0
 10
620.8797637446391
 20
-646.4126911186763
 10
620.7278911097518
 20
-644.6762094446608
 10
620.2767435534469
 20
-642.992489988465
 10
619.5400301440231
 20
-641.412691230435
 10
618.5402218325602
 20
-639.9848151658812
 10
617.3076573832499
 20
-638.7522469912806
 10
615.8797685130107
 20
-637.7524372828343
 10
614.3000070078837
 20
-637.0157651426421
 10
612.6162950022689
 20
-636.5646138173911
 10
610.8797732813827
 20
-636.4126913421937
  0
LINE
  5
23A5
330
1A
100
AcDbEntity
  8
PEN50
100
AcDbLine
 10
-1179.120188571645
 20
-671.4126914912044
 30
0.0
 11
620.8797637446386
 21
-671.4126914912044
 31
0.0
  0
LINE
  5
23AA
330
1A
100
AcDbEntity
  8
PEN50
100
AcDbLine
 10
212.1357659863933
 20
-1116.412704455214
 30
0.0
 11
-770.376238497116
 21
-1116.412704455214
 31
0.0
  0
LINE
  5
23AB
330
1A
100
AcDbEntity
  8
PEN50
100
AcDbLine
 10
-1169.120198108388
 20
-636.4126913421928
 30
0.0
 11
610.8797732813818
 21
-636.4126913421928
 31
0.0
  0
LINE
  5
23AC
330
1A
100
AcDbEntity
  8
PEN50
100
AcDbLine
 10
268.5742918475134
 20
-1096.412704455214
 30
0.0
 11
-826.8147166745203
 21
-1096.412704455214
 31
0.0
  0
LINE
  5
23B2
330
1A
100
AcDbEntity
  8
PEN50
100
AcDbLine
 10
-904.4660385624903
 20
-1045.985297428923
 30
0.0
 11
-1069.010382510854
 21
-671.4126914912044
 31
0.0
  0
LWPOLYLINE
  5
23B3
330
1A
100
AcDbEntity
  8
PEN50
100
AcDbPolyline
 90
       18
 70
   128
 43
0.0
 10
-826.8147166745198
 20
-1096.412704455216
 10
-832.5699027554524
 20
-1096.217618452866
 10
-838.2986243741047
 20
-1095.633343922455
 10
-843.9747150914202
 20
-1094.662533270676
 10
-849.572008468343
 20
-1093.309597241241
 10
-855.0648745076191
 20
-1091.580824124176
 10
-860.428040839864
 20
-1089.48408173259
 10
-865.6369503514302
 20
-1087.029026018936
 10
-870.6677015797627
 20
-1084.226922261078
 10
-875.4971679226887
 20
-1081.090645062286
 10
-880.1032360569966
 20
-1077.63452933963
 10
-884.4646867291462
 20
-1073.874519335587
 10
-888.5615523831379
 20
-1069.827810990173
 10
-892.3749979512226
 20
-1065.51300095256
 10
-895.887618877126
 20
-1060.949877964813
 10
-899.0831430928242
 20
-1056.159422861893
 10
-901.9470270649922
 20
-1051.163599955398
 10
-904.4660385624897
 20
-1045.985297428924
  0
LINE
  5
23B4
330
1A
100
AcDbEntity
  8
TITELBLOK
100
AcDbLine
 10
-770.376238497116
 20
-1096.412704455214
 30
0.0
 11
-770.376238497116
 21
-1116.412704455214
 31
0.0
  0
LINE
  5
23B5
330
1A
100
AcDbEntity
  8
PEN50
100
AcDbLine
 10
-1179.120188571645
 20
-671.4126914912044
 30
0.0
 11
-1179.120188571645
 21
-646.4126911186753
 31
0.0
  0
LWPOLYLINE
  5
23B6
330
1A
100
AcDbEntity
  8
PEN50
100
AcDbPolyline
 90
       10
 70
   128
 43
0.0
 10
-1169.120198108388
 20
-636.4126913421937
 10
-1170.856719829274
 20
-636.5646138173911
 10
-1172.540431834889
 20
-637.0157651426421
 10
-1174.120193340016
 20
-637.7524372828343
 10
-1175.548082210255
 20
-638.7522469912806
 10
-1176.780646659566
 20
-639.9848151658812
 10
-1177.780454971028
 20
-641.412691230435
 10
-1178.517168380452
 20
-642.992489988465
 10
-1178.968315936757
 20
-644.6762094446608
 10
-1179.120188571645
 20
-646.4126911186763
  0
ARC
  5
23B9
330
1A
100
AcDbEntity
  8
PEN50
100
AcDbCircle
 10
-305.1202124135047
 20
-1091.412691342192
 30
0.0
 40
20.0
100
AcDbArc
 50
238.9972808661285
 51
270.0
  0
ARC
  5
23BA
330
1A
100
AcDbEntity
  8
PEN50
100
AcDbCircle
 10
-359.2034815454635
 20
-1181.412691342192
 30
0.0
 40
85.00000000000008
100
AcDbArc
 50
58.99728086612853
 51
90.0
  0
ARC
  5
23BB
330
1A
100
AcDbEntity
  8
PEN50
100
AcDbCircle
 10
-199.0369432815432
 20
-1181.412691342192
 30
0.0
 40
85.0
100
AcDbArc
 50
90.0
 51
121.0027191338714
  0
LINE
  5
23BC
330
1A
100
AcDbEntity
  8
PEN50
100
AcDbLine
 10
-305.1202129499452
 20
-1111.4126901501
 30
0.0
 11
-253.1202118770615
 21
-1111.4126901501
 31
0.0
  0
ARC
  5
23BD
330
1A
100
AcDbEntity
  8
PEN50
100
AcDbCircle
 10
-253.1202124135043
 20
-1091.412691342192
 30
0.0
 40
20.00000000000003
100
AcDbArc
 50
270.0
 51
301.0027191338715
  0
ARC
  5
23BF
330
1A
100
AcDbEntity
  8
TITELBLOK
100
AcDbCircle
 10
-279.1202362553613
 20
-691.4126913421928
 30
0.0
 40
26.5
100
AcDbArc
 50
130.9993541412955
 51
49.00064585870447
  0
LINE
  5
23C0
330
1A
100
AcDbEntity
  8
PEN50
100
AcDbLine
 10
510.7699576838476
 20
-671.4126914912044
 30
0.0
 11
346.2256137354834
 21
-1045.985297428923
 31
0.0
  0
LWPOLYLINE
  5
23C1
330
1A
100
AcDbEntity
  8
PEN50
100
AcDbPolyline
 90
       18
 70
   128
 43
0.0
 10
346.2256137354843
 20
-1045.985297428924
 10
343.7066022379867
 20
-1051.163599955398
 10
340.8427182658188
 20
-1056.159422861893
 10
337.6471940501205
 20
-1060.949877964813
 10
334.1345731242167
 20
-1065.51300095256
 10
330.321127556132
 20
-1069.827810990173
 10
326.2242619021408
 20
-1073.874519335587
 10
321.8628112299906
 20
-1077.63452933963
 10
317.2567430956833
 20
-1081.090645062286
 10
312.4272767527572
 20
-1084.226922261078
 10
307.3965255244242
 20
-1087.029026018936
 10
302.1876160128581
 20
-1089.48408173259
 10
296.8244496806132
 20
-1091.580824124176
 10
291.3315836413371
 20
-1093.309597241241
 10
285.734290264415
 20
-1094.662533270676
 10
280.0581995470988
 20
-1095.633343922455
 10
274.3294779284469
 20
-1096.217618452866
 10
268.5742918475138
 20
-1096.412704455216
  0
LINE
  5
23C2
330
1A
100
AcDbEntity
  8
TITELBLOK
100
AcDbLine
 10
212.1357659863933
 20
-1096.412704455214
 30
0.0
 11
212.1357659863933
 21
-1116.412704455214
 31
0.0
  0
LINE
  5
23C3
330
1A
100
AcDbEntity
  8
PEN50
100
AcDbLine
 10
279.3379441721345
 20
-153.1580682887702
 30
0.0
 11
-837.5784166829143
 21
-153.1580682887629
 31
0.0
  0
LINE
  5
23C4
330
1A
100
AcDbEntity
  8
PEN50
100
AcDbLine
 10
279.3379441721767
 20
476.8419317112357
 30
0.0
 11
-837.5784166829125
 21
476.8419317112357
 31
0.0
  0
LINE
  5
23C5
330
1A
100
AcDbEntity
  8
PEN50
100
AcDbLine
 10
466.8362823947063
 20
-188.1580682887642
 30
0.0
 11
-1025.076754905428
 21
-188.1580682887642
 31
0.0
  0
LINE
  5
23C6
330
1A
100
AcDbEntity
  8
PEN50
100
AcDbLine
 10
466.8362823946936
 20
511.8419317112357
 30
0.0
 11
-1025.076754905416
 21
511.8419317112357
 31
0.0
  0
LINE
  5
23C7
330
1A
100
AcDbEntity
  8
PEN50
100
AcDbLine
 10
-1169.120188571645
 20
611.8419078693777
 30
0.0
 11
610.8797637446387
 21
611.8419078693777
 31
0.0
  0
LINE
  5
23C8
330
1A
100
AcDbEntity
  8
PEN50
100
AcDbLine
 10
610.8797637446387
 20
-288.1580682887642
 30
0.0
 11
-1169.120188571645
 21
-288.1580682887647
 31
0.0
  0
LINE
  5
23CC
330
1A
100
AcDbEntity
  8
PEN50
100
AcDbLine
 10
-1179.120188571645
 20
-278.1580682887647
 30
0.0
 11
-1179.120188571645
 21
601.8419078693778
 31
0.0
  0
LINE
  5
23CD
330
1A
100
AcDbEntity
  8
PEN50
100
AcDbLine
 10
-874.1202362553613
 20
436.9393638477718
 30
0.0
 11
-874.1202362553613
 21
-113.2555004253003
 31
0.0
  0
LINE
  5
23CE
330
1A
100
AcDbEntity
  8
PEN50
100
AcDbLine
 10
-1069.120236255361
 20
473.1175688610465
 30
0.0
 11
-1069.120236255361
 21
-149.4337054385655
 31
0.0
  0
ARC
  5
23CF
330
1A
100
AcDbEntity
  8
PEN50
100
AcDbCircle
 10
-1169.120188571645
 20
-278.1580682887647
 30
0.0
 40
10.0
100
AcDbArc
 50
180.0
 51
270.0
  0
LWPOLYLINE
  5
23D0
330
1A
100
AcDbEntity
  8
PEN50
100
AcDbPolyline
 90
       18
 70
   128
 43
0.0
 10
-1025.076754905415
 20
-188.1580682887647
 10
-1029.199310161305
 20
-188.0185934199903
 10
-1033.275254584981
 20
-187.550011505089
 10
-1037.270911552144
 20
-186.7561670436475
 10
-1041.153558112813
 20
-185.6435867442701
 10
-1044.891126968098
 20
-184.2214497222516
 10
-1048.452862121296
 20
-182.5014086856458
 10
-1051.809616901112
 20
-180.4976793422315
 10
-1054.93361554308
 20
-178.2266827716443
 10
-1057.799287654591
 20
-175.7071050300214
 10
-1060.38297019167
 20
-172.9597183360669
 10
-1062.663384296132
 20
-170.0070830478284
 10
-1064.621873714162
 20
-166.8735178603742
 10
-1066.242285587025
 20
-163.5848017825696
 10
-1067.511268474294
 20
-160.1679655208204
 10
-1068.41839156313
 20
-156.651112665138
 10
-1068.956144668294
 20
-153.063181270561
 10
-1069.12023625536
 20
-149.4337054385755
  0
LWPOLYLINE
  5
23D1
330
1A
100
AcDbEntity
  8
PEN50
100
AcDbPolyline
 90
       17
 70
   128
 43
0.0
 10
-837.5784166829125
 20
-153.1580682887643
 10
-841.0970576779382
 20
-152.8638001575086
 10
-844.5829757229819
 20
-152.2017117633436
 10
-848.0039247052209
 20
-151.1779721870038
 10
-851.3280161396997
 20
-149.8020883693311
 10
-854.5244344250694
 20
-148.0868157043073
 10
-857.5635560528771
 20
-146.0481282367322
 10
-860.4170092122094
 20
-143.7048908366773
 10
-863.0584486500756
 20
-141.0789486064527
 10
-865.4631980435388
 20
-138.1945904388044
 10
-867.6090844647424
 20
-135.0786682262037
 10
-869.4760807530419
 20
-131.7600902213662
 10
-871.0469015614526
 20
-128.2697018279645
 10
-872.3068841473594
 20
-124.63986836811
 10
-873.2444056050317
 20
-120.9043260707471
 10
-873.850704051687
 20
-117.097764839134
 10
-874.1202362553613
 20
-113.2555004253003
  0
LWPOLYLINE
  5
23D2
330
1A
100
AcDbEntity
  8
PEN50
100
AcDbPolyline
 90
       18
 70
   128
 43
0.0
 10
-1025.076754905416
 20
511.8419317112357
 10
-1029.199310161306
 20
511.7024568424612
 10
-1033.275254584981
 20
511.23387492756
 10
-1037.270911552144
 20
510.4400304661185
 10
-1041.153558112813
 20
509.327450166741
 10
-1044.891126968099
 20
507.9053131447226
 10
-1048.452862121297
 20
506.1852721081168
 10
-1051.809616901113
 20
504.1815427647025
 10
-1054.933615543081
 20
501.9105461941153
 10
-1057.799287654592
 20
499.3909684524924
 10
-1060.382970191671
 20
496.6435817585379
 10
-1062.663384296132
 20
493.6909464702994
 10
-1064.621873714162
 20
490.5573812828452
 10
-1066.242285587026
 20
487.2686652050406
 10
-1067.511268474294
 20
483.8518289432913
 10
-1068.418391563131
 20
480.334976087609
 10
-1068.956144668294
 20
476.7470446930319
 10
-1069.120236255361
 20
473.1175688610465
  0
LWPOLYLINE
  5
23D3
330
1A
100
AcDbEntity
  8
PEN50
100
AcDbPolyline
 90
       17
 70
   128
 43
0.0
 10
-837.5784166829125
 20
476.8419317112357
 10
-841.0970576779382
 20
476.54766357998
 10
-844.5829757229819
 20
475.885575185815
 10
-848.0039247052209
 20
474.8618356094753
 10
-851.3280161396997
 20
473.4859517918025
 10
-854.5244344250694
 20
471.7706791267787
 10
-857.5635560528771
 20
469.7319916592037
 10
-860.4170092122094
 20
467.3887542591487
 10
-863.0584486500756
 20
464.7628120289241
 10
-865.4631980435388
 20
461.8784538612758
 10
-867.6090844647424
 20
458.7625316486751
 10
-869.4760807530419
 20
455.4439536438376
 10
-871.0469015614526
 20
451.953565250436
 10
-872.3068841473594
 20
448.3237317905814
 10
-873.2444056050317
 20
444.5881894932186
 10
-873.850704051687
 20
440.7816282616054
 10
-874.1202362553613
 20
436.9393638477718
  0
ARC
  5
23D4
330
1A
100
AcDbEntity
  8
PEN50
100
AcDbCircle
 10
-1169.120188571645
 20
601.8419078693778
 30
0.0
 40
10.0
100
AcDbArc
 50
90.0
 51
180.0
  0
CIRCLE
  5
23D6
330
1A
100
AcDbEntity
  8
PEN50
100
AcDbCircle
 10
-279.1202124135033
 20
-8.158080209693252
 30
0.0
 40
50.0
  0
LWPOLYLINE
  5
23D7
330
1A
100
AcDbEntity
  8
PEN50
100
AcDbPolyline
 90
       55
 70
   128
 43
0.0
 10
-279.1202124135025
 20
-181.1370643272016
 10
-282.1386281793397
 20
-181.1493428840253
 10
-285.1162250080538
 20
-181.1859401359174
 10
-288.0127364696391
 20
-181.2464388503644
 10
-290.7889913694389
 20
-181.3299747600176
 10
-293.4074457661636
 20
-181.4354451789472
 10
-295.8326898442037
 20
-181.561389793358
 10
-298.0319280104168
 20
-181.7061098708722
 10
-299.9754156844151
 20
-181.8676980628583
 10
-301.6368728057869
 20
-182.0438893928148
 10
-302.9938302860987
 20
-182.232389081917
 10
-304.0279392079842
 20
-182.4305745257952
 10
-304.7252148316633
 20
-182.6357933177564
 10
-305.0762247221
 20
-182.84527384182
 10
-305.0762247221
 20
-183.0561848773572
 10
-304.7252148316633
 20
-183.2656654014203
 10
-304.0279392079842
 20
-183.4709139957048
 10
-302.9938302860987
 20
-183.669099439583
 10
-301.6368728057869
 20
-183.8575693263624
 10
-299.9754156844151
 20
-184.0337904586412
 10
-298.0319280104168
 20
-184.1953488483045
 10
-295.8326898442037
 20
-184.340098728142
 10
-293.4074457661636
 20
-184.4660433425524
 10
-290.7889913694389
 20
-184.5714839591596
 10
-288.0127364696391
 20
-184.6550198688128
 10
-285.1162250080538
 20
-184.7155185832598
 10
-282.1386281793397
 20
-184.7521456374743
 10
-279.1202124135022
 20
-184.7643943919756
 10
-276.1017966476661
 20
-184.7521456374743
 10
-273.1241998189521
 20
-184.7155185832598
 10
-270.2276883573659
 20
-184.6550198688128
 10
-267.4514334575665
 20
-184.5714839591596
 10
-264.8329790608413
 20
-184.4660433425524
 10
-262.4077349828016
 20
-184.340098728142
 10
-260.2084968165882
 20
-184.1953488483045
 10
-258.2650091425903
 20
-184.0337904586412
 10
-256.6035520212181
 20
-183.8575693263624
 10
-255.2465945409071
 20
-183.669099439583
 10
-254.2124856190216
 20
-183.4709139957048
 10
-253.5152099953425
 20
-183.2656654014203
 10
-253.1642001049053
 20
-183.0561848773572
 10
-253.1642001049053
 20
-182.84527384182
 10
-253.5152099953425
 20
-182.6357933177564
 10
-254.2124856190216
 20
-182.4305745257952
 10
-255.2465945409071
 20
-182.232389081917
 10
-256.6035520212181
 20
-182.0438893928148
 10
-258.2650091425903
 20
-181.8676980628583
 10
-260.2084968165882
 20
-181.7061098708722
 10
-262.4077349828016
 20
-181.561389793358
 10
-264.8329790608413
 20
-181.4354451789472
 10
-267.4514334575665
 20
-181.3299747600176
 10
-270.2276883573659
 20
-181.2464388503644
 10
-273.1241998189521
 20
-181.1859401359174
 10
-276.1017966476661
 20
-181.1493428840253
 10
-279.1202124135025
 20
-181.1370643272016
  0
CIRCLE
  5
23D8
330
1A
100
AcDbEntity
  8
PEN50
100
AcDbCircle
 10
-279.1202124135033
 20
-8.158080209693252
 30
0.0
 40
26.0
  0
LINE
  5
23D9
330
1A
100
AcDbEntity
  8
PEN50
100
AcDbLine
 10
315.8797637446387
 20
436.9393638477704
 30
0.0
 11
315.8797637446377
 21
-113.2555004253022
 31
0.0
  0
LINE
  5
23DA
330
1A
100
AcDbEntity
  8
PEN50
100
AcDbLine
 10
510.8797637446387
 20
473.1175688610465
 30
0.0
 11
510.8797637446387
 21
-149.4337054385655
 31
0.0
  0
LWPOLYLINE
  5
23DB
330
1A
100
AcDbEntity
  8
PEN50
100
AcDbPolyline
 90
       17
 70
   128
 43
0.0
 10
279.3379441721888
 20
-153.1580682887656
 10
282.8565851672144
 20
-152.86380015751
 10
286.3425032122581
 20
-152.2017117633449
 10
289.7634521944971
 20
-151.1779721870052
 10
293.0875436289759
 20
-149.8020883693325
 10
296.2839619143455
 20
-148.0868157043087
 10
299.3230835421534
 20
-146.0481282367336
 10
302.1765367014856
 20
-143.7048908366787
 10
304.8179761393521
 20
-141.0789486064541
 10
307.2227255328152
 20
-138.1945904388057
 10
309.3686119540188
 20
-135.078668226205
 10
311.2356082423184
 20
-131.7600902213675
 10
312.806429050729
 20
-128.2697018279659
 10
314.0664116366358
 20
-124.6398683681113
 10
315.0039330943081
 20
-120.9043260707485
 10
315.6102315409634
 20
-117.0977648391353
 10
315.8797637446377
 20
-113.2555004253017
  0
LWPOLYLINE
  5
23DC
330
1A
100
AcDbEntity
  8
PEN50
100
AcDbPolyline
 90
       18
 70
   128
 43
0.0
 10
466.8362823946932
 20
-188.1580682887647
 10
470.9588376505831
 20
-188.0185934199903
 10
475.0347820742586
 20
-187.550011505089
 10
479.0304390414217
 20
-186.7561670436475
 10
482.9130856020906
 20
-185.6435867442701
 10
486.6506544573763
 20
-184.2214497222516
 10
490.2123896105742
 20
-182.5014086856458
 10
493.5691443903902
 20
-180.4976793422315
 10
496.693143032358
 20
-178.2266827716443
 10
499.5588151438692
 20
-175.7071050300214
 10
502.142497680948
 20
-172.9597183360669
 10
504.4229117854097
 20
-170.0070830478284
 10
506.3814012034395
 20
-166.8735178603742
 10
508.0018130763033
 20
-163.5848017825696
 10
509.2707959635713
 20
-160.1679655208204
 10
510.177919052408
 20
-156.651112665138
 10
510.7156721575716
 20
-153.063181270561
 10
510.8797637446382
 20
-149.4337054385755
  0
LWPOLYLINE
  5
23DD
330
1A
100
AcDbEntity
  8
PEN50
100
AcDbPolyline
 90
       17
 70
   128
 43
0.0
 10
279.3379441721902
 20
476.8419317112347
 10
282.8565851672158
 20
476.5476635799786
 10
286.3425032122595
 20
475.8855751858136
 10
289.7634521944985
 20
474.8618356094739
 10
293.0875436289773
 20
473.4859517918011
 10
296.2839619143469
 20
471.7706791267773
 10
299.3230835421547
 20
469.7319916592022
 10
302.176536701487
 20
467.3887542591473
 10
304.817976139353
 20
464.7628120289227
 10
307.2227255328161
 20
461.8784538612744
 10
309.3686119540198
 20
458.7625316486737
 10
311.2356082423193
 20
455.4439536438366
 10
312.80642905073
 20
451.9535652504345
 10
314.0664116366367
 20
448.3237317905804
 10
315.0039330943091
 20
444.5881894932171
 10
315.6102315409643
 20
440.781628261604
 10
315.8797637446387
 20
436.9393638477704
  0
LWPOLYLINE
  5
23DE
330
1A
100
AcDbEntity
  8
PEN50
100
AcDbPolyline
 90
       18
 70
   128
 43
0.0
 10
466.8362823946936
 20
511.8419317112357
 10
470.9588376505835
 20
511.7024568424612
 10
475.034782074259
 20
511.23387492756
 10
479.0304390414221
 20
510.4400304661185
 10
482.9130856020911
 20
509.327450166741
 10
486.6506544573767
 20
507.9053131447226
 10
490.2123896105747
 20
506.1852721081168
 10
493.5691443903906
 20
504.1815427647025
 10
496.6931430323584
 20
501.9105461941153
 10
499.5588151438696
 20
499.3909684524924
 10
502.1424976809485
 20
496.6435817585379
 10
504.4229117854102
 20
493.6909464702994
 10
506.3814012034399
 20
490.5573812828452
 10
508.0018130763037
 20
487.2686652050406
 10
509.2707959635718
 20
483.8518289432913
 10
510.1779190524085
 20
480.334976087609
 10
510.715672157572
 20
476.7470446930319
 10
510.8797637446387
 20
473.1175688610465
  0
LINE
  5
23E7
330
1A
100
AcDbEntity
  8
PEN50
100
AcDbLine
 10
620.8797637446386
 20
-671.4126914912044
 30
0.0
 11
620.8797637446386
 21
-646.4126911186753
 31
0.0
  0
LINE
  5
2402
330
1A
100
AcDbEntity
  8
PEN50
100
AcDbLine
 10
620.8797637446386
 20
601.8419078693778
 30
0.0
 11
620.8797637446386
 21
-278.1580682887642
 31
0.0
  0
VIEWPORT
  5
22
330
17
100
AcDbEntity
 67
     1
  8
0
100
AcDbViewport
 10
220.2584339838562
 20
148.4985878174789
 30
0.0
 40
468.3230990292618
 41
279.6023701725305
 68
     1
 69
     1
1001
ACAD
1000
MVIEW
1002
{
1070
    16
1010
0.0
1020
0.0
1030
0.0
1010
0.0
1020
0.0
1030
1.0
1040
0.0
1040
279.6023701725305
1040
220.2584339838562
1040
148.4985878174789
1040
50.0
1040
0.0
1040
0.0
1070
     0
1070
   100
1070
     1
1070
     1
1070
     0
1070
     0
1070
     0
1070
     0
1040
0.0
1040
0.0
1040
0.0
1040
1.0
1040
1.0
1040
10.0
1040
10.0
1070
     0
1002
{
1002
}
1002
}
  0
VIEWPORT
  5
DC
330
17
100
AcDbEntity
 67
     1
  8
VIEWPORT
100
AcDbViewport
 10
220.2508992555873
 20
148.5
 30
0.0
 40
400.5017985111747
 41
277.0
 68
     2
 69
     2
1001
ACAD
1000
MVIEW
1002
{
1070
    16
1010
0.0
1020
0.0
1030
0.0
1010
0.0
1020
0.0
1030
1.0
1040
0.0
1040
2902.115092943735
1040
684.4180930188302
1040
-344.6919414406189
1040
50.0
1040
0.0
1040
0.0
1070
     0
1070
   100
1070
     1
1070
     1
1070
     0
1070
     0
1070
     0
1070
     0
1040
0.0
1040
0.0
1040
0.0
1040
1.0
1040
1.0
1040
10.0
1040
10.0
1070
     0
1002
{
1002
}
1002
}
  0
LWPOLYLINE
  5
DD
330
17
100
AcDbEntity
 67
     1
  8
KADER
100
AcDbPolyline
 90
        4
 70
     1
 43
0.0
 10
20.0
 20
10.0
 10
420.5017985111746
 20
10.0
 10
420.5017985111746
 20
287.0
 10
20.0
 20
287.0
  0
ENDSEC
  0
SECTION
  2
OBJECTS
  0
DICTIONARY
  5
C
330
0
100
AcDbDictionary
  3
ACAD_GROUP
350
D
  3
ACAD_LAYOUT
350
1161
  3
ACAD_MLINESTYLE
350
E
  3
ACAD_PLOTSETTINGS
350
1162
  3
ACAD_PLOTSTYLENAME
350
115F
  3
ACDBHEADERROUNDTRIPXREC
350
337D
  3
ACDBVARIABLEDICTIONARY
350
5D
  0
DICTIONARY
  5
320D
330
2
100
AcDbDictionary
280
     1
  3
ACAD_LAYERSTATES
360
320E
  0
DICTIONARY
  5
1D3A
330
1A
100
AcDbDictionary
280
     1
  3
ACAD_LAYOUTSELFREF
360
339F
  0
DICTIONARY
  5
1D38
330
17
100
AcDbDictionary
280
     1
  3
ACAD_LAYOUTSELFREF
360
339E
  0
DICTIONARY
  5
D
102
{ACAD_REACTORS
330
C
102
}
330
C
100
AcDbDictionary
  0
DICTIONARY
  5
1161
102
{ACAD_REACTORS
330
C
102
}
330
C
100
AcDbDictionary
  0
DICTIONARY
  5
E
102
{ACAD_REACTORS
330
C
102
}
330
C
100
AcDbDictionary
  3
STANDARD
350
13
  0
DICTIONARY
  5
1162
102
{ACAD_REACTORS
330
C
102
}
330
C
100
AcDbDictionary
  0
ACDBDICTIONARYWDFLT
  5
115F
102
{ACAD_REACTORS
330
C
102
}
330
C
100
AcDbDictionary
281
     1
  3
Normal
350
1160
100
AcDbDictionaryWithDefault
340
1160
  0
DICTIONARY
  5
337D
102
{ACAD_REACTORS
330
C
102
}
330
C
100
AcDbDictionary
  3
CEPSNTYPE
350
3387
  3
DIMSTYLEDATA
350
338B
  3
FINGERPRINTGUID
350
3388
  3
HYPERLINKBASE
350
3380
  3
INSUNITS
350
3386
  3
LAYOUTDICT
350
3382
  3
LWETCUNION
350
3385
  3
PLOTSETDICT
350
3383
  3
PLOTSTYLNAMDICT
350
3384
  3
PSVPSCALE
350
338A
  3
PUCSBASE
350
338E
  3
PUCSORGBACK
350
3394
  3
PUCSORGBOTTOM
350
3390
  3
PUCSORGFRONT
350
3393
  3
PUCSORGLEFT
350
3391
  3
PUCSORGRIGHT
350
3392
  3
PUCSORGTOP
350
338F
  3
PUCSORTHOREF
350
338C
  3
PUCSORTHOVIEW
350
338D
  3
STYLESHEET
350
3381
  3
TSTACKALIGN
350
337E
  3
TSTACKSIZE
350
337F
  3
UCSBASE
350
3397
  3
UCSORGBACK
350
339D
  3
UCSORGBOTTOM
350
3399
  3
UCSORGFRONT
350
339C
  3
UCSORGLEFT
350
339A
  3
UCSORGRIGHT
350
339B
  3
UCSORGTOP
350
3398
  3
UCSORTHOREF
350
3395
  3
UCSORTHOVIEW
350
3396
  3
VERSIONGUID
350
3389
  0
DICTIONARY
  5
5D
102
{ACAD_REACTORS
330
C
102
}
330
C
100
AcDbDictionary
  3
DIMADEC
350
5E
  3
DIMASSOC
350
1DDB
  0
DICTIONARY
  5
320E
102
{ACAD_REACTORS
330
320D
102
}
330
320D
100
AcDbDictionary
  0
XRECORD
  5
339F
102
{ACAD_REACTORS
330
1D3A
102
}
330
1D3A
100
AcDbXrecord
340
1A
  0
XRECORD
  5
339E
102
{ACAD_REACTORS
330
1D38
102
}
330
1D38
100
AcDbXrecord
340
17
  0
MLINESTYLE
  5
13
102
{ACAD_REACTORS
330
E
102
}
330
E
100
AcDbMlineStyle
  2
STANDARD
 70
     0
  3

 62
     0
 51
90.0
 52
90.0
 71
     2
 49
0.5
 62
   256
  6
BYLAYER
 49
-0.5
 62
   256
  6
BYLAYER
  0
ACDBPLACEHOLDER
  5
1160
102
{ACAD_REACTORS
330
115F
102
}
330
115F
100
AcDbPlaceHolder
280
     0
  0
XRECORD
  5
3387
102
{ACAD_REACTORS
330
337D
102
}
330
337D
100
AcDbXrecord
 90
        0
  0
XRECORD
  5
338B
102
{ACAD_REACTORS
330
337D
102
}
330
337D
100
AcDbXrecord
1000
DSTYLE
1002
{
1070
   277
 70
     6
1002
}
  0
XRECORD
  5
3388
102
{ACAD_REACTORS
330
337D
102
}
330
337D
100
AcDbXrecord
  1
{EE5D8844-5A9E-4D4C-AA47-DDE00D759FF1}
  0
XRECORD
  5
3380
102
{ACAD_REACTORS
330
337D
102
}
330
337D
100
AcDbXrecord
  1

  0
XRECORD
  5
3386
102
{ACAD_REACTORS
330
337D
102
}
330
337D
100
AcDbXrecord
 90
        0
  0
XRECORD
  5
3382
102
{ACAD_REACTORS
330
337D
102
}
330
337D
100
AcDbXrecord
340
1161
  0
XRECORD
  5
3385
102
{ACAD_REACTORS
330
337D
102
}
330
337D
100
AcDbXrecord
 90
    14877
  0
XRECORD
  5
3383
102
{ACAD_REACTORS
330
337D
102
}
330
337D
100
AcDbXrecord
340
1162
  0
XRECORD
  5
3384
102
{ACAD_REACTORS
330
337D
102
}
330
337D
100
AcDbXrecord
340
115F
  0
XRECORD
  5
338A
102
{ACAD_REACTORS
330
337D
102
}
330
337D
100
AcDbXrecord
 40
0.0
  0
XRECORD
  5
338E
102
{ACAD_REACTORS
330
337D
102
}
330
337D
100
AcDbXrecord
340
0
  0
XRECORD
  5
3394
102
{ACAD_REACTORS
330
337D
102
}
330
337D
100
AcDbXrecord
 10
0.0
 20
0.0
 30
0.0
  0
XRECORD
  5
3390
102
{ACAD_REACTORS
330
337D
102
}
330
337D
100
AcDbXrecord
 10
0.0
 20
0.0
 30
0.0
  0
XRECORD
  5
3393
102
{ACAD_REACTORS
330
337D
102
}
330
337D
100
AcDbXrecord
 10
0.0
 20
0.0
 30
0.0
  0
XRECORD
  5
3391
102
{ACAD_REACTORS
330
337D
102
}
330
337D
100
AcDbXrecord
 10
0.0
 20
0.0
 30
0.0
  0
XRECORD
  5
3392
102
{ACAD_REACTORS
330
337D
102
}
330
337D
100
AcDbXrecord
 10
0.0
 20
0.0
 30
0.0
  0
XRECORD
  5
338F
102
{ACAD_REACTORS
330
337D
102
}
330
337D
100
AcDbXrecord
 10
0.0
 20
0.0
 30
0.0
  0
XRECORD
  5
338C
102
{ACAD_REACTORS
330
337D
102
}
330
337D
100
AcDbXrecord
340
0
  0
XRECORD
  5
338D
102
{ACAD_REACTORS
330
337D
102
}
330
337D
100
AcDbXrecord
 70
     0
  0
XRECORD
  5
3381
102
{ACAD_REACTORS
330
337D
102
}
330
337D
100
AcDbXrecord
  1

  0
XRECORD
  5
337E
102
{ACAD_REACTORS
330
337D
102
}
330
337D
100
AcDbXrecord
 90
        1
  0
XRECORD
  5
337F
102
{ACAD_REACTORS
330
337D
102
}
330
337D
100
AcDbXrecord
 90
       70
  0
XRECORD
  5
3397
102
{ACAD_REACTORS
330
337D
102
}
330
337D
100
AcDbXrecord
340
0
  0
XRECORD
  5
339D
102
{ACAD_REACTORS
330
337D
102
}
330
337D
100
AcDbXrecord
 10
0.0
 20
0.0
 30
0.0
  0
XRECORD
  5
3399
102
{ACAD_REACTORS
330
337D
102
}
330
337D
100
AcDbXrecord
 10
0.0
 20
0.0
 30
0.0
  0
XRECORD
  5
339C
102
{ACAD_REACTORS
330
337D
102
}
330
337D
100
AcDbXrecord
 10
0.0
 20
0.0
 30
0.0
  0
XRECORD
  5
339A
102
{ACAD_REACTORS
330
337D
102
}
330
337D
100
AcDbXrecord
 10
0.0
 20
0.0
 30
0.0
  0
XRECORD
  5
339B
102
{ACAD_REACTORS
330
337D
102
}
330
337D
100
AcDbXrecord
 10
0.0
 20
0.0
 30
0.0
  0
XRECORD
  5
3398
102
{ACAD_REACTORS
330
337D
102
}
330
337D
100
AcDbXrecord
 10
0.0
 20
0.0
 30
0.0
  0
XRECORD
  5
3395
102
{ACAD_REACTORS
330
337D
102
}
330
337D
100
AcDbXrecord
340
0
  0
XRECORD
  5
3396
102
{ACAD_REACTORS
330
337D
102
}
330
337D
100
AcDbXrecord
 70
     0
  0
XRECORD
  5
3389
102
{ACAD_REACTORS
330
337D
102
}
330
337D
100
AcDbXrecord
  1
{A7D31018-DF65-4051-AAF8-7B459C75EDD4}
  0
DICTIONARYVAR
  5
5E
102
{ACAD_REACTORS
330
5D
102
}
330
5D
100
DictionaryVariables
280
     0
  1
0
  0
DICTIONARYVAR
  5
1DDB
102
{ACAD_REACTORS
330
5D
102
}
330
5D
100
DictionaryVariables
280
     0
  1
1
  0
ENDSEC
  0
EOF
