  0
SECTION
  2
HEADER
  9
$ACADVER
  1
AC1014
  9
$ACADMAINTVER
 70
     9
  9
$DWGCODEPAGE
  3
ANSI_1250
  9
$INSBASE
 10
0.0
 20
0.0
 30
0.0
  9
$EXTMIN
 10
2.167588877826453
 20
4.365280205343481
 30
-0.0015258207003583
  9
$EXTMAX
 10
15.50485387342616
 20
17.17144779834366
 30
0.0000000349246037
  9
$LIMMIN
 10
0.0
 20
0.0
  9
$LIMMAX
 10
0.0
 20
0.0
  9
$ORTHOMODE
 70
     0
  9
$REGENMODE
 70
     1
  9
$FILLMODE
 70
     1
  9
$QTEXTMODE
 70
     0
  9
$MIRRTEXT
 70
     1
  9
$DRAGMODE
 70
     2
  9
$LTSCALE
 40
1.0
  9
$OSMODE
 70
   959
  9
$ATTMODE
 70
     1
  9
$TEXTSIZE
 40
2.5
  9
$TRACEWID
 40
1.0
  9
$TEXTSTYLE
  7
STANDARD
  9
$CLAYER
  8
0
  9
$CELTYPE
  6
BYLAYER
  9
$CECOLOR
 62
   256
  9
$CELTSCALE
 40
1.0
  9
$DELOBJ
 70
     1
  9
$DISPSILH
 70
     0
  9
$DIMSCALE
 40
1.0
  9
$DIMASZ
 40
0.3
  9
$DIMEXO
 40
0.1
  9
$DIMDLI
 40
3.75
  9
$DIMRND
 40
0.0
  9
$DIMDLE
 40
0.0
  9
$DIMEXE
 40
0.1
  9
$DIMTP
 40
0.0
  9
$DIMTM
 40
0.0
  9
$DIMTXT
 40
0.2822222222222222
  9
$DIMCEN
 40
2.5
  9
$DIMTSZ
 40
0.0
  9
$DIMTOL
 70
     0
  9
$DIMLIM
 70
     0
  9
$DIMTIH
 70
     1
  9
$DIMTOH
 70
     1
  9
$DIMSE1
 70
     0
  9
$DIMSE2
 70
     0
  9
$DIMTAD
 70
     1
  9
$DIMZIN
 70
     0
  9
$DIMBLK
  1

  9
$DIMASO
 70
     1
  9
$DIMSHO
 70
     1
  9
$DIMPOST
  1

  9
$DIMAPOST
  1

  9
$DIMALT
 70
     0
  9
$DIMALTD
 70
     3
  9
$DIMALTF
 40
0.3937007874015748
  9
$DIMLFAC
 40
15.0
  9
$DIMTOFL
 70
     1
  9
$DIMTVP
 40
0.0
  9
$DIMTIX
 70
     0
  9
$DIMSOXD
 70
     0
  9
$DIMSAH
 70
     0
  9
$DIMBLK1
  1

  9
$DIMBLK2
  1

  9
$DIMSTYLE
  2
ISO-25
  9
$DIMCLRD
 70
     0
  9
$DIMCLRE
 70
     0
  9
$DIMCLRT
 70
     0
  9
$DIMTFAC
 40
1.0
  9
$DIMGAP
 40
0.1524
  9
$DIMJUST
 70
     0
  9
$DIMSD1
 70
     0
  9
$DIMSD2
 70
     0
  9
$DIMTOLJ
 70
     0
  9
$DIMTZIN
 70
     0
  9
$DIMALTZ
 70
     0
  9
$DIMALTTZ
 70
     0
  9
$DIMFIT
 70
     3
  9
$DIMUPT
 70
     0
  9
$DIMUNIT
 70
     2
  9
$DIMDEC
 70
     2
  9
$DIMTDEC
 70
     2
  9
$DIMALTU
 70
     2
  9
$DIMALTTD
 70
     3
  9
$DIMTXSTY
  7
STANDARD
  9
$DIMAUNIT
 70
     0
  9
$LUNITS
 70
     2
  9
$LUPREC
 70
     2
  9
$SKETCHINC
 40
1.0
  9
$FILLETRAD
 40
10.0
  9
$AUNITS
 70
     0
  9
$AUPREC
 70
     0
  9
$MENU
  1
.
  9
$ELEVATION
 40
0.0
  9
$PELEVATION
 40
0.0
  9
$THICKNESS
 40
0.0
  9
$LIMCHECK
 70
     0
  9
$BLIPMODE
 70
     0
  9
$CHAMFERA
 40
10.0
  9
$CHAMFERB
 40
10.0
  9
$CHAMFERC
 40
20.0
  9
$CHAMFERD
 40
0.0
  9
$SKPOLY
 70
     0
  9
$TDCREATE
 40
2454418.372413368
  9
$TDUPDATE
 40
2454418.398206551
  9
$TDINDWG
 40
0.0005841435
  9
$TDUSRTIMER
 40
0.0005841435
  9
$USRTIMER
 70
     1
  9
$ANGBASE
 50
0.0
  9
$ANGDIR
 70
     0
  9
$PDMODE
 70
     0
  9
$PDSIZE
 40
-1.0
  9
$PLINEWID
 40
0.0
  9
$COORDS
 70
     0
  9
$SPLFRAME
 70
     0
  9
$SPLINETYPE
 70
     6
  9
$SPLINESEGS
 70
     8
  9
$ATTDIA
 70
     0
  9
$ATTREQ
 70
     1
  9
$HANDLING
 70
 22529
  9
$HANDSEED
  5
242
  9
$SURFTAB1
 70
     6
  9
$SURFTAB2
 70
     6
  9
$SURFTYPE
 70
     6
  9
$SURFU
 70
     6
  9
$SURFV
 70
     6
  9
$UCSNAME
  2

  9
$UCSORG
 10
0.0
 20
0.0
 30
0.0
  9
$UCSXDIR
 10
1.0
 20
0.0
 30
0.0
  9
$UCSYDIR
 10
0.0
 20
1.0
 30
0.0
  9
$PUCSNAME
  2

  9
$PUCSORG
 10
0.0
 20
0.0
 30
0.0
  9
$PUCSXDIR
 10
1.0
 20
0.0
 30
0.0
  9
$PUCSYDIR
 10
0.0
 20
1.0
 30
0.0
  9
$USERI1
 70
     0
  9
$USERI2
 70
     0
  9
$USERI3
 70
     0
  9
$USERI4
 70
     0
  9
$USERI5
 70
     0
  9
$USERR1
 40
0.0
  9
$USERR2
 40
0.0
  9
$USERR3
 40
0.0
  9
$USERR4
 40
0.0
  9
$USERR5
 40
0.0
  9
$WORLDVIEW
 70
     1
  9
$SHADEDGE
 70
     3
  9
$SHADEDIF
 70
    70
  9
$TILEMODE
 70
     1
  9
$MAXACTVP
 70
    64
  9
$PINSBASE
 10
0.0
 20
0.0
 30
0.0
  9
$PLIMCHECK
 70
     0
  9
$PEXTMIN
 10
1.000000000000000E+20
 20
1.000000000000000E+20
 30
1.000000000000000E+20
  9
$PEXTMAX
 10
-1.000000000000000E+20
 20
-1.000000000000000E+20
 30
-1.000000000000000E+20
  9
$PLIMMIN
 10
0.0
 20
0.0
  9
$PLIMMAX
 10
420.0
 20
297.0
  9
$UNITMODE
 70
     0
  9
$VISRETAIN
 70
     1
  9
$PLINEGEN
 70
     0
  9
$PSLTSCALE
 70
     1
  9
$TREEDEPTH
 70
  3020
  9
$PICKSTYLE
 70
     1
  9
$CMLSTYLE
  2
STANDARD
  9
$CMLJUST
 70
     0
  9
$CMLSCALE
 40
20.0
  9
$PROXYGRAPHICS
 70
     1
  9
$MEASUREMENT
 70
     1
  0
ENDSEC
  0
SECTION
  2
CLASSES
  0
CLASS
  1
ACDBDICTIONARYWDFLT
  2
AcDbDictionaryWithDefault
  3
AutoCAD 2000
 90
        0
280
     0
281
     0
  0
CLASS
  1
ACDBPLACEHOLDER
  2
AcDbPlaceHolder
  3
AutoCAD 2000
 90
        0
280
     0
281
     0
  0
CLASS
  1
LAYOUT
  2
AcDbLayout
  3
AutoCAD 2000
 90
        0
280
     0
281
     0
  0
CLASS
  1
DICTIONARYVAR
  2
AcDbDictionaryVar
  3
AutoCAD 2000
 90
        0
280
     0
281
     0
  0
CLASS
  1
LONG_TRANSACTION
  2
AcDbLongTransaction
  3
AutoCAD 2000
 90
        0
280
     0
281
     0
  0
CLASS
  1
LWPOLYLINE
  2
AcDbPolyline
  3
AutoCAD 2000
 90
        0
280
     0
281
     1
  0
CLASS
  1
HATCH
  2
AcDbHatch
  3
AutoCAD 2000
 90
        0
280
     0
281
     1
  0
CLASS
  1
XRECORD
  2
AcDbXrecord
  3
AutoCAD 2000
 90
        0
280
     0
281
     0
  0
ENDSEC
  0
SECTION
  2
TABLES
  0
TABLE
  2
VPORT
  5
8
330
0
100
AcDbSymbolTable
 70
     3
  0
VPORT
  5
21A
330
8
100
AcDbSymbolTableRecord
100
AcDbViewportTableRecord
  2
*ACTIVE
 70
     0
 10
0.0
 20
0.0
 11
1.0
 21
1.0
 12
8.836221375626308
 22
10.76836400184357
 13
0.0
 23
0.0
 14
10.0
 24
10.0
 15
10.0
 25
10.0
 16
0.0
 26
0.0
 36
1.0
 17
0.0
 27
0.0
 37
0.0
 40
12.88457270071242
 41
1.884576098059244
 42
50.0
 43
0.0
 44
0.0
 50
0.0
 51
0.0
 71
     0
 72
  2000
 73
     1
 74
     3
 75
     0
 76
     0
 77
     0
 78
     0
  0
ENDTAB
  0
TABLE
  2
LTYPE
  5
5
330
0
100
AcDbSymbolTable
 70
     6
  0
LTYPE
  5
14
330
5
100
AcDbSymbolTableRecord
100
AcDbLinetypeTableRecord
  2
BYBLOCK
 70
     0
  3

 72
    65
 73
     0
 40
0.0
  0
LTYPE
  5
15
330
5
100
AcDbSymbolTableRecord
100
AcDbLinetypeTableRecord
  2
BYLAYER
 70
     0
  3

 72
    65
 73
     0
 40
0.0
  0
LTYPE
  5
16
330
5
100
AcDbSymbolTableRecord
100
AcDbLinetypeTableRecord
  2
CONTINUOUS
 70
     0
  3
Solid line
 72
    65
 73
     0
 40
0.0
  0
ENDTAB
  0
TABLE
  2
LAYER
  5
2
330
0
100
AcDbSymbolTable
 70
     3
  0
LAYER
  5
10
330
2
100
AcDbSymbolTableRecord
100
AcDbLayerTableRecord
  2
0
 70
     0
 62
     7
  6
CONTINUOUS
  0
ENDTAB
  0
TABLE
  2
STYLE
  5
3
330
0
100
AcDbSymbolTable
 70
     4
  0
STYLE
  5
11
330
3
100
AcDbSymbolTableRecord
100
AcDbTextStyleTableRecord
  2
STANDARD
 70
     0
 40
0.0
 41
1.0
 50
0.0
 71
     0
 42
2.5
  3
ARIAL.TTF
  4

1001
ACAD
1000
Arial
1071
       34
  0
ENDTAB
  0
TABLE
  2
VIEW
  5
6
330
0
100
AcDbSymbolTable
 70
     0
  0
ENDTAB
  0
TABLE
  2
UCS
  5
7
330
0
100
AcDbSymbolTable
 70
     0
  0
ENDTAB
  0
TABLE
  2
APPID
  5
9
330
0
100
AcDbSymbolTable
 70
     1
  0
APPID
  5
12
330
9
100
AcDbSymbolTableRecord
100
AcDbRegAppTableRecord
  2
ACAD
 70
     0
  0
ENDTAB
  0
TABLE
  2
DIMSTYLE
  5
A
330
0
100
AcDbSymbolTable
 70
     6
  0
DIMSTYLE
105
27
330
A
100
AcDbSymbolTableRecord
100
AcDbDimStyleTableRecord
  2
ISO-25
 70
     0
  3

  4

  5

  6

  7

 40
1.0
 41
2.5
 42
0.625
 43
3.75
 44
1.25
 45
0.0
 46
0.0
 47
0.0
 48
0.0
140
2.5
141
2.5
142
0.0
143
0.03937007874016
144
1.0
145
0.0
146
1.0
147
0.625
 71
     0
 72
     0
 73
     0
 74
     0
 75
     0
 76
     0
 77
     1
 78
     8
170
     0
171
     3
172
     1
173
     0
174
     0
175
     0
176
     0
177
     0
178
     0
270
     2
271
     2
272
     2
273
     2
274
     3
340
11
275
     0
280
     0
281
     0
282
     0
283
     0
284
     8
285
     0
286
     0
287
     3
288
     0
  0
ENDTAB
  0
TABLE
  2
BLOCK_RECORD
  5
1
330
0
100
AcDbSymbolTable
 70
    19
  0
BLOCK_RECORD
  5
1F
102
{ACAD_XDICTIONARY
360
23E
102
}
330
1
100
AcDbSymbolTableRecord
100
AcDbBlockTableRecord
  2
*MODEL_SPACE
  0
BLOCK_RECORD
  5
1B
102
{ACAD_XDICTIONARY
360
23C
102
}
330
1
100
AcDbSymbolTableRecord
100
AcDbBlockTableRecord
  2
*PAPER_SPACE
  0
ENDTAB
  0
ENDSEC
  0
SECTION
  2
BLOCKS
  0
BLOCK
  5
20
330
1F
100
AcDbEntity
  8
0
100
AcDbBlockBegin
  2
*MODEL_SPACE
 70
     0
 10
0.0
 20
0.0
 30
0.0
  3
*MODEL_SPACE
  1

  0
ENDBLK
  5
21
330
1F
100
AcDbEntity
  8
0
100
AcDbBlockEnd
  0
BLOCK
  5
1C
330
1B
100
AcDbEntity
 67
     1
  8
0
100
AcDbBlockBegin
  2
*PAPER_SPACE
 70
     0
 10
0.0
 20
0.0
 30
0.0
  3
*PAPER_SPACE
  1

  0
ENDBLK
  5
1D
330
1B
100
AcDbEntity
 67
     1
  8
0
100
AcDbBlockEnd
  0
ENDSEC
  0
SECTION
  2
ENTITIES
  0
LINE
  5
9C
330
1F
100
AcDbEntity
  8
0
100
AcDbLine
 10
3.08191924491128
 20
11.70554270721848
 30
0.0
 11
14.59060737687946
 21
11.70554270721848
 31
0.0
  0
LINE
  5
9D
330
1F
100
AcDbEntity
  8
0
100
AcDbLine
 10
2.169596644228703
 20
11.17093354838466
 30
0.0
 11
15.50292997756203
 21
11.17093354838466
 31
0.0
  0
LWPOLYLINE
  5
9E
330
1F
100
AcDbEntity
  8
0
100
AcDbPolyline
 90
        3
 70
   128
 43
0.0
 10
2.707950961575912
 20
12.08929588772232
 10
2.707774134463079
 20
11.88198139645035
 10
2.707261931882309
 20
11.70537541684881
  0
LWPOLYLINE
  5
9F
330
1F
100
AcDbEntity
  8
0
100
AcDbPolyline
 90
        3
 70
   128
 43
0.0
 10
2.707261931882309
 20
11.70537541684881
 10
2.855616303271061
 20
11.70548806962743
 10
3.08191924491128
 20
11.70554270721848
  0
LINE
  5
A0
330
1F
100
AcDbEntity
  8
0
100
AcDbLine
 10
14.59060737687946
 20
16.63632423060511
 30
0.0
 11
3.08191924491128
 21
16.63632423060511
 31
0.0
  0
LINE
  5
A1
330
1F
100
AcDbEntity
  8
0
100
AcDbLine
 10
15.50292997756203
 20
17.17093338943894
 30
0.0
 11
2.169596644228703
 21
17.17093338943894
 31
0.0
  0
LWPOLYLINE
  5
A2
330
1F
100
AcDbEntity
  8
0
100
AcDbPolyline
 90
        3
 70
   128
 43
0.0
 10
2.707261931882309
 20
16.63649152097478
 10
2.707774134463079
 20
16.45989229656632
 10
2.707950961575912
 20
16.25257105010127
  0
LWPOLYLINE
  5
A3
330
1F
100
AcDbEntity
  8
0
100
AcDbPolyline
 90
        3
 70
   128
 43
0.0
 10
3.08191924491128
 20
16.63632423060511
 10
2.855624647921331
 20
16.63637886819616
 10
2.707261931882309
 20
16.63649152097478
  0
LWPOLYLINE
  5
A4
330
1F
100
AcDbEntity
  8
0
100
AcDbPolyline
 90
        3
 70
   128
 43
0.0
 10
14.96526468990843
 20
16.63649152097478
 10
14.81691031851967
 20
16.63637886819616
 10
14.59060737687946
 20
16.63632423060511
  0
LWPOLYLINE
  5
A5
330
1F
100
AcDbEntity
  8
0
100
AcDbPolyline
 90
        3
 70
   128
 43
0.0
 10
14.96457566021483
 20
16.25257105010127
 10
14.96475248732766
 20
16.45988554137324
 10
14.96526468990843
 20
16.63649152097478
  0
LWPOLYLINE
  5
A6
330
1F
100
AcDbEntity
  8
0
100
AcDbPolyline
 90
        3
 70
   128
 43
0.0
 10
14.59060737687946
 20
11.70554270721848
 10
14.8169019738694
 20
11.70548806962743
 10
14.96526468990843
 20
11.70537541684881
  0
LWPOLYLINE
  5
A7
330
1F
100
AcDbEntity
  8
0
100
AcDbPolyline
 90
        3
 70
   128
 43
0.0
 10
14.96526468990843
 20
11.70537541684881
 10
14.96475248732766
 20
11.88197464125728
 10
14.96457566021483
 20
12.08929588772232
  0
LINE
  5
A8
330
1F
100
AcDbEntity
  8
0
100
AcDbLine
 10
14.96457566021483
 20
12.08929588772232
 30
0.0
 11
14.96457566021483
 21
16.25257105010127
 31
0.0
  0
LINE
  5
A9
330
1F
100
AcDbEntity
  8
0
100
AcDbLine
 10
15.50292997756203
 20
11.17093354838466
 30
0.0
 11
15.50292997756203
 21
17.17093338943894
 31
0.0
  0
LINE
  5
AA
330
1F
100
AcDbEntity
  8
0
100
AcDbLine
 10
2.707950961575912
 20
16.25257105010127
 30
0.0
 11
2.707950961575912
 21
12.08929588772232
 31
0.0
  0
LINE
  5
AB
330
1F
100
AcDbEntity
  8
0
100
AcDbLine
 10
2.169596644228703
 20
17.17093338943894
 30
0.0
 11
2.169596644228703
 21
11.17093354838466
 31
0.0
  0
LINE
  5
AC
330
1F
100
AcDbEntity
  8
0
100
AcDbLine
 10
14.96526468990843
 20
16.63649152097478
 30
0.0
 11
13.68737845816811
 21
16.30947600183263
 31
0.0
  0
LWPOLYLINE
  5
AD
330
1F
100
AcDbEntity
  8
0
100
AcDbPolyline
 90
       15
 70
   128
 43
0.0
 10
3.985148163622624
 20
16.30947600183263
 10
4.718716434623805
 20
16.30815854050095
 10
5.45229901073973
 20
16.3069384334224
 10
6.185897084063298
 20
16.30585660911973
 10
6.919513038780299
 20
16.30495459216212
 10
7.50647842087945
 20
16.30440483865514
 10
8.093459300186243
 20
16.30404085295772
 10
8.680447779085245
 20
16.30387356258805
 10
9.267435910290485
 20
16.30391369638219
 10
9.854415746515995
 20
16.30417218185837
 10
10.49326597848137
 20
16.30468676862493
 10
11.13210309742491
 20
16.30539685862636
 10
11.77092481850187
 20
16.30626311279709
 10
12.72916345992287
 20
16.30777726945654
 10
13.68737845816811
 20
16.30947600183263
  0
LINE
  5
AE
330
1F
100
AcDbEntity
  8
0
100
AcDbLine
 10
2.707261931882309
 20
16.63649152097478
 30
0.0
 11
3.985148163622624
 21
16.30947600183263
 31
0.0
  0
LINE
  5
AF
330
1F
100
AcDbEntity
  8
0
100
AcDbLine
 10
2.707261931882309
 20
11.70537541684881
 30
0.0
 11
3.995011540240056
 21
12.03491499401505
 31
0.0
  0
LWPOLYLINE
  5
B0
330
1F
100
AcDbEntity
  8
0
100
AcDbPolyline
 90
       16
 70
   128
 43
0.0
 10
13.67751508155068
 20
12.03491499401505
 10
12.06319957175454
 20
12.03853339331721
 10
11.25603665112059
 20
12.04031378405665
 10
10.44886478978992
 20
12.04204112666225
 10
10.0452670375367
 20
12.04285969711716
 10
9.641657910730447
 20
12.04360078153387
 10
9.372559827552246
 20
12.0440156298615
 10
9.103448805199073
 20
12.04430828866735
 10
8.834330623885685
 20
12.04441815989589
 10
8.565470295137174
 20
12.04430550711726
 10
8.296617261554803
 20
12.04401106017207
 10
8.027777067806329
 20
12.04359541711584
 10
7.490060222134994
 20
12.04259902613734
 10
6.952361158516016
 20
12.04148064431921
 10
6.414670638229456
 20
12.04030981041367
 10
3.995011540240056
 20
12.03491499401505
  0
LINE
  5
B1
330
1F
100
AcDbEntity
  8
0
100
AcDbLine
 10
14.96526468990843
 20
11.70537541684881
 30
0.0
 11
13.67751508155068
 21
12.03491499401505
 31
0.0
  0
LWPOLYLINE
  5
B2
330
1F
100
AcDbEntity
  8
0
100
AcDbPolyline
 90
       95
 70
   128
 43
0.0
 10
8.83626331089537
 20
11.72642122087255
 10
8.847840700564043
 20
11.72646512962754
 10
8.859366383203374
 20
11.72659645852819
 10
8.870788882286356
 20
11.72681441284592
 10
8.882057180738456
 20
11.72711839653427
 10
8.893120951439943
 20
11.72750701881821
 10
8.903930787728237
 20
11.72797829287623
 10
8.914438397423433
 20
11.72853023188685
 10
8.924596860494222
 20
11.72916045166428
 10
8.93436080911359
 20
11.72986617065842
 10
8.943686626340952
 20
11.73064401127274
 10
8.952532663430776
 20
11.7314905959107
 10
8.960859419888263
 20
11.73240214961146
 10
8.968629692480968
 20
11.73337469873205
 10
8.975808786338575
 20
11.73440387226517
 10
8.982364639129247
 20
11.73548490183925
 10
8.988267970071243
 20
11.73661321776485
 10
8.993492404109245
 20
11.73778365430608
 10
8.998014620925989
 20
11.73899084704493
 10
9.001814404612785
 20
11.74022963024552
 10
9.004874817516412
 20
11.74149444080765
 10
9.007182150568571
 20
11.74277951694901
 10
9.008726134385671
 20
11.74407909688726
 10
9.009499852345394
 20
11.74538761752223
 10
9.009499852345394
 20
11.74669891970729
 10
9.008726134385671
 20
11.74800724166011
 10
9.007182150568571
 20
11.74930682159836
 10
9.004874817516412
 20
11.75059189773972
 10
9.001814404612785
 20
11.75185670830185
 10
8.998014620925989
 20
11.75309549150243
 10
8.993492404109245
 20
11.75430268424129
 10
8.988267970071243
 20
11.75547312078252
 10
8.982364639129247
 20
11.75660143670812
 10
8.975808786338575
 20
11.7576824662822
 10
8.968629692480968
 20
11.75871163981532
 10
8.960859419888263
 20
11.75968418893591
 10
8.952532663430776
 20
11.76059574263667
 10
8.943686626340952
 20
11.76144252595678
 10
8.93436080911359
 20
11.7622203665711
 10
8.924596860494222
 20
11.76292588688309
 10
8.914438397423433
 20
11.76355610666051
 10
8.903930787728237
 20
11.76410804567113
 10
8.893120951439943
 20
11.76457931972916
 10
8.882057180738456
 20
11.7649679420131
 10
8.870788882286356
 20
11.76527192570145
 10
8.859366383203374
 20
11.76549007870133
 10
8.847840700564043
 20
11.76562120891983
 10
8.836263310895368
 20
11.76566511767482
 10
8.824685921226697
 20
11.76562120891983
 10
8.813160238587366
 20
11.76549007870133
 10
8.801737739504384
 20
11.76527192570145
 10
8.790469441052284
 20
11.7649679420131
 10
8.779405670350797
 20
11.76457931972916
 10
8.768595834062503
 20
11.76410804567113
 10
8.758088224367307
 20
11.76355610666051
 10
8.747929761296518
 20
11.76292588688309
 10
8.738165812677152
 20
11.7622203665711
 10
8.728839995449789
 20
11.76144252595678
 10
8.719993958359962
 20
11.76059574263667
 10
8.711667201902475
 20
11.75968418893591
 10
8.703896929309772
 20
11.75871163981532
 10
8.696717835452167
 20
11.7576824662822
 10
8.690161982661493
 20
11.75660143670812
 10
8.684258651719497
 20
11.75547312078252
 10
8.679034217681493
 20
11.75430268424129
 10
8.67451200086475
 20
11.75309549150243
 10
8.670712217177953
 20
11.75185670830185
 10
8.667651804274328
 20
11.75059189773972
 10
8.665344471222169
 20
11.74930682159836
 10
8.663800487405067
 20
11.74800724166011
 10
8.663026769445346
 20
11.74669891970729
 10
8.663026769445346
 20
11.74538761752223
 10
8.663800487405067
 20
11.74407909688726
 10
8.665344471222169
 20
11.74277951694901
 10
8.667651804274328
 20
11.74149444080765
 10
8.670712217177953
 20
11.74022963024552
 10
8.67451200086475
 20
11.73899084704493
 10
8.679034217681493
 20
11.73778365430608
 10
8.684258651719497
 20
11.73661321776485
 10
8.690161982661493
 20
11.73548490183925
 10
8.696717835452167
 20
11.73440387226517
 10
8.703896929309772
 20
11.73337469873205
 10
8.711667201902475
 20
11.73240214961146
 10
8.719993958359962
 20
11.7314905959107
 10
8.728839995449789
 20
11.73064401127274
 10
8.738165812677152
 20
11.72986617065842
 10
8.747929761296518
 20
11.72916045166428
 10
8.758088224367307
 20
11.72853023188685
 10
8.768595834062503
 20
11.72797829287623
 10
8.779405670350797
 20
11.72750701881821
 10
8.790469441052284
 20
11.72711839653427
 10
8.801737739504384
 20
11.72681441284592
 10
8.813160238587366
 20
11.72659645852819
 10
8.824685921226697
 20
11.72646512962754
 10
8.83626331089537
 20
11.72642122087255
  0
LWPOLYLINE
  5
B3
330
1F
100
AcDbEntity
  8
0
100
AcDbPolyline
 90
        9
 70
   128
 43
0.0
 10
3.995011540240056
 20
12.03491499401505
 10
3.995472482826319
 20
12.56922285136953
 10
3.99540850717426
 20
13.10353190081691
 10
3.994818818555282
 20
13.63785118239497
 10
3.993726464098698
 20
14.17216573285436
 10
3.992165219769882
 20
14.70650310692564
 10
3.990182371920353
 20
15.24083207425848
 10
3.987826796358831
 20
15.77515860773499
 10
3.985148163622624
 20
16.30947600183263
  0
LWPOLYLINE
  5
B4
330
1F
100
AcDbEntity
  8
0
100
AcDbPolyline
 90
        9
 70
   128
 43
0.0
 10
13.68737845816811
 20
16.30947600183263
 10
13.68470022279621
 20
15.77520142373815
 10
13.68234464723468
 20
15.24091780560588
 10
13.68036179938515
 20
14.70661908763026
 10
13.67880055505634
 20
14.17231199337821
 10
13.67770820059975
 20
13.63797297455246
 10
13.67711811461647
 20
13.10362925507004
 10
13.67705413896442
 20
12.5692715284961
 10
13.67751508155068
 20
12.03491499401505
  0
ARC
  5
B5
330
1F
100
AcDbEntity
  8
0
100
AcDbCircle
 10
8.852670754659079
 20
10.84088991616855
 30
0.0
 40
0.9050525428618124
100
AcDbArc
 50
81.54566424619337
 51
91.03875602372239
  0
ARC
  5
B6
330
1F
100
AcDbEntity
  8
0
100
AcDbCircle
 10
8.819855867131659
 20
10.84088991616858
 30
0.0
 40
0.9050525428617875
100
AcDbArc
 50
88.96124397627746
 51
98.45433575380674
  0
CIRCLE
  5
B7
330
1F
100
AcDbEntity
  8
0
100
AcDbCircle
 10
8.83626331089537
 20
12.7709334689118
 30
0.0
 40
0.3665179007108037
  0
CIRCLE
  5
B8
330
1F
100
AcDbEntity
  8
0
100
AcDbCircle
 10
8.83626331089537
 20
12.7709334689118
 30
0.0
 40
0.1733333333333338
  0
LINE
  5
14A
330
1F
100
AcDbEntity
  8
0
100
AcDbLine
 10
8.272826833398825
 20
4.365574963967951
 30
0.0
 11
9.399699788391915
 21
4.365574963967951
 31
0.0
  0
LINE
  5
14B
330
1F
100
AcDbEntity
  8
0
100
AcDbLine
 10
12.98866425988548
 20
4.437267828851151
 30
0.0
 11
9.399699788391915
 21
4.365574963967951
 31
0.0
  0
LINE
  5
14C
330
1F
100
AcDbEntity
  8
0
100
AcDbLine
 10
9.296223995842279
 20
4.520628313728066
 30
0.0
 11
9.399699788391915
 21
4.365574963967951
 31
0.0
  0
LINE
  5
14D
330
1F
100
AcDbEntity
  8
0
100
AcDbLine
 10
13.08804443437227
 20
4.596464722499225
 30
0.0
 11
12.98866425988548
 21
4.437267828851151
 31
0.0
  0
LINE
  5
14E
330
1F
100
AcDbEntity
  8
0
100
AcDbLine
 10
4.610110268615038
 20
4.595952160875289
 30
0.0
 11
4.724346473274699
 21
4.436459121507543
 31
0.0
  0
LINE
  5
14F
330
1F
100
AcDbEntity
  8
0
100
AcDbLine
 10
8.388301626729344
 20
4.52038833371238
 30
0.0
 11
8.272826833398825
 21
4.365574963967951
 31
0.0
  0
LINE
  5
150
330
1F
100
AcDbEntity
  8
0
100
AcDbLine
 10
4.724346473274699
 20
4.436459121507543
 30
0.0
 11
8.272826833398825
 21
4.365574963967951
 31
0.0
  0
LINE
  5
151
330
1F
100
AcDbEntity
  8
0
100
AcDbLine
 10
3.982340387489405
 20
4.608507607501404
 30
0.0
 11
8.462303446716076
 21
4.518908316017842
 31
0.0
  0
LINE
  5
152
330
1F
100
AcDbEntity
  8
0
100
AcDbLine
 10
9.210223175074663
 20
4.518908316017842
 30
0.0
 11
13.69018623430133
 21
4.608507607501404
 31
0.0
  0
ARC
  5
153
330
1F
100
AcDbEntity
  8
0
100
AcDbCircle
 10
8.83626331089537
 20
4.970939046460745
 30
0.0
 40
0.5866666666666676
100
AcDbArc
 50
287.1847959010885
 51
309.6005648414014
  0
ARC
  5
154
330
1F
100
AcDbEntity
  8
0
100
AcDbCircle
 10
8.83626331089537
 20
4.970939046460745
 30
0.0
 40
0.5866666666666671
100
AcDbArc
 50
230.3994351586003
 51
252.815204098913
  0
LINE
  5
155
330
1F
100
AcDbEntity
  8
0
100
AcDbLine
 10
15.50292997756203
 20
7.53143325857486
 30
0.0
 11
15.50292997756203
 21
7.298099750401235
 31
0.0
  0
LINE
  5
156
330
1F
100
AcDbEntity
  8
0
100
AcDbLine
 10
15.50292997756203
 20
7.298099750401235
 30
0.0
 11
2.169596644228703
 21
7.298099750401235
 31
0.0
  0
LINE
  5
157
330
1F
100
AcDbEntity
  8
0
100
AcDbLine
 10
2.169596644228703
 20
7.53143325857486
 30
0.0
 11
2.169596644228703
 21
7.298099750401235
 31
0.0
  0
LINE
  5
158
330
1F
100
AcDbEntity
  8
0
100
AcDbLine
 10
2.169596644228703
 20
7.53143325857486
 30
0.0
 11
15.50292997756203
 21
7.53143325857486
 31
0.0
  0
LINE
  5
159
330
1F
100
AcDbEntity
  8
0
100
AcDbLine
 10
14.88760261931618
 20
7.298099750401235
 30
0.0
 11
13.69064121642312
 21
4.609680527569508
 31
0.0
  0
LWPOLYLINE
  5
15A
330
1F
100
AcDbEntity
  8
0
100
AcDbPolyline
 90
       17
 70
   128
 43
0.0
 10
13.69064121642312
 20
4.609680527569508
 10
12.07193900345365
 20
4.577859594545421
 10
11.26258263189197
 20
4.56221208385791
 10
10.45321682292819
 20
4.547050450366394
 10
10.12945363122821
 20
4.541125649334645
 10
9.805679512010025
 20
4.535507514200267
 10
9.481894465273626
 20
4.530778581024861
 10
9.158098689701166
 20
4.527521087846811
 10
8.83429219130744
 20
4.526317272704498
 10
8.510776675726978
 20
4.527548307301259
 10
8.187271994338439
 20
4.530820999663727
 10
7.863778066621231
 20
4.535555992644684
 10
7.540295016751693
 20
4.541174028437988
 10
7.216822894400365
 20
4.547095650555348
 10
6.40808849730691
 20
4.562247548621551
 10
5.59964844781757
 20
4.577877873303151
 10
3.981885405367619
 20
4.609680527569508
  0
LINE
  5
15B
330
1F
100
AcDbEntity
  8
0
100
AcDbLine
 10
2.784924002474553
 20
7.298099750401235
 30
0.0
 11
3.981885405367619
 21
4.609680527569508
 31
0.0
  0
ARC
  5
15C
330
1F
100
AcDbEntity
  8
0
100
AcDbCircle
 10
8.837330660826781
 20
7.162369435452727
 30
0.0
 40
0.1720896594679442
100
AcDbArc
 50
269.6446326954447
 51
52.06592322723935
  0
ARC
  5
15D
330
1F
100
AcDbEntity
  8
0
100
AcDbCircle
 10
8.835195960963957
 20
7.162369435452727
 30
0.0
 40
0.1720896594679441
100
AcDbArc
 50
127.9340767727601
 51
270.3553673045574
  0
ARC
  5
15E
330
1F
100
AcDbEntity
  8
0
100
AcDbCircle
 10
8.83626331089537
 20
7.165664480763435
 30
0.0
 40
0.1733414741660962
100
AcDbArc
 50
180.6710146155824
 51
359.3289853844191
  0
LINE
  5
15F
330
1F
100
AcDbEntity
  8
0
100
AcDbLine
 10
8.462303446716076
 20
4.518908316017842
 30
0.0
 11
9.210223175074663
 21
4.518908316017842
 31
0.0
  0
LWPOLYLINE
  5
160
330
1F
100
AcDbEntity
  8
0
100
AcDbPolyline
 90
        3
 70
   128
 43
0.0
 10
3.981885405367619
 20
4.609680527569508
 10
3.982364626711613
 20
4.60860416702594
 10
3.982343169039495
 20
4.608651950082834
  0
LWPOLYLINE
  5
161
330
1F
100
AcDbEntity
  8
0
100
AcDbPolyline
 90
        3
 70
   128
 43
0.0
 10
13.69018345275124
 20
4.608651950082834
 10
13.69016199507912
 20
4.60860416702594
 10
13.69064121642312
 20
4.609680527569508
  0
LINE
  5
162
330
1F
100
AcDbEntity
  8
0
100
AcDbLine
 10
8.83626331089537
 20
4.41046302926705
 30
0.0
 11
9.009596647804981
 21
4.41046302926705
 31
0.0
  0
LINE
  5
163
330
1F
100
AcDbEntity
  8
0
100
AcDbLine
 10
8.662929973985757
 20
4.41046302926705
 30
0.0
 11
8.83626331089537
 21
4.41046302926705
 31
0.0
  0
ENDSEC
  0
SECTION
  2
OBJECTS
  0
DICTIONARY
  5
C
330
0
100
AcDbDictionary
  3
ACAD_GROUP
350
D
  3
ACAD_LAYOUT
350
1A
  3
ACAD_MLINESTYLE
350
17
  3
ACAD_PLOTSETTINGS
350
19
  3
ACAD_PLOTSTYLENAME
350
E
  3
ACDBHEADERROUNDTRIPXREC
350
21B
  3
ACDBVARIABLEDICTIONARY
350
218
  0
DICTIONARY
  5
23E
330
1F
100
AcDbDictionary
280
     1
  3
ACAD_LAYOUTSELFREF
360
23F
  0
DICTIONARY
  5
23C
330
1B
100
AcDbDictionary
280
     1
  3
ACAD_LAYOUTSELFREF
360
23D
  0
DICTIONARY
  5
D
102
{ACAD_REACTORS
330
C
102
}
330
C
100
AcDbDictionary
  0
DICTIONARY
  5
1A
102
{ACAD_REACTORS
330
C
102
}
330
C
100
AcDbDictionary
  0
DICTIONARY
  5
17
102
{ACAD_REACTORS
330
C
102
}
330
C
100
AcDbDictionary
  3
STANDARD
350
18
  0
DICTIONARY
  5
19
102
{ACAD_REACTORS
330
C
102
}
330
C
100
AcDbDictionary
  0
ACDBDICTIONARYWDFLT
  5
E
102
{ACAD_REACTORS
330
C
102
}
330
C
100
AcDbDictionary
281
     1
  3
Normal
350
F
100
AcDbDictionaryWithDefault
340
F
  0
DICTIONARY
  5
21B
102
{ACAD_REACTORS
330
C
102
}
330
C
100
AcDbDictionary
  3
CEPSNTYPE
350
225
  3
DIMSTYLEDATA
350
229
  3
FINGERPRINTGUID
350
226
  3
HYPERLINKBASE
350
21E
  3
INSUNITS
350
224
  3
LAYOUTDICT
350
220
  3
LWETCUNION
350
223
  3
PLOTSETDICT
350
221
  3
PLOTSTYLNAMDICT
350
222
  3
PSVPSCALE
350
228
  3
PUCSBASE
350
22C
  3
PUCSORGBACK
350
232
  3
PUCSORGBOTTOM
350
22E
  3
PUCSORGFRONT
350
231
  3
PUCSORGLEFT
350
22F
  3
PUCSORGRIGHT
350
230
  3
PUCSORGTOP
350
22D
  3
PUCSORTHOREF
350
22A
  3
PUCSORTHOVIEW
350
22B
  3
STYLESHEET
350
21F
  3
TSTACKALIGN
350
21C
  3
TSTACKSIZE
350
21D
  3
UCSBASE
350
235
  3
UCSORGBACK
350
23B
  3
UCSORGBOTTOM
350
237
  3
UCSORGFRONT
350
23A
  3
UCSORGLEFT
350
238
  3
UCSORGRIGHT
350
239
  3
UCSORGTOP
350
236
  3
UCSORTHOREF
350
233
  3
UCSORTHOVIEW
350
234
  3
VERSIONGUID
350
227
  0
DICTIONARY
  5
218
102
{ACAD_REACTORS
330
C
102
}
330
C
100
AcDbDictionary
  3
DIMASSOC
350
219
  0
XRECORD
  5
23F
102
{ACAD_REACTORS
330
23E
102
}
330
23E
100
AcDbXrecord
340
1F
  0
XRECORD
  5
23D
102
{ACAD_REACTORS
330
23C
102
}
330
23C
100
AcDbXrecord
340
1B
  0
MLINESTYLE
  5
18
102
{ACAD_REACTORS
330
17
102
}
330
17
100
AcDbMlineStyle
  2
STANDARD
 70
     0
  3

 62
   256
 51
90.0
 52
90.0
 71
     2
 49
0.5
 62
   256
  6
BYLAYER
 49
-0.5
 62
   256
  6
BYLAYER
  0
ACDBPLACEHOLDER
  5
F
102
{ACAD_REACTORS
330
E
102
}
330
E
100
AcDbPlaceHolder
280
     0
  0
XRECORD
  5
225
102
{ACAD_REACTORS
330
21B
102
}
330
21B
100
AcDbXrecord
 90
        0
  0
XRECORD
  5
229
102
{ACAD_REACTORS
330
21B
102
}
330
21B
100
AcDbXrecord
1000
DSTYLE
1002
{
1070
   278
 70
    44
1002
}
  0
XRECORD
  5
226
102
{ACAD_REACTORS
330
21B
102
}
330
21B
100
AcDbXrecord
  1
{06558090-E3F5-4110-B5EF-2867F7AD5A23}
  0
XRECORD
  5
21E
102
{ACAD_REACTORS
330
21B
102
}
330
21B
100
AcDbXrecord
  1

  0
XRECORD
  5
224
102
{ACAD_REACTORS
330
21B
102
}
330
21B
100
AcDbXrecord
 90
        4
  0
XRECORD
  5
220
102
{ACAD_REACTORS
330
21B
102
}
330
21B
100
AcDbXrecord
340
1A
  0
XRECORD
  5
223
102
{ACAD_REACTORS
330
21B
102
}
330
21B
100
AcDbXrecord
 90
    10781
  0
XRECORD
  5
221
102
{ACAD_REACTORS
330
21B
102
}
330
21B
100
AcDbXrecord
340
19
  0
XRECORD
  5
222
102
{ACAD_REACTORS
330
21B
102
}
330
21B
100
AcDbXrecord
340
E
  0
XRECORD
  5
228
102
{ACAD_REACTORS
330
21B
102
}
330
21B
100
AcDbXrecord
 40
0.0
  0
XRECORD
  5
22C
102
{ACAD_REACTORS
330
21B
102
}
330
21B
100
AcDbXrecord
340
0
  0
XRECORD
  5
232
102
{ACAD_REACTORS
330
21B
102
}
330
21B
100
AcDbXrecord
 10
0.0
 20
0.0
 30
0.0
  0
XRECORD
  5
22E
102
{ACAD_REACTORS
330
21B
102
}
330
21B
100
AcDbXrecord
 10
0.0
 20
0.0
 30
0.0
  0
XRECORD
  5
231
102
{ACAD_REACTORS
330
21B
102
}
330
21B
100
AcDbXrecord
 10
0.0
 20
0.0
 30
0.0
  0
XRECORD
  5
22F
102
{ACAD_REACTORS
330
21B
102
}
330
21B
100
AcDbXrecord
 10
0.0
 20
0.0
 30
0.0
  0
XRECORD
  5
230
102
{ACAD_REACTORS
330
21B
102
}
330
21B
100
AcDbXrecord
 10
0.0
 20
0.0
 30
0.0
  0
XRECORD
  5
22D
102
{ACAD_REACTORS
330
21B
102
}
330
21B
100
AcDbXrecord
 10
0.0
 20
0.0
 30
0.0
  0
XRECORD
  5
22A
102
{ACAD_REACTORS
330
21B
102
}
330
21B
100
AcDbXrecord
340
0
  0
XRECORD
  5
22B
102
{ACAD_REACTORS
330
21B
102
}
330
21B
100
AcDbXrecord
 70
     0
  0
XRECORD
  5
21F
102
{ACAD_REACTORS
330
21B
102
}
330
21B
100
AcDbXrecord
  1

  0
XRECORD
  5
21C
102
{ACAD_REACTORS
330
21B
102
}
330
21B
100
AcDbXrecord
 90
        1
  0
XRECORD
  5
21D
102
{ACAD_REACTORS
330
21B
102
}
330
21B
100
AcDbXrecord
 90
       70
  0
XRECORD
  5
235
102
{ACAD_REACTORS
330
21B
102
}
330
21B
100
AcDbXrecord
340
0
  0
XRECORD
  5
23B
102
{ACAD_REACTORS
330
21B
102
}
330
21B
100
AcDbXrecord
 10
0.0
 20
0.0
 30
0.0
  0
XRECORD
  5
237
102
{ACAD_REACTORS
330
21B
102
}
330
21B
100
AcDbXrecord
 10
0.0
 20
0.0
 30
0.0
  0
XRECORD
  5
23A
102
{ACAD_REACTORS
330
21B
102
}
330
21B
100
AcDbXrecord
 10
0.0
 20
0.0
 30
0.0
  0
XRECORD
  5
238
102
{ACAD_REACTORS
330
21B
102
}
330
21B
100
AcDbXrecord
 10
0.0
 20
0.0
 30
0.0
  0
XRECORD
  5
239
102
{ACAD_REACTORS
330
21B
102
}
330
21B
100
AcDbXrecord
 10
0.0
 20
0.0
 30
0.0
  0
XRECORD
  5
236
102
{ACAD_REACTORS
330
21B
102
}
330
21B
100
AcDbXrecord
 10
0.0
 20
0.0
 30
0.0
  0
XRECORD
  5
233
102
{ACAD_REACTORS
330
21B
102
}
330
21B
100
AcDbXrecord
340
0
  0
XRECORD
  5
234
102
{ACAD_REACTORS
330
21B
102
}
330
21B
100
AcDbXrecord
 70
     0
  0
XRECORD
  5
227
102
{ACAD_REACTORS
330
21B
102
}
330
21B
100
AcDbXrecord
  1
{2451519E-7313-4D68-831C-C887E5D6AB87}
  0
DICTIONARYVAR
  5
219
102
{ACAD_REACTORS
330
218
102
}
330
218
100
DictionaryVariables
280
     0
  1
1
  0
ENDSEC
  0
EOF
