  0
SECTION
  2
HEADER
  9
$ACADVER
  1
AC1014
  9
$ACADMAINTVER
 70
     9
  9
$DWGCODEPAGE
  3
ANSI_1250
  9
$INSBASE
 10
0.0
 20
0.0
 30
0.0
  9
$EXTMIN
 10
2.262102742732448
 20
4.365574963967951
 30
0.0
  9
$EXTMAX
 10
14.92876925045339
 20
16.83760017531489
 30
0.0
  9
$LIMMIN
 10
0.0
 20
0.0
  9
$LIMMAX
 10
0.0
 20
0.0
  9
$ORTHOMODE
 70
     0
  9
$REGENMODE
 70
     1
  9
$FILLMODE
 70
     1
  9
$QTEXTMODE
 70
     0
  9
$MIRRTEXT
 70
     1
  9
$DRAGMODE
 70
     2
  9
$LTSCALE
 40
1.0
  9
$OSMODE
 70
   959
  9
$ATTMODE
 70
     1
  9
$TEXTSIZE
 40
2.5
  9
$TRACEWID
 40
1.0
  9
$TEXTSTYLE
  7
STANDARD
  9
$CLAYER
  8
0
  9
$CELTYPE
  6
BYLAYER
  9
$CECOLOR
 62
   256
  9
$CELTSCALE
 40
1.0
  9
$DELOBJ
 70
     1
  9
$DISPSILH
 70
     0
  9
$DIMSCALE
 40
1.0
  9
$DIMASZ
 40
0.3
  9
$DIMEXO
 40
0.1
  9
$DIMDLI
 40
3.75
  9
$DIMRND
 40
0.0
  9
$DIMDLE
 40
0.0
  9
$DIMEXE
 40
0.1
  9
$DIMTP
 40
0.0
  9
$DIMTM
 40
0.0
  9
$DIMTXT
 40
0.2822222222222222
  9
$DIMCEN
 40
2.5
  9
$DIMTSZ
 40
0.0
  9
$DIMTOL
 70
     0
  9
$DIMLIM
 70
     0
  9
$DIMTIH
 70
     1
  9
$DIMTOH
 70
     1
  9
$DIMSE1
 70
     0
  9
$DIMSE2
 70
     0
  9
$DIMTAD
 70
     1
  9
$DIMZIN
 70
     0
  9
$DIMBLK
  1

  9
$DIMASO
 70
     1
  9
$DIMSHO
 70
     1
  9
$DIMPOST
  1

  9
$DIMAPOST
  1

  9
$DIMALT
 70
     0
  9
$DIMALTD
 70
     3
  9
$DIMALTF
 40
0.3937007874015748
  9
$DIMLFAC
 40
15.0
  9
$DIMTOFL
 70
     1
  9
$DIMTVP
 40
0.0
  9
$DIMTIX
 70
     0
  9
$DIMSOXD
 70
     0
  9
$DIMSAH
 70
     0
  9
$DIMBLK1
  1

  9
$DIMBLK2
  1

  9
$DIMSTYLE
  2
ISO-25
  9
$DIMCLRD
 70
     0
  9
$DIMCLRE
 70
     0
  9
$DIMCLRT
 70
     0
  9
$DIMTFAC
 40
1.0
  9
$DIMGAP
 40
0.1524
  9
$DIMJUST
 70
     0
  9
$DIMSD1
 70
     0
  9
$DIMSD2
 70
     0
  9
$DIMTOLJ
 70
     0
  9
$DIMTZIN
 70
     0
  9
$DIMALTZ
 70
     0
  9
$DIMALTTZ
 70
     0
  9
$DIMFIT
 70
     3
  9
$DIMUPT
 70
     0
  9
$DIMUNIT
 70
     2
  9
$DIMDEC
 70
     2
  9
$DIMTDEC
 70
     2
  9
$DIMALTU
 70
     2
  9
$DIMALTTD
 70
     3
  9
$DIMTXSTY
  7
STANDARD
  9
$DIMAUNIT
 70
     0
  9
$LUNITS
 70
     2
  9
$LUPREC
 70
     2
  9
$SKETCHINC
 40
1.0
  9
$FILLETRAD
 40
10.0
  9
$AUNITS
 70
     0
  9
$AUPREC
 70
     0
  9
$MENU
  1
.
  9
$ELEVATION
 40
0.0
  9
$PELEVATION
 40
0.0
  9
$THICKNESS
 40
0.0
  9
$LIMCHECK
 70
     0
  9
$BLIPMODE
 70
     0
  9
$CHAMFERA
 40
10.0
  9
$CHAMFERB
 40
10.0
  9
$CHAMFERC
 40
20.0
  9
$CHAMFERD
 40
0.0
  9
$SKPOLY
 70
     0
  9
$TDCREATE
 40
2454418.369800879
  9
$TDUPDATE
 40
2454418.397481191
  9
$TDINDWG
 40
0.0005620833
  9
$TDUSRTIMER
 40
0.0005620833
  9
$USRTIMER
 70
     1
  9
$ANGBASE
 50
0.0
  9
$ANGDIR
 70
     0
  9
$PDMODE
 70
     0
  9
$PDSIZE
 40
-1.0
  9
$PLINEWID
 40
0.0
  9
$COORDS
 70
     0
  9
$SPLFRAME
 70
     0
  9
$SPLINETYPE
 70
     6
  9
$SPLINESEGS
 70
     8
  9
$ATTDIA
 70
     0
  9
$ATTREQ
 70
     1
  9
$HANDLING
 70
 22529
  9
$HANDSEED
  5
2B9
  9
$SURFTAB1
 70
     6
  9
$SURFTAB2
 70
     6
  9
$SURFTYPE
 70
     6
  9
$SURFU
 70
     6
  9
$SURFV
 70
     6
  9
$UCSNAME
  2

  9
$UCSORG
 10
0.0
 20
0.0
 30
0.0
  9
$UCSXDIR
 10
1.0
 20
0.0
 30
0.0
  9
$UCSYDIR
 10
0.0
 20
1.0
 30
0.0
  9
$PUCSNAME
  2

  9
$PUCSORG
 10
0.0
 20
0.0
 30
0.0
  9
$PUCSXDIR
 10
1.0
 20
0.0
 30
0.0
  9
$PUCSYDIR
 10
0.0
 20
1.0
 30
0.0
  9
$USERI1
 70
     0
  9
$USERI2
 70
     0
  9
$USERI3
 70
     0
  9
$USERI4
 70
     0
  9
$USERI5
 70
     0
  9
$USERR1
 40
0.0
  9
$USERR2
 40
0.0
  9
$USERR3
 40
0.0
  9
$USERR4
 40
0.0
  9
$USERR5
 40
0.0
  9
$WORLDVIEW
 70
     1
  9
$SHADEDGE
 70
     3
  9
$SHADEDIF
 70
    70
  9
$TILEMODE
 70
     1
  9
$MAXACTVP
 70
    48
  9
$PINSBASE
 10
0.0
 20
0.0
 30
0.0
  9
$PLIMCHECK
 70
     0
  9
$PEXTMIN
 10
1.000000000000000E+20
 20
1.000000000000000E+20
 30
1.000000000000000E+20
  9
$PEXTMAX
 10
-1.000000000000000E+20
 20
-1.000000000000000E+20
 30
-1.000000000000000E+20
  9
$PLIMMIN
 10
0.0
 20
0.0
  9
$PLIMMAX
 10
420.0
 20
297.0
  9
$UNITMODE
 70
     0
  9
$VISRETAIN
 70
     1
  9
$PLINEGEN
 70
     0
  9
$PSLTSCALE
 70
     1
  9
$TREEDEPTH
 70
  3020
  9
$PICKSTYLE
 70
     1
  9
$CMLSTYLE
  2
STANDARD
  9
$CMLJUST
 70
     0
  9
$CMLSCALE
 40
20.0
  9
$PROXYGRAPHICS
 70
     1
  9
$MEASUREMENT
 70
     1
  0
ENDSEC
  0
SECTION
  2
CLASSES
  0
CLASS
  1
ACDBDICTIONARYWDFLT
  2
AcDbDictionaryWithDefault
  3
AutoCAD 2000
 90
        0
280
     0
281
     0
  0
CLASS
  1
ACDBPLACEHOLDER
  2
AcDbPlaceHolder
  3
AutoCAD 2000
 90
        0
280
     0
281
     0
  0
CLASS
  1
LAYOUT
  2
AcDbLayout
  3
AutoCAD 2000
 90
        0
280
     0
281
     0
  0
CLASS
  1
DICTIONARYVAR
  2
AcDbDictionaryVar
  3
AutoCAD 2000
 90
        0
280
     0
281
     0
  0
CLASS
  1
LONG_TRANSACTION
  2
AcDbLongTransaction
  3
AutoCAD 2000
 90
        0
280
     0
281
     0
  0
CLASS
  1
LWPOLYLINE
  2
AcDbPolyline
  3
AutoCAD 2000
 90
        0
280
     0
281
     1
  0
CLASS
  1
HATCH
  2
AcDbHatch
  3
AutoCAD 2000
 90
        0
280
     0
281
     1
  0
CLASS
  1
XRECORD
  2
AcDbXrecord
  3
AutoCAD 2000
 90
        0
280
     0
281
     0
  0
CLASS
  1
LONG_TRANSACTION
  2
AcDbLongTransaction
  3
AutoCAD 2000
 90
        0
280
     0
281
     0
  0
CLASS
  1
LWPOLYLINE
  2
AcDbPolyline
  3
AutoCAD 2000
 90
        0
280
     0
281
     1
  0
CLASS
  1
HATCH
  2
AcDbHatch
  3
AutoCAD 2000
 90
        0
280
     0
281
     1
  0
CLASS
  1
XRECORD
  2
AcDbXrecord
  3
AutoCAD 2000
 90
        0
280
     0
281
     0
  0
ENDSEC
  0
SECTION
  2
TABLES
  0
TABLE
  2
VPORT
  5
8
330
0
100
AcDbSymbolTable
 70
     2
  0
VPORT
  5
294
330
8
100
AcDbSymbolTableRecord
100
AcDbViewportTableRecord
  2
*ACTIVE
 70
     0
 10
0.0
 20
0.0
 11
1.0
 21
1.0
 12
8.594899811624671
 22
10.60173802508709
 13
0.0
 23
0.0
 14
10.0
 24
10.0
 15
10.0
 25
10.0
 16
0.0
 26
0.0
 36
1.0
 17
0.0
 27
0.0
 37
0.0
 40
12.54928042911674
 41
1.884576098059244
 42
50.0
 43
0.0
 44
0.0
 50
0.0
 51
0.0
 71
     0
 72
  2000
 73
     1
 74
     3
 75
     0
 76
     0
 77
     0
 78
     0
  0
ENDTAB
  0
TABLE
  2
LTYPE
  5
5
330
0
100
AcDbSymbolTable
 70
     1
  0
LTYPE
  5
14
330
5
100
AcDbSymbolTableRecord
100
AcDbLinetypeTableRecord
  2
BYBLOCK
 70
     0
  3

 72
    65
 73
     0
 40
0.0
  0
LTYPE
  5
15
330
5
100
AcDbSymbolTableRecord
100
AcDbLinetypeTableRecord
  2
BYLAYER
 70
     0
  3

 72
    65
 73
     0
 40
0.0
  0
LTYPE
  5
16
330
5
100
AcDbSymbolTableRecord
100
AcDbLinetypeTableRecord
  2
CONTINUOUS
 70
     0
  3
Solid line
 72
    65
 73
     0
 40
0.0
  0
ENDTAB
  0
TABLE
  2
LAYER
  5
2
330
0
100
AcDbSymbolTable
 70
     1
  0
LAYER
  5
10
330
2
100
AcDbSymbolTableRecord
100
AcDbLayerTableRecord
  2
0
 70
     0
 62
     7
  6
CONTINUOUS
  0
ENDTAB
  0
TABLE
  2
STYLE
  5
3
330
0
100
AcDbSymbolTable
 70
     1
  0
STYLE
  5
11
330
3
100
AcDbSymbolTableRecord
100
AcDbTextStyleTableRecord
  2
STANDARD
 70
     0
 40
0.0
 41
1.0
 50
0.0
 71
     0
 42
2.5
  3
ARIAL.TTF
  4

1001
ACAD
1000
Arial
1071
       34
  0
ENDTAB
  0
TABLE
  2
VIEW
  5
6
330
0
100
AcDbSymbolTable
 70
     0
  0
ENDTAB
  0
TABLE
  2
UCS
  5
7
330
0
100
AcDbSymbolTable
 70
     0
  0
ENDTAB
  0
TABLE
  2
APPID
  5
9
330
0
100
AcDbSymbolTable
 70
     1
  0
APPID
  5
12
330
9
100
AcDbSymbolTableRecord
100
AcDbRegAppTableRecord
  2
ACAD
 70
     0
  0
ENDTAB
  0
TABLE
  2
DIMSTYLE
  5
A
330
0
100
AcDbSymbolTable
 70
     1
  0
DIMSTYLE
105
27
330
A
100
AcDbSymbolTableRecord
100
AcDbDimStyleTableRecord
  2
ISO-25
 70
     0
  3

  4

  5

  6

  7

 40
1.0
 41
2.5
 42
0.625
 43
3.75
 44
1.25
 45
0.0
 46
0.0
 47
0.0
 48
0.0
140
2.5
141
2.5
142
0.0
143
0.03937007874016
144
1.0
145
0.0
146
1.0
147
0.625
 71
     0
 72
     0
 73
     0
 74
     0
 75
     0
 76
     0
 77
     1
 78
     8
170
     0
171
     3
172
     1
173
     0
174
     0
175
     0
176
     0
177
     0
178
     0
270
     2
271
     2
272
     2
273
     2
274
     3
340
11
275
     0
280
     0
281
     0
282
     0
283
     0
284
     8
285
     0
286
     0
287
     3
288
     0
  0
ENDTAB
  0
TABLE
  2
BLOCK_RECORD
  5
1
330
0
100
AcDbSymbolTable
 70
     1
  0
BLOCK_RECORD
  5
1F
102
{ACAD_XDICTIONARY
360
257
102
}
330
1
100
AcDbSymbolTableRecord
100
AcDbBlockTableRecord
  2
*MODEL_SPACE
  0
BLOCK_RECORD
  5
1B
102
{ACAD_XDICTIONARY
360
259
102
}
330
1
100
AcDbSymbolTableRecord
100
AcDbBlockTableRecord
  2
*PAPER_SPACE
  0
ENDTAB
  0
ENDSEC
  0
SECTION
  2
BLOCKS
  0
BLOCK
  5
20
330
1F
100
AcDbEntity
  8
0
100
AcDbBlockBegin
  2
*MODEL_SPACE
 70
     0
 10
0.0
 20
0.0
 30
0.0
  3
*MODEL_SPACE
  1

  0
ENDBLK
  5
21
330
1F
100
AcDbEntity
  8
0
100
AcDbBlockEnd
  0
BLOCK
  5
1C
330
1B
100
AcDbEntity
 67
     1
  8
0
100
AcDbBlockBegin
  2
*PAPER_SPACE
 70
     0
 10
0.0
 20
0.0
 30
0.0
  3
*PAPER_SPACE
  1

  0
ENDBLK
  5
1D
330
1B
100
AcDbEntity
 67
     1
  8
0
100
AcDbBlockEnd
  0
ENDSEC
  0
SECTION
  2
ENTITIES
  0
LINE
  5
DA
330
1F
100
AcDbEntity
  8
0
100
AcDbLine
 10
3.174424946050726
 20
12.03887612002467
 30
0.0
 11
14.01644704713511
 21
12.03887612002467
 31
0.0
  0
LINE
  5
DB
330
1F
100
AcDbEntity
  8
0
100
AcDbLine
 10
2.262102742732448
 20
11.5042667625087
 30
0.0
 11
14.92876925045339
 21
11.5042667625087
 31
0.0
  0
LINE
  5
DC
330
1F
100
AcDbEntity
  8
0
100
AcDbLine
 10
2.800456662715358
 20
15.91923783597723
 30
0.0
 11
2.800456662715358
 21
12.42262910184637
 31
0.0
  0
LINE
  5
DD
330
1F
100
AcDbEntity
  8
0
100
AcDbLine
 10
2.262102742732448
 20
16.83760017531489
 30
0.0
 11
2.262102742732448
 21
11.5042667625087
 31
0.0
  0
LWPOLYLINE
  5
DE
330
1F
100
AcDbEntity
  8
0
100
AcDbPolyline
 90
        3
 70
   128
 43
0.0
 10
2.800456662715358
 20
12.42262910184637
 10
2.80028380924551
 20
12.21731474377091
 10
2.799768030386053
 20
12.03870863097285
  0
LWPOLYLINE
  5
DF
330
1F
100
AcDbEntity
  8
0
100
AcDbPolyline
 90
        3
 70
   128
 43
0.0
 10
2.799768030386053
 20
12.03870863097285
 10
2.950122733653468
 20
12.03882247584437
 10
3.174424946050726
 20
12.03887612002467
  0
LINE
  5
E0
330
1F
100
AcDbEntity
  8
0
100
AcDbLine
 10
14.01644704713511
 20
16.30299081779892
 30
0.0
 11
3.174424946050726
 21
16.30299081779892
 31
0.0
  0
LINE
  5
E1
330
1F
100
AcDbEntity
  8
0
100
AcDbLine
 10
14.92876925045339
 20
16.83760017531489
 30
0.0
 11
2.262102742732448
 21
16.83760017531489
 31
0.0
  0
LWPOLYLINE
  5
E2
330
1F
100
AcDbEntity
  8
0
100
AcDbPolyline
 90
        3
 70
   128
 43
0.0
 10
2.799768030386053
 20
16.30315830685074
 10
2.80028380924551
 20
16.12455875056361
 10
2.800456662715358
 20
15.91923783597723
  0
LWPOLYLINE
  5
E3
330
1F
100
AcDbEntity
  8
0
100
AcDbPolyline
 90
        3
 70
   128
 43
0.0
 10
3.174424946050726
 20
16.30299081779892
 10
2.950130680939438
 20
16.30304446197922
 10
2.799768030386053
 20
16.30315830685074
  0
LWPOLYLINE
  5
E4
330
1F
100
AcDbEntity
  8
0
100
AcDbPolyline
 90
        3
 70
   128
 43
0.0
 10
14.39110396279978
 20
16.30315830685074
 10
14.24074925953237
 20
16.30304446197922
 10
14.01644704713511
 20
16.30299081779892
  0
LWPOLYLINE
  5
E5
330
1F
100
AcDbEntity
  8
0
100
AcDbPolyline
 90
        3
 70
   128
 43
0.0
 10
14.39041533047048
 20
15.91923783597723
 10
14.39058818394033
 20
16.12455219405268
 10
14.39110396279978
 20
16.30315830685074
  0
LINE
  5
E6
330
1F
100
AcDbEntity
  8
0
100
AcDbLine
 10
14.39041533047048
 20
12.42262910184637
 30
0.0
 11
14.39041533047048
 21
15.91923783597723
 31
0.0
  0
LINE
  5
E7
330
1F
100
AcDbEntity
  8
0
100
AcDbLine
 10
14.92876925045339
 20
11.5042667625087
 30
0.0
 11
14.92876925045339
 21
16.83760017531489
 31
0.0
  0
LWPOLYLINE
  5
E8
330
1F
100
AcDbEntity
  8
0
100
AcDbPolyline
 90
        3
 70
   128
 43
0.0
 10
14.01644704713511
 20
12.03887612002467
 10
14.2407413122464
 20
12.03882247584437
 10
14.39110396279978
 20
12.03870863097285
  0
LWPOLYLINE
  5
E9
330
1F
100
AcDbEntity
  8
0
100
AcDbPolyline
 90
        3
 70
   128
 43
0.0
 10
14.39110396279978
 20
12.03870863097285
 10
14.39058818394033
 20
12.21730818725998
 10
14.39041533047048
 20
12.42262910184637
  0
LINE
  5
EA
330
1F
100
AcDbEntity
  8
0
100
AcDbLine
 10
2.799768030386053
 20
16.30315830685074
 30
0.0
 11
4.083504259328925
 21
15.97464551903184
 31
0.0
  0
LWPOLYLINE
  5
EB
330
1F
100
AcDbEntity
  8
0
100
AcDbPolyline
 90
        9
 70
   128
 43
0.0
 10
4.090476413310451
 20
12.36900558449204
 10
4.090930998067938
 20
12.81970014549668
 10
4.090984642248236
 20
13.27039589859421
 10
4.090634166936957
 20
13.72109949963664
 10
4.089891493063054
 20
14.17180022395946
 10
4.08877569411286
 20
14.62251837429777
 10
4.087317367137355
 20
15.07323066768423
 10
4.085548301280422
 20
15.52394161996618
 10
4.083504259328925
 20
15.97464551903184
  0
LINE
  5
EC
330
1F
100
AcDbEntity
  8
0
100
AcDbLine
 10
2.799768030386053
 20
12.03870863097285
 30
0.0
 11
4.090476413310451
 21
12.36900558449204
 31
0.0
  0
LINE
  5
ED
330
1F
100
AcDbEntity
  8
0
100
AcDbLine
 10
14.39110396279978
 20
12.03870863097285
 30
0.0
 11
13.10039557987539
 21
12.36900558449204
 31
0.0
  0
LWPOLYLINE
  5
EE
330
1F
100
AcDbEntity
  8
0
100
AcDbPolyline
 90
        7
 70
   128
 43
0.0
 10
13.10736773385692
 20
15.97464551903184
 10
13.10470261150686
 20
15.37374566373602
 10
13.10254691018748
 20
14.77283284442996
 10
13.10098089748708
 20
14.17191004027876
 10
13.10008285417247
 20
13.57094447192922
 10
13.09988417202322
 20
12.96997388578827
 10
13.10039557987539
 20
12.36900558449204
  0
LINE
  5
EF
330
1F
100
AcDbEntity
  8
0
100
AcDbLine
 10
14.39110396279978
 20
16.30315830685074
 30
0.0
 11
13.10736773385692
 21
15.97464551903184
 31
0.0
  0
LWPOLYLINE
  5
F0
330
1F
100
AcDbEntity
  8
0
100
AcDbPolyline
 90
       17
 70
   128
 43
0.0
 10
13.10039557987539
 20
12.36900558449204
 10
11.59817634000468
 20
12.37236430622513
 10
10.84706165367452
 20
12.37401297069962
 10
10.09593713257797
 20
12.37560600417231
 10
9.795470813652757
 20
12.37622390565649
 10
9.494994063914699
 20
12.37680584567165
 10
9.194507231057567
 20
12.37729341166591
 10
8.894010712445659
 20
12.37762819108739
 10
8.593504880802029
 20
12.37775137401993
 10
8.293283487102273
 20
12.37762521085516
 10
7.993071506163361
 20
12.37728884197647
 10
7.692869285485032
 20
12.37680067993576
 10
7.392676949243627
 20
12.37621854123846
 10
7.092495043815059
 20
12.37560083843644
 10
6.341990411024175
 20
12.37400919573878
 10
5.591756283979498
 20
12.37236212072149
 10
4.090476413310451
 20
12.36900558449204
  0
LWPOLYLINE
  5
F1
330
1F
100
AcDbEntity
  8
0
100
AcDbPolyline
 90
       98
 70
   128
 43
0.0
 10
8.595435996592922
 20
12.05975463367874
 10
8.606655832122646
 20
12.05979576088364
 10
8.617828606370471
 20
12.05991914249832
 10
8.628907459841055
 20
12.0601239837942
 10
8.639845921090129
 20
12.06040968872483
 10
8.650598114719871
 20
12.06077486651515
 10
8.661118936777992
 20
12.06121792770798
 10
8.671364261200906
 20
12.06173748152827
 10
8.681291116765024
 20
12.06233074642594
 10
8.69085786714244
 20
12.06299553689733
 10
8.700024378539009
 20
12.06372927007452
 10
8.708752224585298
 20
12.06452836967881
 10
8.71700477326004
 20
12.06538985547796
 10
8.724747416616363
 20
12.06630995251114
 10
8.731947682540498
 20
12.06728488581752
 10
8.738575383763395
 20
12.0683106817541
 10
8.744602692366523
 20
12.06938277063146
 10
8.750004350881658
 20
12.07049678144231
 10
8.754757697126153
 20
12.07164794581508
 10
8.758842800796909
 20
12.07283169406031
 10
8.762242513140918
 20
12.07404266176
 10
8.764942578713975
 20
12.0752762792247
 10
8.766931672633571
 20
12.07652678467209
 10
8.76820146266707
 20
12.07778940973058
 10
8.768746609231712
 20
12.07905878998215
 10
8.768564827482784
 20
12.08032936232661
 10
8.767656887313608
 20
12.08159596102809
 10
8.76602658852029
 20
12.0828534203507
 10
8.763680773219348
 20
12.08409617719427
 10
8.760629288594804
 20
12.08531906582291
 10
8.756884924810016
 20
12.0865171191829
 10
8.752463377754772
 20
12.08768517153834
 10
8.747383211792392
 20
12.08881825583552
 10
8.741665723165754
 20
12.08991200106715
 10
8.735334902744375
 20
12.09096124149735
 10
8.728417287012819
 20
12.09196220216528
 10
8.72094190840014
 20
12.09291011469935
 10
8.712940121433023
 20
12.0938014028209
 10
8.704445466141782
 20
12.09463229156906
 10
8.695493599763395
 20
12.09539900598302
 10
8.686122048388801
 20
12.09609856583054
 10
8.676370132457101
 20
12.09672799087937
 10
8.66627874944695
 20
12.09728469826157
 10
8.655890231073779
 20
12.09776630379135
 10
8.645248141503216
 20
12.09817062196508
 10
8.634397122130675
 20
12.0984962620077
 10
8.62338268979478
 20
12.09874163446203
 10
8.612251038095239
 20
12.09890594459946
 10
8.601048857725171
 20
12.09898819900925
 10
8.589823135460672
 20
12.09898819900925
 10
8.578620955090606
 20
12.09890594459946
 10
8.567489303391063
 20
12.09874163446203
 10
8.556474871055169
 20
12.0984962620077
 10
8.545623851682627
 20
12.09817062196508
 10
8.534981762112064
 20
12.09776630379135
 10
8.524593243738893
 20
12.09728469826157
 10
8.514501860728742
 20
12.09672799087937
 10
8.504749944797042
 20
12.09609856583054
 10
8.495378393422448
 20
12.09539900598302
 10
8.486426527044061
 20
12.09463229156906
 10
8.47793187175282
 20
12.0938014028209
 10
8.469930084785701
 20
12.09291011469935
 10
8.462454706173025
 20
12.09196220216528
 10
8.455537090441469
 20
12.09096124149735
 10
8.44920627002009
 20
12.08991200106715
 10
8.443488781393451
 20
12.08881825583552
 10
8.438408615431072
 20
12.08768517153834
 10
8.433987068375827
 20
12.0865171191829
 10
8.430242704591037
 20
12.08531906582291
 10
8.427191219966493
 20
12.08409617719427
 10
8.424845404665552
 20
12.0828534203507
 10
8.423215105872236
 20
12.08159596102809
 10
8.42230716570306
 20
12.08032936232661
 10
8.42212538395413
 20
12.07905878998215
 10
8.422670530518773
 20
12.07778940973058
 10
8.423940320552272
 20
12.07652678467209
 10
8.425929414471868
 20
12.0752762792247
 10
8.428629480044925
 20
12.07404266176
 10
8.432029192388935
 20
12.07283169406031
 10
8.43611429605969
 20
12.07164794581508
 10
8.440867642304185
 20
12.07049678144231
 10
8.44626930081932
 20
12.06938277063146
 10
8.452296609422447
 20
12.0683106817541
 10
8.458924310645345
 20
12.06728488581752
 10
8.46612457656948
 20
12.06630995251114
 10
8.473867219925804
 20
12.06538985547796
 10
8.482119768600545
 20
12.06452836967881
 10
8.490847614646835
 20
12.06372927007452
 10
8.500014126043401
 20
12.06299553689733
 10
8.50958087642082
 20
12.06233074642594
 10
8.519507731984935
 20
12.06173748152827
 10
8.529753056407852
 20
12.06121792770798
 10
8.540273878465972
 20
12.06077486651515
 10
8.551026072095714
 20
12.06040968872483
 10
8.561964533344788
 20
12.0601239837942
 10
8.573043386815372
 20
12.05991914249832
 10
8.584216161063197
 20
12.05979576088364
 10
8.595435996592922
 20
12.05975463367874
  0
LWPOLYLINE
  5
F2
330
1F
100
AcDbEntity
  8
0
100
AcDbPolyline
 90
       14
 70
   128
 43
0.0
 10
4.083504259328925
 20
15.97464551903184
 10
4.947528024257106
 20
15.97302904106553
 10
5.811572849493109
 20
15.97156018393611
 10
6.675643702090663
 20
15.97032060600693
 10
7.19414887799907
 20
15.96973568575954
 10
7.712670147161566
 20
15.96930990991369
 10
8.231200605373464
 20
15.96906115986282
 10
8.749732802054168
 20
15.96900731700038
 10
9.268259584646306
 20
15.96916586535548
 10
9.908136307935796
 20
15.96964170910294
 10
10.54799753401764
 20
15.97036173321183
 10
11.18783968661316
 20
15.97126772381241
 10
12.14761652523367
 20
15.97286214806015
 10
13.10736773385692
 20
15.97464551903184
  0
ARC
  5
F3
330
1F
100
AcDbEntity
  8
0
100
AcDbCircle
 10
8.612917096610569
 20
11.19079097211951
 30
0.0
 40
0.8885079499151476
100
AcDbArc
 50
81.45707202071124
 51
91.12734824920329
  0
ARC
  5
F4
330
1F
100
AcDbEntity
  8
0
100
AcDbCircle
 10
8.578760490730315
 20
11.17835965950123
 30
0.0
 40
0.9009216183645559
100
AcDbArc
 50
88.93942974495162
 51
98.47614998513392
  0
CIRCLE
  5
F5
330
1F
100
AcDbEntity
  8
0
100
AcDbCircle
 10
8.595435996592922
 20
13.10426680224513
 30
0.0
 40
0.3665179007108019
  0
CIRCLE
  5
F6
330
1F
100
AcDbEntity
  8
0
100
AcDbCircle
 10
8.595435996592922
 20
13.10426680224513
 30
0.0
 40
0.1733333333333338
  0
LINE
  5
187
330
1F
100
AcDbEntity
  8
0
100
AcDbLine
 10
8.031999519096377
 20
4.365574963967951
 30
0.0
 11
9.158872474089466
 21
4.365574963967951
 31
0.0
  0
LINE
  5
188
330
1F
100
AcDbEntity
  8
0
100
AcDbLine
 10
12.74783694558303
 20
4.437267828851151
 30
0.0
 11
9.158872474089466
 21
4.365574963967951
 31
0.0
  0
LINE
  5
189
330
1F
100
AcDbEntity
  8
0
100
AcDbLine
 10
9.05539668153983
 20
4.520628313728066
 30
0.0
 11
9.158872474089466
 21
4.365574963967951
 31
0.0
  0
LINE
  5
18A
330
1F
100
AcDbEntity
  8
0
100
AcDbLine
 10
12.84721712006983
 20
4.596464722499225
 30
0.0
 11
12.74783694558303
 21
4.437267828851151
 31
0.0
  0
LINE
  5
18B
330
1F
100
AcDbEntity
  8
0
100
AcDbLine
 10
4.369282954312589
 20
4.595952160875289
 30
0.0
 11
4.48351915897225
 21
4.436459121507543
 31
0.0
  0
LINE
  5
18C
330
1F
100
AcDbEntity
  8
0
100
AcDbLine
 10
8.147474312426895
 20
4.52038833371238
 30
0.0
 11
8.031999519096377
 21
4.365574963967951
 31
0.0
  0
LINE
  5
18D
330
1F
100
AcDbEntity
  8
0
100
AcDbLine
 10
4.48351915897225
 20
4.436459121507543
 30
0.0
 11
8.031999519096377
 21
4.365574963967951
 31
0.0
  0
LINE
  5
18E
330
1F
100
AcDbEntity
  8
0
100
AcDbLine
 10
4.077860096832993
 20
4.601780627292053
 30
0.0
 11
8.221476132413627
 21
4.518908316017842
 31
0.0
  0
LINE
  5
18F
330
1F
100
AcDbEntity
  8
0
100
AcDbLine
 10
8.969395860772214
 20
4.518908316017842
 30
0.0
 11
13.11301189635285
 21
4.601780627292053
 31
0.0
  0
ARC
  5
190
330
1F
100
AcDbEntity
  8
0
100
AcDbCircle
 10
8.595435996592922
 20
4.970939046460745
 30
0.0
 40
0.5866666666666676
100
AcDbArc
 50
287.1847959010884
 51
309.6005648414014
  0
ARC
  5
191
330
1F
100
AcDbEntity
  8
0
100
AcDbCircle
 10
8.595435996592922
 20
4.970939046460745
 30
0.0
 40
0.5866666666666676
100
AcDbArc
 50
230.3994351586002
 51
252.8152040989133
  0
LINE
  5
192
330
1F
100
AcDbEntity
  8
0
100
AcDbLine
 10
2.262102742732448
 20
7.53143325857486
 30
0.0
 11
2.262102742732448
 21
7.298099750401235
 31
0.0
  0
LINE
  5
193
330
1F
100
AcDbEntity
  8
0
100
AcDbLine
 10
14.92876925045339
 20
7.53143325857486
 30
0.0
 11
14.92876925045339
 21
7.298099750401235
 31
0.0
  0
LINE
  5
194
330
1F
100
AcDbEntity
  8
0
100
AcDbLine
 10
14.92876925045339
 20
7.298099750401235
 30
0.0
 11
2.262102742732448
 21
7.298099750401235
 31
0.0
  0
LINE
  5
195
330
1F
100
AcDbEntity
  8
0
100
AcDbLine
 10
2.262102742732448
 20
7.53143325857486
 30
0.0
 11
14.92876925045339
 21
7.53143325857486
 31
0.0
  0
LINE
  5
196
330
1F
100
AcDbEntity
  8
0
100
AcDbLine
 10
14.31344189220754
 20
7.298099750401235
 30
0.0
 11
13.11352290684072
 21
4.603037689250366
 31
0.0
  0
LWPOLYLINE
  5
197
330
1F
100
AcDbEntity
  8
0
100
AcDbPolyline
 90
       17
 70
   128
 43
0.0
 10
13.11352290684072
 20
4.603037689250366
 10
11.60691755984314
 20
4.573497428617534
 10
10.85360902522095
 20
4.559006645402964
 10
10.10029085451452
 20
4.545026177288747
 10
9.798946459830684
 20
4.539619042596873
 10
9.497591534992935
 20
4.53454181961383
 10
9.196226527036113
 20
4.530297174177225
 10
8.894851982336128
 20
4.527388070147888
 10
8.593468348509889
 20
4.526317272704498
 10
8.292374441763641
 20
4.527413700145141
 10
7.991289724648876
 20
4.530337506653523
 10
7.690214593947811
 20
4.534588509918904
 10
7.389149447024745
 20
4.539666328948395
 10
7.088094830255591
 20
4.545070781431253
 10
6.335408270101629
 20
4.559041812143382
 10
5.582991818329576
 20
4.573516104739563
 10
4.077349086345119
 20
4.603037689250366
  0
LINE
  5
198
330
1F
100
AcDbEntity
  8
0
100
AcDbLine
 10
2.877430100978298
 20
7.298099750401235
 30
0.0
 11
4.077349086345119
 21
4.603037689250366
 31
0.0
  0
ARC
  5
199
330
1F
100
AcDbEntity
  8
0
100
AcDbCircle
 10
8.596523998010157
 20
7.162362266177357
 30
0.0
 40
0.1720826196614494
100
AcDbArc
 50
269.6377420057609
 51
52.07281391692332
  0
ARC
  5
19A
330
1F
100
AcDbEntity
  8
0
100
AcDbCircle
 10
8.594383352606113
 20
7.162374540701196
 30
0.0
 40
0.1720946740387048
100
AcDbArc
 50
127.9389832963662
 51
270.350460780951
  0
ARC
  5
19B
330
1F
100
AcDbEntity
  8
0
100
AcDbCircle
 10
8.595435996592922
 20
7.1656601402982
 30
0.0
 40
0.1733414233886064
100
AcDbArc
 50
180.6695800289751
 51
359.3304199710265
  0
LINE
  5
19C
330
1F
100
AcDbEntity
  8
0
100
AcDbLine
 10
8.221476132413627
 20
4.518908316017842
 30
0.0
 11
8.969395860772214
 21
4.518908316017842
 31
0.0
  0
LWPOLYLINE
  5
19D
330
1F
100
AcDbEntity
  8
0
100
AcDbPolyline
 90
        3
 70
   128
 43
0.0
 10
4.077349086345119
 20
4.603037689250366
 10
4.077820360403143
 20
4.601978912077006
 10
4.077862481018784
 20
4.601884538056111
  0
LWPOLYLINE
  5
19E
330
1F
100
AcDbEntity
  8
0
100
AcDbPolyline
 90
        3
 70
   128
 43
0.0
 10
13.11300951216705
 20
4.601884637397186
 10
13.1130516327827
 20
4.601978812735931
 10
13.11352290684072
 20
4.603037689250366
  0
LINE
  5
19F
330
1F
100
AcDbEntity
  8
0
100
AcDbLine
 10
8.595435996592922
 20
4.41046302926705
 30
0.0
 11
8.768769333502532
 21
4.41046302926705
 31
0.0
  0
LINE
  5
1A0
330
1F
100
AcDbEntity
  8
0
100
AcDbLine
 10
8.422102659683309
 20
4.41046302926705
 30
0.0
 11
8.595435996592922
 21
4.41046302926705
 31
0.0
  0
ENDSEC
  0
SECTION
  2
OBJECTS
  0
DICTIONARY
  5
C
330
0
100
AcDbDictionary
  3
ACAD_GROUP
350
D
  3
ACAD_LAYOUT
350
1A
  3
ACAD_MLINESTYLE
350
17
  3
ACAD_PLOTSETTINGS
350
19
  3
ACAD_PLOTSTYLENAME
350
E
  3
ACDBHEADERROUNDTRIPXREC
350
295
  3
ACDBVARIABLEDICTIONARY
350
28F
  0
DICTIONARY
  5
257
330
1F
100
AcDbDictionary
280
     1
  3
ACAD_LAYOUTSELFREF
360
2B7
  0
DICTIONARY
  5
259
330
1B
100
AcDbDictionary
280
     1
  3
ACAD_LAYOUTSELFREF
360
2B6
  0
DICTIONARY
  5
D
102
{ACAD_REACTORS
330
C
102
}
330
C
100
AcDbDictionary
  0
DICTIONARY
  5
1A
102
{ACAD_REACTORS
330
C
102
}
330
C
100
AcDbDictionary
  0
DICTIONARY
  5
17
102
{ACAD_REACTORS
330
C
102
}
330
C
100
AcDbDictionary
  3
STANDARD
350
18
  0
DICTIONARY
  5
19
102
{ACAD_REACTORS
330
C
102
}
330
C
100
AcDbDictionary
  0
ACDBDICTIONARYWDFLT
  5
E
102
{ACAD_REACTORS
330
C
102
}
330
C
100
AcDbDictionary
281
     1
  3
Normal
350
F
100
AcDbDictionaryWithDefault
340
F
  0
DICTIONARY
  5
295
102
{ACAD_REACTORS
330
C
102
}
330
C
100
AcDbDictionary
  3
CEPSNTYPE
350
29F
  3
DIMSTYLEDATA
350
2A3
  3
FINGERPRINTGUID
350
2A0
  3
HYPERLINKBASE
350
298
  3
INSUNITS
350
29E
  3
LAYOUTDICT
350
29A
  3
LWETCUNION
350
29D
  3
PLOTSETDICT
350
29B
  3
PLOTSTYLNAMDICT
350
29C
  3
PSVPSCALE
350
2A2
  3
PUCSBASE
350
2A6
  3
PUCSORGBACK
350
2AC
  3
PUCSORGBOTTOM
350
2A8
  3
PUCSORGFRONT
350
2AB
  3
PUCSORGLEFT
350
2A9
  3
PUCSORGRIGHT
350
2AA
  3
PUCSORGTOP
350
2A7
  3
PUCSORTHOREF
350
2A4
  3
PUCSORTHOVIEW
350
2A5
  3
STYLESHEET
350
299
  3
TSTACKALIGN
350
296
  3
TSTACKSIZE
350
297
  3
UCSBASE
350
2AF
  3
UCSORGBACK
350
2B5
  3
UCSORGBOTTOM
350
2B1
  3
UCSORGFRONT
350
2B4
  3
UCSORGLEFT
350
2B2
  3
UCSORGRIGHT
350
2B3
  3
UCSORGTOP
350
2B0
  3
UCSORTHOREF
350
2AD
  3
UCSORTHOVIEW
350
2AE
  3
VERSIONGUID
350
2A1
  0
DICTIONARY
  5
28F
102
{ACAD_REACTORS
330
C
102
}
330
C
100
AcDbDictionary
  3
DIMASSOC
350
290
  0
XRECORD
  5
2B7
102
{ACAD_REACTORS
330
257
102
}
330
257
100
AcDbXrecord
340
1F
  0
XRECORD
  5
2B6
102
{ACAD_REACTORS
330
259
102
}
330
259
100
AcDbXrecord
340
1B
  0
MLINESTYLE
  5
18
102
{ACAD_REACTORS
330
17
102
}
330
17
100
AcDbMlineStyle
  2
STANDARD
 70
     0
  3

 62
   256
 51
90.0
 52
90.0
 71
     2
 49
0.5
 62
   256
  6
BYLAYER
 49
-0.5
 62
   256
  6
BYLAYER
  0
ACDBPLACEHOLDER
  5
F
102
{ACAD_REACTORS
330
E
102
}
330
E
100
AcDbPlaceHolder
280
     0
  0
XRECORD
  5
29F
102
{ACAD_REACTORS
330
295
102
}
330
295
100
AcDbXrecord
 90
        0
  0
XRECORD
  5
2A3
102
{ACAD_REACTORS
330
295
102
}
330
295
100
AcDbXrecord
1000
DSTYLE
1002
{
1070
   278
 70
    44
1002
}
  0
XRECORD
  5
2A0
102
{ACAD_REACTORS
330
295
102
}
330
295
100
AcDbXrecord
  1
{86E69E1B-B8E9-4E36-9550-A1B43009088B}
  0
XRECORD
  5
298
102
{ACAD_REACTORS
330
295
102
}
330
295
100
AcDbXrecord
  1

  0
XRECORD
  5
29E
102
{ACAD_REACTORS
330
295
102
}
330
295
100
AcDbXrecord
 90
        4
  0
XRECORD
  5
29A
102
{ACAD_REACTORS
330
295
102
}
330
295
100
AcDbXrecord
340
1A
  0
XRECORD
  5
29D
102
{ACAD_REACTORS
330
295
102
}
330
295
100
AcDbXrecord
 90
    10781
  0
XRECORD
  5
29B
102
{ACAD_REACTORS
330
295
102
}
330
295
100
AcDbXrecord
340
19
  0
XRECORD
  5
29C
102
{ACAD_REACTORS
330
295
102
}
330
295
100
AcDbXrecord
340
E
  0
XRECORD
  5
2A2
102
{ACAD_REACTORS
330
295
102
}
330
295
100
AcDbXrecord
 40
0.0
  0
XRECORD
  5
2A6
102
{ACAD_REACTORS
330
295
102
}
330
295
100
AcDbXrecord
340
0
  0
XRECORD
  5
2AC
102
{ACAD_REACTORS
330
295
102
}
330
295
100
AcDbXrecord
 10
0.0
 20
0.0
 30
0.0
  0
XRECORD
  5
2A8
102
{ACAD_REACTORS
330
295
102
}
330
295
100
AcDbXrecord
 10
0.0
 20
0.0
 30
0.0
  0
XRECORD
  5
2AB
102
{ACAD_REACTORS
330
295
102
}
330
295
100
AcDbXrecord
 10
0.0
 20
0.0
 30
0.0
  0
XRECORD
  5
2A9
102
{ACAD_REACTORS
330
295
102
}
330
295
100
AcDbXrecord
 10
0.0
 20
0.0
 30
0.0
  0
XRECORD
  5
2AA
102
{ACAD_REACTORS
330
295
102
}
330
295
100
AcDbXrecord
 10
0.0
 20
0.0
 30
0.0
  0
XRECORD
  5
2A7
102
{ACAD_REACTORS
330
295
102
}
330
295
100
AcDbXrecord
 10
0.0
 20
0.0
 30
0.0
  0
XRECORD
  5
2A4
102
{ACAD_REACTORS
330
295
102
}
330
295
100
AcDbXrecord
340
0
  0
XRECORD
  5
2A5
102
{ACAD_REACTORS
330
295
102
}
330
295
100
AcDbXrecord
 70
     0
  0
XRECORD
  5
299
102
{ACAD_REACTORS
330
295
102
}
330
295
100
AcDbXrecord
  1

  0
XRECORD
  5
296
102
{ACAD_REACTORS
330
295
102
}
330
295
100
AcDbXrecord
 90
        1
  0
XRECORD
  5
297
102
{ACAD_REACTORS
330
295
102
}
330
295
100
AcDbXrecord
 90
       70
  0
XRECORD
  5
2AF
102
{ACAD_REACTORS
330
295
102
}
330
295
100
AcDbXrecord
340
0
  0
XRECORD
  5
2B5
102
{ACAD_REACTORS
330
295
102
}
330
295
100
AcDbXrecord
 10
0.0
 20
0.0
 30
0.0
  0
XRECORD
  5
2B1
102
{ACAD_REACTORS
330
295
102
}
330
295
100
AcDbXrecord
 10
0.0
 20
0.0
 30
0.0
  0
XRECORD
  5
2B4
102
{ACAD_REACTORS
330
295
102
}
330
295
100
AcDbXrecord
 10
0.0
 20
0.0
 30
0.0
  0
XRECORD
  5
2B2
102
{ACAD_REACTORS
330
295
102
}
330
295
100
AcDbXrecord
 10
0.0
 20
0.0
 30
0.0
  0
XRECORD
  5
2B3
102
{ACAD_REACTORS
330
295
102
}
330
295
100
AcDbXrecord
 10
0.0
 20
0.0
 30
0.0
  0
XRECORD
  5
2B0
102
{ACAD_REACTORS
330
295
102
}
330
295
100
AcDbXrecord
 10
0.0
 20
0.0
 30
0.0
  0
XRECORD
  5
2AD
102
{ACAD_REACTORS
330
295
102
}
330
295
100
AcDbXrecord
340
0
  0
XRECORD
  5
2AE
102
{ACAD_REACTORS
330
295
102
}
330
295
100
AcDbXrecord
 70
     0
  0
XRECORD
  5
2A1
102
{ACAD_REACTORS
330
295
102
}
330
295
100
AcDbXrecord
  1
{0868E617-4952-4197-BD8B-683FC1A40EF3}
  0
DICTIONARYVAR
  5
290
102
{ACAD_REACTORS
330
28F
102
}
330
28F
100
DictionaryVariables
280
     0
  1
1
  0
ENDSEC
  0
EOF
