  0
SECTION
  2
HEADER
  9
$ACADVER
  1
AC1014
  9
$ACADMAINTVER
 70
     9
  9
$DWGCODEPAGE
  3
ANSI_1250
  9
$INSBASE
 10
0.0
 20
0.0
 30
0.0
  9
$EXTMIN
 10
-1531.964018478409
 20
-1246.466827132533
 30
0.0
  9
$EXTMAX
 10
522.7881000127751
 20
1002.524109982566
 30
0.0
  9
$LIMMIN
 10
0.0
 20
0.0
  9
$LIMMAX
 10
420.0
 20
297.0
  9
$ORTHOMODE
 70
     0
  9
$REGENMODE
 70
     1
  9
$FILLMODE
 70
     1
  9
$QTEXTMODE
 70
     0
  9
$MIRRTEXT
 70
     1
  9
$DRAGMODE
 70
     2
  9
$LTSCALE
 40
1.0
  9
$OSMODE
 70
  3007
  9
$ATTMODE
 70
     1
  9
$TEXTSIZE
 40
2.5
  9
$TRACEWID
 40
1.0
  9
$TEXTSTYLE
  7
ISO35
  9
$CLAYER
  8
PEN50
  9
$CELTYPE
  6
BYLAYER
  9
$CECOLOR
 62
   256
  9
$CELTSCALE
 40
1.0
  9
$DELOBJ
 70
     1
  9
$DISPSILH
 70
     0
  9
$DIMSCALE
 40
10.0
  9
$DIMASZ
 40
3.5
  9
$DIMEXO
 40
0.875
  9
$DIMDLI
 40
5.25
  9
$DIMRND
 40
0.0
  9
$DIMDLE
 40
0.0
  9
$DIMEXE
 40
1.75
  9
$DIMTP
 40
0.0
  9
$DIMTM
 40
0.0
  9
$DIMTXT
 40
3.5
  9
$DIMCEN
 40
0.0
  9
$DIMTSZ
 40
0.0
  9
$DIMTOL
 70
     0
  9
$DIMLIM
 70
     0
  9
$DIMTIH
 70
     0
  9
$DIMTOH
 70
     0
  9
$DIMSE1
 70
     0
  9
$DIMSE2
 70
     0
  9
$DIMTAD
 70
     1
  9
$DIMZIN
 70
     8
  9
$DIMBLK
  1

  9
$DIMASO
 70
     1
  9
$DIMSHO
 70
     1
  9
$DIMPOST
  1

  9
$DIMAPOST
  1

  9
$DIMALT
 70
     0
  9
$DIMALTD
 70
     4
  9
$DIMALTF
 40
0.0394
  9
$DIMLFAC
 40
1.0
  9
$DIMTOFL
 70
     1
  9
$DIMTVP
 40
0.0
  9
$DIMTIX
 70
     0
  9
$DIMSOXD
 70
     0
  9
$DIMSAH
 70
     0
  9
$DIMBLK1
  1

  9
$DIMBLK2
  1

  9
$DIMSTYLE
  2
ISO-35
  9
$DIMCLRD
 70
   256
  9
$DIMCLRE
 70
   256
  9
$DIMCLRT
 70
     2
  9
$DIMTFAC
 40
1.0
  9
$DIMGAP
 40
2.0
  9
$DIMJUST
 70
     0
  9
$DIMSD1
 70
     0
  9
$DIMSD2
 70
     0
  9
$DIMTOLJ
 70
     1
  9
$DIMTZIN
 70
     0
  9
$DIMALTZ
 70
     0
  9
$DIMALTTZ
 70
     0
  9
$DIMFIT
 70
     3
  9
$DIMUPT
 70
     0
  9
$DIMUNIT
 70
     2
  9
$DIMDEC
 70
     2
  9
$DIMTDEC
 70
     2
  9
$DIMALTU
 70
     8
  9
$DIMALTTD
 70
     4
  9
$DIMTXSTY
  7
ISO35
  9
$DIMAUNIT
 70
     0
  9
$LUNITS
 70
     2
  9
$LUPREC
 70
     2
  9
$SKETCHINC
 40
1.0
  9
$FILLETRAD
 40
0.0
  9
$AUNITS
 70
     0
  9
$AUPREC
 70
     0
  9
$MENU
  1
.
  9
$ELEVATION
 40
0.0
  9
$PELEVATION
 40
0.0
  9
$THICKNESS
 40
0.0
  9
$LIMCHECK
 70
     0
  9
$BLIPMODE
 70
     0
  9
$CHAMFERA
 40
10.0
  9
$CHAMFERB
 40
10.0
  9
$CHAMFERC
 40
20.0
  9
$CHAMFERD
 40
0.0
  9
$SKPOLY
 70
     1
  9
$TDCREATE
 40
2451092.451568831
  9
$TDUPDATE
 40
2453966.375743993
  9
$TDINDWG
 40
0.2386659954
  9
$TDUSRTIMER
 40
0.2386659954
  9
$USRTIMER
 70
     1
  9
$ANGBASE
 50
0.0
  9
$ANGDIR
 70
     0
  9
$PDMODE
 70
     0
  9
$PDSIZE
 40
0.0
  9
$PLINEWID
 40
0.0
  9
$COORDS
 70
     2
  9
$SPLFRAME
 70
     0
  9
$SPLINETYPE
 70
     6
  9
$SPLINESEGS
 70
     8
  9
$ATTDIA
 70
     0
  9
$ATTREQ
 70
     1
  9
$HANDLING
 70
 22529
  9
$HANDSEED
  5
4FA6
  9
$SURFTAB1
 70
     6
  9
$SURFTAB2
 70
     6
  9
$SURFTYPE
 70
     6
  9
$SURFU
 70
     6
  9
$SURFV
 70
     6
  9
$UCSNAME
  2

  9
$UCSORG
 10
0.0
 20
0.0
 30
0.0
  9
$UCSXDIR
 10
1.0
 20
0.0
 30
0.0
  9
$UCSYDIR
 10
0.0
 20
1.0
 30
0.0
  9
$PUCSNAME
  2

  9
$PUCSORG
 10
0.0
 20
0.0
 30
0.0
  9
$PUCSXDIR
 10
1.0
 20
0.0
 30
0.0
  9
$PUCSYDIR
 10
0.0
 20
1.0
 30
0.0
  9
$USERI1
 70
     0
  9
$USERI2
 70
     0
  9
$USERI3
 70
     0
  9
$USERI4
 70
     0
  9
$USERI5
 70
     0
  9
$USERR1
 40
0.0
  9
$USERR2
 40
0.0
  9
$USERR3
 40
0.0
  9
$USERR4
 40
0.0
  9
$USERR5
 40
0.0
  9
$WORLDVIEW
 70
     1
  9
$SHADEDGE
 70
     3
  9
$SHADEDIF
 70
    70
  9
$TILEMODE
 70
     1
  9
$MAXACTVP
 70
    48
  9
$PINSBASE
 10
0.0
 20
0.0
 30
0.0
  9
$PLIMCHECK
 70
     0
  9
$PEXTMIN
 10
20.0
 20
10.0
 30
0.0
  9
$PEXTMAX
 10
420.511561668855
 20
287.0
 30
0.0
  9
$PLIMMIN
 10
12.87894590228741
 20
0.3996506887397757
  9
$PLIMMAX
 10
431.7506690692369
 20
296.6077671874622
  9
$UNITMODE
 70
     0
  9
$VISRETAIN
 70
     1
  9
$PLINEGEN
 70
     0
  9
$PSLTSCALE
 70
     1
  9
$TREEDEPTH
 70
  3020
  9
$PICKSTYLE
 70
     1
  9
$CMLSTYLE
  2
STANDARD
  9
$CMLJUST
 70
     0
  9
$CMLSCALE
 40
1.0
  9
$PROXYGRAPHICS
 70
     1
  9
$MEASUREMENT
 70
     1
  0
ENDSEC
  0
SECTION
  2
CLASSES
  0
CLASS
  1
DICTIONARYVAR
  2
AcDbDictionaryVar
  3
AutoCAD 2000
 90
        0
280
     0
281
     0
  0
CLASS
  1
LWPOLYLINE
  2
AcDbPolyline
  3
AutoCAD 2000
 90
        0
280
     0
281
     1
  0
CLASS
  1
HATCH
  2
AcDbHatch
  3
AutoCAD 2000
 90
        0
280
     0
281
     1
  0
CLASS
  1
ACDBDICTIONARYWDFLT
  2
AcDbDictionaryWithDefault
  3
AutoCAD 2000
 90
        0
280
     0
281
     0
  0
CLASS
  1
ACDBPLACEHOLDER
  2
AcDbPlaceHolder
  3
AutoCAD 2000
 90
        0
280
     0
281
     0
  0
CLASS
  1
LAYOUT
  2
AcDbLayout
  3
AutoCAD 2000
 90
        0
280
     0
281
     0
  0
CLASS
  1
LONG_TRANSACTION
  2
AcDbLongTransaction
  3
AutoCAD 2000
 90
        0
280
     0
281
     0
  0
CLASS
  1
LWPOLYLINE
  2
AcDbPolyline
  3
AutoCAD 2000
 90
        0
280
     0
281
     1
  0
CLASS
  1
HATCH
  2
AcDbHatch
  3
AutoCAD 2000
 90
        0
280
     0
281
     1
  0
CLASS
  1
XRECORD
  2
AcDbXrecord
  3
AutoCAD 2000
 90
        0
280
     0
281
     0
  0
CLASS
  1
LONG_TRANSACTION
  2
AcDbLongTransaction
  3
AutoCAD 2000
 90
        0
280
     0
281
     0
  0
CLASS
  1
LWPOLYLINE
  2
AcDbPolyline
  3
AutoCAD 2000
 90
        0
280
     0
281
     1
  0
CLASS
  1
HATCH
  2
AcDbHatch
  3
AutoCAD 2000
 90
        0
280
     0
281
     1
  0
CLASS
  1
XRECORD
  2
AcDbXrecord
  3
AutoCAD 2000
 90
        0
280
     0
281
     0
  0
CLASS
  1
LONG_TRANSACTION
  2
AcDbLongTransaction
  3
AutoCAD 2000
 90
        0
280
     0
281
     0
  0
CLASS
  1
LWPOLYLINE
  2
AcDbPolyline
  3
AutoCAD 2000
 90
        0
280
     0
281
     1
  0
CLASS
  1
HATCH
  2
AcDbHatch
  3
AutoCAD 2000
 90
        0
280
     0
281
     1
  0
CLASS
  1
XRECORD
  2
AcDbXrecord
  3
AutoCAD 2000
 90
        0
280
     0
281
     0
  0
CLASS
  1
LONG_TRANSACTION
  2
AcDbLongTransaction
  3
AutoCAD 2000
 90
        0
280
     0
281
     0
  0
CLASS
  1
LWPOLYLINE
  2
AcDbPolyline
  3
AutoCAD 2000
 90
        0
280
     0
281
     1
  0
CLASS
  1
HATCH
  2
AcDbHatch
  3
AutoCAD 2000
 90
        0
280
     0
281
     1
  0
CLASS
  1
XRECORD
  2
AcDbXrecord
  3
AutoCAD 2000
 90
        0
280
     0
281
     0
  0
CLASS
  1
LONG_TRANSACTION
  2
AcDbLongTransaction
  3
AutoCAD 2000
 90
        0
280
     0
281
     0
  0
CLASS
  1
LWPOLYLINE
  2
AcDbPolyline
  3
AutoCAD 2000
 90
        0
280
     0
281
     1
  0
CLASS
  1
HATCH
  2
AcDbHatch
  3
AutoCAD 2000
 90
        0
280
     0
281
     1
  0
CLASS
  1
XRECORD
  2
AcDbXrecord
  3
AutoCAD 2000
 90
        0
280
     0
281
     0
  0
CLASS
  1
LONG_TRANSACTION
  2
AcDbLongTransaction
  3
AutoCAD 2000
 90
        0
280
     0
281
     0
  0
CLASS
  1
LWPOLYLINE
  2
AcDbPolyline
  3
AutoCAD 2000
 90
        0
280
     0
281
     1
  0
CLASS
  1
HATCH
  2
AcDbHatch
  3
AutoCAD 2000
 90
        0
280
     0
281
     1
  0
CLASS
  1
XRECORD
  2
AcDbXrecord
  3
AutoCAD 2000
 90
        0
280
     0
281
     0
  0
CLASS
  1
LONG_TRANSACTION
  2
AcDbLongTransaction
  3
AutoCAD 2000
 90
        0
280
     0
281
     0
  0
CLASS
  1
LWPOLYLINE
  2
AcDbPolyline
  3
AutoCAD 2000
 90
        0
280
     0
281
     1
  0
CLASS
  1
HATCH
  2
AcDbHatch
  3
AutoCAD 2000
 90
        0
280
     0
281
     1
  0
CLASS
  1
XRECORD
  2
AcDbXrecord
  3
AutoCAD 2000
 90
        0
280
     0
281
     0
  0
CLASS
  1
LONG_TRANSACTION
  2
AcDbLongTransaction
  3
AutoCAD 2000
 90
        0
280
     0
281
     0
  0
CLASS
  1
LWPOLYLINE
  2
AcDbPolyline
  3
AutoCAD 2000
 90
        0
280
     0
281
     1
  0
CLASS
  1
HATCH
  2
AcDbHatch
  3
AutoCAD 2000
 90
        0
280
     0
281
     1
  0
CLASS
  1
XRECORD
  2
AcDbXrecord
  3
AutoCAD 2000
 90
        0
280
     0
281
     0
  0
CLASS
  1
LONG_TRANSACTION
  2
AcDbLongTransaction
  3
AutoCAD 2000
 90
        0
280
     0
281
     0
  0
CLASS
  1
LWPOLYLINE
  2
AcDbPolyline
  3
AutoCAD 2000
 90
        0
280
     0
281
     1
  0
CLASS
  1
HATCH
  2
AcDbHatch
  3
AutoCAD 2000
 90
        0
280
     0
281
     1
  0
CLASS
  1
XRECORD
  2
AcDbXrecord
  3
AutoCAD 2000
 90
        0
280
     0
281
     0
  0
CLASS
  1
LONG_TRANSACTION
  2
AcDbLongTransaction
  3
AutoCAD 2000
 90
        0
280
     0
281
     0
  0
CLASS
  1
LWPOLYLINE
  2
AcDbPolyline
  3
AutoCAD 2000
 90
        0
280
     0
281
     1
  0
CLASS
  1
HATCH
  2
AcDbHatch
  3
AutoCAD 2000
 90
        0
280
     0
281
     1
  0
CLASS
  1
XRECORD
  2
AcDbXrecord
  3
AutoCAD 2000
 90
        0
280
     0
281
     0
  0
CLASS
  1
LONG_TRANSACTION
  2
AcDbLongTransaction
  3
AutoCAD 2000
 90
        0
280
     0
281
     0
  0
CLASS
  1
LWPOLYLINE
  2
AcDbPolyline
  3
AutoCAD 2000
 90
        0
280
     0
281
     1
  0
CLASS
  1
HATCH
  2
AcDbHatch
  3
AutoCAD 2000
 90
        0
280
     0
281
     1
  0
CLASS
  1
XRECORD
  2
AcDbXrecord
  3
AutoCAD 2000
 90
        0
280
     0
281
     0
  0
CLASS
  1
LONG_TRANSACTION
  2
AcDbLongTransaction
  3
AutoCAD 2000
 90
        0
280
     0
281
     0
  0
CLASS
  1
LWPOLYLINE
  2
AcDbPolyline
  3
AutoCAD 2000
 90
        0
280
     0
281
     1
  0
CLASS
  1
HATCH
  2
AcDbHatch
  3
AutoCAD 2000
 90
        0
280
     0
281
     1
  0
CLASS
  1
XRECORD
  2
AcDbXrecord
  3
AutoCAD 2000
 90
        0
280
     0
281
     0
  0
CLASS
  1
LONG_TRANSACTION
  2
AcDbLongTransaction
  3
AutoCAD 2000
 90
        0
280
     0
281
     0
  0
CLASS
  1
LWPOLYLINE
  2
AcDbPolyline
  3
AutoCAD 2000
 90
        0
280
     0
281
     1
  0
CLASS
  1
HATCH
  2
AcDbHatch
  3
AutoCAD 2000
 90
        0
280
     0
281
     1
  0
CLASS
  1
XRECORD
  2
AcDbXrecord
  3
AutoCAD 2000
 90
        0
280
     0
281
     0
  0
CLASS
  1
LONG_TRANSACTION
  2
AcDbLongTransaction
  3
AutoCAD 2000
 90
        0
280
     0
281
     0
  0
CLASS
  1
LWPOLYLINE
  2
AcDbPolyline
  3
AutoCAD 2000
 90
        0
280
     0
281
     1
  0
CLASS
  1
HATCH
  2
AcDbHatch
  3
AutoCAD 2000
 90
        0
280
     0
281
     1
  0
CLASS
  1
XRECORD
  2
AcDbXrecord
  3
AutoCAD 2000
 90
        0
280
     0
281
     0
  0
CLASS
  1
LONG_TRANSACTION
  2
AcDbLongTransaction
  3
AutoCAD 2000
 90
        0
280
     0
281
     0
  0
CLASS
  1
LWPOLYLINE
  2
AcDbPolyline
  3
AutoCAD 2000
 90
        0
280
     0
281
     1
  0
CLASS
  1
HATCH
  2
AcDbHatch
  3
AutoCAD 2000
 90
        0
280
     0
281
     1
  0
CLASS
  1
XRECORD
  2
AcDbXrecord
  3
AutoCAD 2000
 90
        0
280
     0
281
     0
  0
CLASS
  1
LONG_TRANSACTION
  2
AcDbLongTransaction
  3
AutoCAD 2000
 90
        0
280
     0
281
     0
  0
CLASS
  1
LWPOLYLINE
  2
AcDbPolyline
  3
AutoCAD 2000
 90
        0
280
     0
281
     1
  0
CLASS
  1
HATCH
  2
AcDbHatch
  3
AutoCAD 2000
 90
        0
280
     0
281
     1
  0
CLASS
  1
XRECORD
  2
AcDbXrecord
  3
AutoCAD 2000
 90
        0
280
     0
281
     0
  0
CLASS
  1
LONG_TRANSACTION
  2
AcDbLongTransaction
  3
AutoCAD 2000
 90
        0
280
     0
281
     0
  0
CLASS
  1
LWPOLYLINE
  2
AcDbPolyline
  3
AutoCAD 2000
 90
        0
280
     0
281
     1
  0
CLASS
  1
HATCH
  2
AcDbHatch
  3
AutoCAD 2000
 90
        0
280
     0
281
     1
  0
CLASS
  1
XRECORD
  2
AcDbXrecord
  3
AutoCAD 2000
 90
        0
280
     0
281
     0
  0
CLASS
  1
LONG_TRANSACTION
  2
AcDbLongTransaction
  3
AutoCAD 2000
 90
        0
280
     0
281
     0
  0
CLASS
  1
LWPOLYLINE
  2
AcDbPolyline
  3
AutoCAD 2000
 90
        0
280
     0
281
     1
  0
CLASS
  1
HATCH
  2
AcDbHatch
  3
AutoCAD 2000
 90
        0
280
     0
281
     1
  0
CLASS
  1
XRECORD
  2
AcDbXrecord
  3
AutoCAD 2000
 90
        0
280
     0
281
     0
  0
ENDSEC
  0
SECTION
  2
TABLES
  0
TABLE
  2
VPORT
  5
8
330
0
100
AcDbSymbolTable
 70
     2
  0
VPORT
  5
4F83
330
8
100
AcDbSymbolTableRecord
100
AcDbViewportTableRecord
  2
*ACTIVE
 70
     0
 10
0.0
 20
0.0
 11
1.0
 21
1.0
 12
-504.5690885937672
 22
-121.9804130902202
 13
0.0
 23
0.0
 14
1.0
 24
1.0
 15
10.0
 25
10.0
 16
0.0
 26
0.0
 36
1.0
 17
0.0
 27
0.0
 37
0.0
 40
2271.158716628533
 41
1.674961119751166
 42
50.0
 43
0.0
 44
0.0
 50
0.0
 51
0.0
 71
     0
 72
   100
 73
     1
 74
     1
 75
     0
 76
     0
 77
     0
 78
     0
  0
ENDTAB
  0
TABLE
  2
LTYPE
  5
5
330
0
100
AcDbSymbolTable
 70
     1
  0
LTYPE
  5
14
330
5
100
AcDbSymbolTableRecord
100
AcDbLinetypeTableRecord
  2
BYBLOCK
 70
     0
  3

 72
    65
 73
     0
 40
0.0
  0
LTYPE
  5
15
330
5
100
AcDbSymbolTableRecord
100
AcDbLinetypeTableRecord
  2
BYLAYER
 70
     0
  3

 72
    65
 73
     0
 40
0.0
  0
LTYPE
  5
16
330
5
100
AcDbSymbolTableRecord
100
AcDbLinetypeTableRecord
  2
CONTINUOUS
 70
     0
  3
Solid line
 72
    65
 73
     0
 40
0.0
  0
ENDTAB
  0
TABLE
  2
LAYER
  5
2
102
{ACAD_XDICTIONARY
360
28D4
102
}
330
0
100
AcDbSymbolTable
 70
     6
  0
LAYER
  5
F
330
2
100
AcDbSymbolTableRecord
100
AcDbLayerTableRecord
  2
0
 70
     0
 62
     7
  6
CONTINUOUS
  0
LAYER
  5
7D
330
2
100
AcDbSymbolTableRecord
100
AcDbLayerTableRecord
  2
PEN50
 70
     0
 62
     7
  6
CONTINUOUS
  0
LAYER
  5
C3
330
2
100
AcDbSymbolTableRecord
100
AcDbLayerTableRecord
  2
KADER
 70
     0
 62
     5
  6
CONTINUOUS
  0
LAYER
  5
CB
330
2
100
AcDbSymbolTableRecord
100
AcDbLayerTableRecord
  2
VIEWPORT
 70
     0
 62
     7
  6
CONTINUOUS
  0
LAYER
  5
290
330
2
100
AcDbSymbolTableRecord
100
AcDbLayerTableRecord
  2
ONDERHOEK
 70
     0
 62
     7
  6
CONTINUOUS
  0
LAYER
  5
291
330
2
100
AcDbSymbolTableRecord
100
AcDbLayerTableRecord
  2
DEFPOINTS
 70
     0
 62
     7
  6
CONTINUOUS
  0
ENDTAB
  0
TABLE
  2
STYLE
  5
3
330
0
100
AcDbSymbolTable
 70
     2
  0
STYLE
  5
10
330
3
100
AcDbSymbolTableRecord
100
AcDbTextStyleTableRecord
  2
STANDARD
 70
     0
 40
3.5
 41
1.0
 50
0.0
 71
     0
 42
2.5
  3
isocp.shx
  4

  0
STYLE
  5
E7
330
3
100
AcDbSymbolTableRecord
100
AcDbTextStyleTableRecord
  2
ISO35
 70
     0
 40
35.0
 41
0.85
 50
0.0
 71
     0
 42
2.5
  3
romans.shx
  4

  0
ENDTAB
  0
TABLE
  2
VIEW
  5
6
330
0
100
AcDbSymbolTable
 70
     0
  0
ENDTAB
  0
TABLE
  2
UCS
  5
7
330
0
100
AcDbSymbolTable
 70
     0
  0
ENDTAB
  0
TABLE
  2
APPID
  5
9
330
0
100
AcDbSymbolTable
 70
     2
  0
APPID
  5
11
330
9
100
AcDbSymbolTableRecord
100
AcDbRegAppTableRecord
  2
ACAD
 70
     0
  0
APPID
  5
3098
330
9
100
AcDbSymbolTableRecord
100
AcDbRegAppTableRecord
  2
CONTENTBLOCKICON
 70
     0
  0
ENDTAB
  0
TABLE
  2
DIMSTYLE
  5
A
330
0
100
AcDbSymbolTable
 70
     1
  0
DIMSTYLE
105
25
330
A
100
AcDbSymbolTableRecord
100
AcDbDimStyleTableRecord
  2
ISO-35
 70
     0
  3

  4

  5

  6

  7

 40
1.0
 41
3.5
 42
0.875
 43
5.25
 44
1.75
 45
0.0
 46
0.0
 47
0.0
 48
0.0
140
3.5
141
3.5
142
0.0
143
0.0394
144
1.0
145
0.0
146
1.0
147
0.875
 71
     0
 72
     0
 73
     0
 74
     0
 75
     0
 76
     0
 77
     1
 78
     8
170
     0
171
     4
172
     1
173
     0
174
     0
175
     0
176
     0
177
     0
178
     0
270
     8
271
     4
272
     4
273
     8
274
     4
340
10
275
     0
280
     0
281
     0
282
     0
283
     1
284
     0
285
     0
286
     0
287
     3
288
     0
  0
ENDTAB
  0
TABLE
  2
BLOCK_RECORD
  5
1
330
0
100
AcDbSymbolTable
 70
     0
  0
BLOCK_RECORD
  5
1A
102
{ACAD_XDICTIONARY
360
2F72
102
}
330
1
100
AcDbSymbolTableRecord
100
AcDbBlockTableRecord
  2
*MODEL_SPACE
  0
BLOCK_RECORD
  5
17
102
{ACAD_XDICTIONARY
360
2F70
102
}
330
1
100
AcDbSymbolTableRecord
100
AcDbBlockTableRecord
  2
*PAPER_SPACE
  0
ENDTAB
  0
ENDSEC
  0
SECTION
  2
BLOCKS
  0
BLOCK
  5
1B
330
1A
100
AcDbEntity
  8
0
100
AcDbBlockBegin
  2
*MODEL_SPACE
 70
     0
 10
0.0
 20
0.0
 30
0.0
  3
*MODEL_SPACE
  1

  0
ENDBLK
  5
1C
330
1A
100
AcDbEntity
  8
0
100
AcDbBlockEnd
  0
BLOCK
  5
18
330
17
100
AcDbEntity
 67
     1
  8
0
100
AcDbBlockBegin
  2
*PAPER_SPACE
 70
     0
 10
0.0
 20
0.0
 30
0.0
  3
*PAPER_SPACE
  1

  0
ENDBLK
  5
19
330
17
100
AcDbEntity
 67
     1
  8
0
100
AcDbBlockEnd
  0
ENDSEC
  0
SECTION
  2
ENTITIES
  0
ARC
  5
358
330
1A
100
AcDbEntity
  8
PEN50
100
AcDbCircle
 10
-934.8716907486263
 20
310.3588561571641
 30
0.0
 40
198.5012093460888
100
AcDbArc
 50
107.6622508662346
 51
271.3748861178967
  0
ARC
  5
359
330
1A
100
AcDbEntity
  8
PEN50
100
AcDbCircle
 10
-959.6201888160358
 20
332.0055746403916
 30
0.0
 40
344.2872917025997
100
AcDbArc
 50
104.3116258250851
 51
231.0592540493048
  0
ARC
  5
35C
330
1A
100
AcDbEntity
  8
PEN50
100
AcDbCircle
 10
-934.8716907486263
 20
310.3588561571641
 30
0.0
 40
244.3547230149888
100
AcDbArc
 50
107.9164182573804
 51
271.3748861178967
  0
ARC
  5
35D
330
1A
100
AcDbEntity
  8
PEN50
100
AcDbCircle
 10
-929.8716907486264
 20
310.3588561571641
 30
0.0
 40
348.0926722598088
100
AcDbArc
 50
225.0
 51
272.2057924364513
  0
LINE
  5
360
330
1A
100
AcDbEntity
  8
PEN50
100
AcDbLine
 10
-929.0086467667046
 20
66.07448216857278
 30
0.0
 11
-178.4114332877902
 21
66.06612948452994
 31
0.0
  0
LWPOLYLINE
  5
361
330
1A
100
AcDbEntity
  8
PEN50
100
AcDbPolyline
 90
       16
 70
     1
 43
0.0
 10
-504.587959233105
 20
-24.05281141222917
 42
0.0497032536816792
 10
-495.8813520662593
 20
-23.18517458111136
 42
0.06351745862841
 10
-489.3839983865409
 20
-20.9921861717853
 42
0.1035140863626724
 10
-484.3819379437559
 20
-17.12069573627582
 42
0.1783123060470472
 10
-483.086311602105
 20
-13.60318320696387
 42
0.1783123060471059
 10
-484.3819379437563
 20
-10.08567067765216
 42
0.1035140863626946
 10
-489.3839983865409
 20
-6.214180242142674
 42
0.0635174586283997
 10
-495.88135206626
 20
-4.021191832815929
 42
0.0497032536816585
 10
-504.587959233105
 20
-3.153555001698578
 42
0.0497032536816572
 10
-513.2945663999501
 20
-4.021191832815929
 42
0.0635174586283944
 10
-519.7919200796691
 20
-6.214180242142674
 42
0.1035140863626659
 10
-524.7939805224539
 20
-10.0856706776517
 42
0.1783123060470843
 10
-526.0896068641049
 20
-13.60318320696387
 42
0.178312306047092
 10
-524.7939805224532
 20
-17.1206957362765
 42
0.1035140863626478
 10
-519.7919200796691
 20
-20.9921861717853
 42
0.0635174586284165
 10
-513.2945663999483
 20
-23.18517458111228
 42
0.0497032536816441
  0
LINE
  5
363
330
1A
100
AcDbEntity
  8
PEN50
100
AcDbLine
 10
-916.47401055288
 20
-37.47589001743381
 30
0.0
 11
-177.6294117147958
 21
-37.47589001743404
 31
0.0
  0
ARC
  5
374
330
1A
100
AcDbEntity
  8
PEN50
100
AcDbCircle
 10
-691.5080274824973
 20
1665.904623377376
 30
0.0
 40
824.216688563945
100
AcDbArc
 50
272.1233453290724
 51
290.6198961110271
  0
LINE
  5
375
330
1A
100
AcDbEntity
  8
ONDERHOEK
100
AcDbLine
 10
-461.40409486921
 20
684.998499639957
 30
0.0
 11
-514.5316618760553
 21
736.2606093539836
 31
0.0
  0
LINE
  5
376
330
1A
100
AcDbEntity
  8
ONDERHOEK
100
AcDbLine
 10
-438.3573915860251
 20
698.5985143363632
 30
0.0
 11
-543.5309959827918
 21
800.0791796736647
 31
0.0
  0
CIRCLE
  5
377
330
1A
100
AcDbEntity
  8
ONDERHOEK
100
AcDbCircle
 10
-504.5879592331048
 20
231.4328396351675
 30
0.0
 40
26.001992484
  0
CIRCLE
  5
378
330
1A
100
AcDbEntity
  8
ONDERHOEK
100
AcDbCircle
 10
-504.5879592331048
 20
231.4328396351675
 30
0.0
 40
42.503256945
  0
LINE
  5
37A
330
1A
100
AcDbEntity
  8
ONDERHOEK
100
AcDbLine
 10
-178.4114332877902
 20
111.9147947419353
 30
0.0
 11
-930.1088553652917
 21
111.9147947419355
 31
0.0
  0
ARC
  5
37D
330
1A
100
AcDbEntity
  8
PEN50
100
AcDbCircle
 10
-1055.332672961011
 20
711.0867231249862
 30
0.0
 40
174.2128770238779
100
AcDbArc
 50
285.0683472278218
 51
344.5816184401804
  0
ARC
  5
37F
330
1A
100
AcDbEntity
  8
PEN50
100
AcDbCircle
 10
-652.3629277708555
 20
593.4135853958464
 30
0.0
 40
198.5012093460888
100
AcDbArc
 50
46.02377416904093
 51
163.4714301435672
  0
ARC
  5
380
330
1A
100
AcDbEntity
  8
PEN50
100
AcDbCircle
 10
-652.3629277708555
 20
597.899135261608
 30
0.0
 40
244.3547230149888
100
AcDbArc
 50
87.16270804089232
 51
164.1177526546161
  0
ARC
  5
381
330
1A
100
AcDbEntity
  8
PEN50
100
AcDbCircle
 10
-709.0489539387772
 20
626.2766021377967
 30
0.0
 40
311.2897201507217
100
AcDbArc
 50
90.94358208596243
 51
166.2867515323056
  0
ARC
  5
385
330
1A
100
AcDbEntity
  8
PEN50
100
AcDbCircle
 10
-1060.367307698115
 20
713.9855773024635
 30
0.0
 40
50.84302994266606
100
AcDbArc
 50
287.9164182573804
 51
344.117752654616
  0
ARC
  5
387
330
1A
100
AcDbEntity
  8
PEN50
100
AcDbCircle
 10
-647.6929521568486
 20
692.1267107434401
 30
0.0
 40
150.0114951
100
AcDbArc
 50
46.02377416904097
 51
87.16270804089232
  0
POINT
  5
388
330
1A
100
AcDbEntity
  8
DEFPOINTS
  6
BYBLOCK
 62
     0
100
AcDbPoint
 10
-652.3629277708555
 20
796.4003446076972
 30
0.0
  0
ARC
  5
389
330
1A
100
AcDbEntity
  8
PEN50
100
AcDbCircle
 10
597.5016865103198
 20
975.5788782126941
 30
0.0
 40
688.1107393155505
100
AcDbArc
 50
197.6336533134514
 51
217.7279274744848
  0
LINE
  5
38C
330
1A
100
AcDbEntity
  8
ONDERHOEK
100
AcDbLine
 10
-116.6755004401616
 20
642.5241099825659
 30
0.0
 11
-299.4854256681847
 21
642.5241099825662
 31
0.0
  0
ARC
  5
38D
330
1A
100
AcDbEntity
  8
PEN50
100
AcDbCircle
 10
-289.0921764992272
 20
671.0369902948505
 30
0.0
 40
250.0191585
100
AcDbArc
 50
22.60285736371716
 51
116.6527698123745
  0
LINE
  5
391
330
1A
100
AcDbEntity
  8
ONDERHOEK
100
AcDbLine
 10
-98.87728034112297
 20
858.4429407219813
 30
0.0
 11
159.7104693188039
 21
599.8551905718777
 31
0.0
  0
LINE
  5
3D7
330
1A
100
AcDbEntity
  8
ONDERHOEK
100
AcDbLine
 10
137.9362185665604
 20
-956.6526169569712
 30
0.0
 11
219.7933764899064
 21
-806.4331082045777
 31
0.0
  0
LINE
  5
3D8
330
1A
100
AcDbEntity
  8
ONDERHOEK
100
AcDbLine
 10
-1519.892025611962
 20
-771.4304259332499
 30
0.0
 11
510.7174825587577
 21
-771.4304260317482
 31
0.0
  0
LINE
  5
3D9
330
1A
100
AcDbEntity
  8
ONDERHOEK
100
AcDbLine
 10
-1529.892791953599
 20
-806.4331081227823
 30
0.0
 11
520.7168734873906
 21
-806.433108217303
 31
0.0
  0
LINE
  5
3DE
330
1A
100
AcDbEntity
  8
ONDERHOEK
100
AcDbLine
 10
-1529.89279195243
 20
-781.431192272782
 30
0.0
 11
-1529.892791953599
 21
-806.4331081227823
 31
0.0
  0
LINE
  5
3DF
330
1A
100
AcDbEntity
  8
ONDERHOEK
100
AcDbLine
 10
-1178.524609385483
 20
-959.0431669285914
 30
0.0
 11
-1261.684418567943
 21
-806.4331081353207
 31
0.0
  0
ARC
  5
3E0
330
1A
100
AcDbEntity
  8
ONDERHOEK
100
AcDbCircle
 10
-1519.89202561243
 20
-781.43119227325
 30
0.0
 40
10.00076634
100
AcDbArc
 50
89.999999997321
 51
179.9999999973207
  0
LWPOLYLINE
  5
3E4
330
1A
100
AcDbEntity
  8
PEN50
100
AcDbPolyline
 90
       16
 70
     1
 43
0.0
 10
-504.5093860226339
 20
-807.6387756783624
 42
0.0870517906049033
 10
-512.8653563944616
 20
-809.1046887547594
 42
0.0929944276279123
 10
-519.7133468691975
 20
-813.142722623276
 42
0.1028513235162099
 10
-524.4221779696163
 20
-819.3682046736737
 42
0.1111012798792049
 10
-526.0110336536341
 20
-826.4304259842672
 42
0.111101279879205
 10
-524.4221779696167
 20
-833.4926472948591
 42
0.1028513235162574
 10
-519.7133468691975
 20
-839.7181293452593
 42
0.0929944276279248
 10
-512.8653563944616
 20
-843.7561632137754
 42
0.0870517906049033
 10
-504.5093860226339
 20
-845.2220762901724
 42
0.0870517906049072
 10
-496.1534156508055
 20
-843.7561632137754
 42
0.0929944276279078
 10
-489.3054251760705
 20
-839.7181293452593
 42
0.1028513235162543
 10
-484.5965940756518
 20
-833.4926472948602
 42
0.1111012798792255
 10
-483.007738391634
 20
-826.4304259842672
 42
0.1111012798791878
 10
-484.5965940756514
 20
-819.3682046736748
 42
0.1028513235162219
 10
-489.3054251760705
 20
-813.142722623276
 42
0.0929944276279168
 10
-496.1534156508073
 20
-809.1046887547589
 42
0.087051790604886
  0
LINE
  5
3E5
330
1A
100
AcDbEntity
  8
ONDERHOEK
100
AcDbLine
 10
520.7168734862224
 20
-781.4311922766972
 30
0.0
 11
520.7168734873906
 21
-806.433108217303
 31
0.0
  0
ARC
  5
3E9
330
1A
100
AcDbEntity
  8
ONDERHOEK
100
AcDbCircle
 10
510.7161071462224
 20
-781.4311922771651
 30
0.0
 40
10.00076634
100
AcDbArc
 50
0.0000000026792102
 51
90.00000002510917
  0
ARC
  5
3EA
330
1A
100
AcDbEntity
  8
PEN50
100
AcDbCircle
 10
-1218.041864793863
 20
-980.5767895820432
 30
0.0
 40
45.00344853
100
AcDbArc
 50
10.00195277426483
 51
28.5867156250844
  0
LINE
  5
3EB
330
1A
100
AcDbEntity
  8
PEN50
100
AcDbLine
 10
-1173.722386140518
 20
-972.7605122399806
 30
0.0
 11
-1136.37283339533
 21
-1184.538144117816
 31
0.0
  0
LINE
  5
3EC
330
1A
100
AcDbEntity
  8
ONDERHOEK
100
AcDbLine
 10
-1177.307548953891
 20
-961.4449864092689
 30
0.0
 11
135.3247751437602
 21
-961.4449864706436
 31
0.0
  0
LINE
  5
3ED
330
1A
100
AcDbEntity
  8
ONDERHOEK
100
AcDbLine
 10
-464.9352857216777
 20
-1231.483719987616
 30
0.0
 11
-544.0834863238301
 21
-1231.483719987616
 31
0.0
  0
LINE
  5
3EE
330
1A
100
AcDbEntity
  8
ONDERHOEK
100
AcDbLine
 10
-549.1019118628037
 20
-1226.465294448641
 30
0.0
 11
-459.9168601868734
 21
-1226.465294452812
 31
0.0
  0
LINE
  5
3F0
330
1A
100
AcDbEntity
  8
ONDERHOEK
100
AcDbLine
 10
-1092.446078935236
 20
-1221.723601712313
 30
0.0
 11
-549.1019118628037
 21
-1226.465294448641
 31
0.0
  0
ARC
  5
3F1
330
1A
100
AcDbEntity
  8
PEN50
100
AcDbCircle
 10
-1092.053354741985
 20
-1176.721866775753
 30
0.0
 40
45.00344853
100
AcDbArc
 50
190.0019527742648
 51
269.4999999973209
  0
LINE
  5
3F2
330
1A
100
AcDbEntity
  8
ONDERHOEK
100
AcDbLine
 10
-1088.847015378701
 20
-1221.75501026431
 30
0.0
 11
-1088.847015379638
 21
-1241.787258216367
 31
0.0
  0
LINE
  5
3F4
330
1A
100
AcDbEntity
  8
ONDERHOEK
100
AcDbLine
 10
-544.0834863238301
 20
-1231.483719987616
 30
0.0
 11
-549.1019118607186
 21
-1226.465294450726
 31
0.0
  0
LINE
  5
3F5
330
1A
100
AcDbEntity
  8
ONDERHOEK
100
AcDbLine
 10
51.39432014744944
 20
-1222.003149354054
 30
0.0
 11
-459.9168601827036
 21
-1226.465294448641
 31
0.0
  0
LINE
  5
3F6
330
1A
100
AcDbEntity
  8
ONDERHOEK
100
AcDbLine
 10
-459.9168601868734
 20
-1226.465294452812
 30
0.0
 11
-464.9352857216777
 21
-1231.483719987616
 31
0.0
  0
LINE
  5
3F7
330
1A
100
AcDbEntity
  8
ONDERHOEK
100
AcDbLine
 10
-404.0976183856799
 20
-1245.662696501466
 30
0.0
 11
-404.0976183865775
 21
-1226.465294441355
 31
0.0
  0
LINE
  5
3F8
330
1A
100
AcDbEntity
  8
ONDERHOEK
100
AcDbLine
 10
133.1337289503098
 20
-970.3714727844609
 30
0.0
 11
95.32134097882886
 21
-1184.816181243456
 31
0.0
  0
ARC
  5
3F9
330
1A
100
AcDbEntity
  8
ONDERHOEK
100
AcDbCircle
 10
51.00159595419881
 20
-1177.001414417493
 30
0.0
 40
45.00344853
100
AcDbArc
 50
270.500000002679
 51
350.0
  0
ARC
  5
3FB
330
1A
100
AcDbEntity
  8
ONDERHOEK
100
AcDbCircle
 10
177.4534739749396
 20
-978.1862396104228
 30
0.0
 40
45.00344853
100
AcDbArc
 50
151.4132843749157
 51
170.0
  0
LINE
  5
E5F
330
1A
100
AcDbEntity
  8
PEN50
100
AcDbLine
 10
-1529.892791953599
 20
366.1280069146746
 30
0.0
 11
-893.4966888857061
 21
1002.524109982566
 31
0.0
  0
LINE
  5
E62
330
1A
100
AcDbEntity
  8
PEN50
100
AcDbLine
 10
86.40229843662746
 20
-68.18656813608868
 30
0.0
 11
520.7168734873907
 21
366.1280069146751
 31
0.0
  0
LINE
  5
E63
330
1A
100
AcDbEntity
  8
PEN50
100
AcDbLine
 10
-1529.892791953599
 20
366.1280069146746
 30
0.0
 11
-1095.578216902836
 21
-68.18656813608845
 31
0.0
  0
LINE
  5
E67
330
1A
100
AcDbEntity
  8
PEN50
100
AcDbLine
 10
-893.4966888857061
 20
1002.524109982566
 30
0.0
 11
-115.6792295805034
 21
1002.524109982566
 31
0.0
  0
LINE
  5
E68
330
1A
100
AcDbEntity
  8
PEN50
100
AcDbLine
 10
-115.6792295805039
 20
1002.524109982566
 30
0.0
 11
520.7168734873907
 21
366.1280069146751
 31
0.0
  0
LINE
  5
E6B
330
1A
100
AcDbEntity
  8
PEN50
100
AcDbLine
 10
-1024.867538784181
 20
-97.47589001743381
 30
0.0
 11
15.69162031797259
 21
-97.47589001743381
 31
0.0
  0
ARC
  5
EDA
330
1A
100
AcDbEntity
  8
PEN50
100
AcDbCircle
 10
-1024.867538784181
 20
2.524109982566187
 30
0.0
 40
100.0
100
AcDbArc
 50
225.0
 51
270.0
  0
ARC
  5
EDB
330
1A
100
AcDbEntity
  8
PEN50
100
AcDbCircle
 10
15.69162031797259
 20
2.524109982566187
 30
0.0
 40
100.0
100
AcDbArc
 50
270.0
 51
315.0
  0
LINE
  5
109D
330
1A
100
AcDbEntity
  8
ONDERHOEK
100
AcDbLine
 10
-178.4114332877898
 20
621.9147947419351
 30
0.0
 11
-305.1731332116405
 21
621.9147947419355
 31
0.0
  0
ARC
  5
12B1
330
1A
100
AcDbEntity
  8
PEN50
100
AcDbCircle
 10
-1053.219941686021
 20
710.8689934448898
 30
0.0
 40
219.2116038188538
100
AcDbArc
 50
285.3753151442152
 51
343.8476164720137
  0
ARC
  5
12BB
330
1A
100
AcDbEntity
  8
ONDERHOEK
100
AcDbCircle
 10
-305.1731332116405
 20
846.9147947419354
 30
0.0
 40
225.0
100
AcDbArc
 50
226.023774169041
 51
270.0
  0
ARC
  5
12BD
330
1A
100
AcDbEntity
  8
PEN50
100
AcDbCircle
 10
-178.4114332877902
 20
366.9147947419353
 30
0.0
 40
254.9999999999999
100
AcDbArc
 50
270.0
 51
89.99999999999991
  0
ARC
  5
1732
330
1A
100
AcDbEntity
  8
ONDERHOEK
100
AcDbCircle
 10
-299.4854256681851
 20
842.5241099825662
 30
0.0
 40
200.0
100
AcDbArc
 50
226.023774169041
 51
270.0
  0
ARC
  5
175B
330
1A
100
AcDbEntity
  8
PEN50
100
AcDbCircle
 10
-176.6803040497441
 20
364.4092887844235
 30
0.0
 40
298.348181676176
100
AcDbArc
 50
269.6675463039717
 51
49.85470362135373
  0
ARC
  5
175C
330
1A
100
AcDbEntity
  8
PEN50
100
AcDbCircle
 10
-116.6755004401616
 20
442.5241099825662
 30
0.0
 40
200.0
100
AcDbArc
 50
48.56703407949057
 51
90.0
  0
LINE
  5
1766
330
1A
100
AcDbEntity
  8
ONDERHOEK
100
AcDbLine
 10
-289.7961114424429
 20
937.5241099825657
 30
0.0
 11
-714.1752325046554
 21
937.5241099825661
 31
0.0
  0
ARC
  5
1767
330
1A
100
AcDbEntity
  8
ONDERHOEK
100
AcDbCircle
 10
-289.7961114424429
 20
667.5241099825657
 30
0.0
 40
270.0
100
AcDbArc
 50
44.9999999456953
 51
90.0
  0
ARC
  5
1AD6
330
1A
100
AcDbEntity
  8
PEN50
100
AcDbCircle
 10
-177.6294117147958
 20
366.2460411787262
 30
0.0
 40
403.7219311961601
100
AcDbArc
 50
270.0
 51
44.9999999456953
  0
LINE
  5
334A
330
1A
100
AcDbEntity
  8
ONDERHOEK
100
AcDbLine
 10
37.08129809028764
 20
-1242.129589885894
 30
0.0
 11
37.0812980912226
 21
-1222.128057205894
 31
0.0
  0
LINE
  5
334D
330
1A
100
AcDbEntity
  8
ONDERHOEK
100
AcDbLine
 10
-504.5093860226339
 20
-1246.466827132533
 30
0.0
 11
37.08129809028764
 21
-1242.129589885894
 31
0.0
  0
LINE
  5
334E
330
1A
100
AcDbEntity
  8
ONDERHOEK
100
AcDbLine
 10
-604.9211536595879
 20
-1245.662696501466
 30
0.0
 11
-604.9211536586904
 21
-1226.465294441355
 31
0.0
  0
LINE
  5
334F
330
1A
100
AcDbEntity
  8
ONDERHOEK
100
AcDbLine
 10
-504.5093860226339
 20
-1246.466827132533
 30
0.0
 11
-1088.847015379638
 21
-1241.787258216367
 31
0.0
  0
VIEWPORT
  5
22
330
17
100
AcDbEntity
 67
     1
  8
0
100
AcDbViewport
 10
216.7629134764866
 20
137.790264828551
 30
0.0
 40
655.2735019516338
 41
391.2171418337052
 68
     1
 69
     1
1001
ACAD
1000
MVIEW
1002
{
1070
    16
1010
0.0
1020
0.0
1030
0.0
1010
0.0
1020
0.0
1030
1.0
1040
0.0
1040
391.2171418337052
1040
216.7629134764866
1040
137.790264828551
1040
50.0
1040
0.0
1040
0.0
1070
     0
1070
   100
1070
     1
1070
     1
1070
     0
1070
     0
1070
     0
1070
     0
1040
0.0
1040
0.0
1040
0.0
1040
1.0
1040
1.0
1040
10.0
1040
10.0
1070
     0
1002
{
1002
}
1002
}
  0
VIEWPORT
  5
DC
330
17
100
AcDbEntity
 67
     1
  8
VIEWPORT
100
AcDbViewport
 10
220.2557808344275
 20
148.5
 30
0.0
 40
400.511561668855
 41
277.0
 68
     2
 69
     2
1001
ACAD
1000
MVIEW
1002
{
1070
    16
1010
0.0
1020
0.0
1030
0.0
1010
0.0
1020
0.0
1030
1.0
1040
0.0
1040
2970.0
1040
327.0615382034337
1040
167.1246128368902
1040
50.0
1040
0.0
1040
0.0
1070
     0
1070
   100
1070
     1
1070
     0
1070
     0
1070
     0
1070
     0
1070
     0
1040
0.0
1040
0.0
1040
0.0
1040
1.0
1040
1.0
1040
10.0
1040
10.0
1070
     0
1002
{
1002
}
1002
}
  0
LWPOLYLINE
  5
DD
330
17
100
AcDbEntity
 67
     1
  8
KADER
100
AcDbPolyline
 90
        4
 70
     1
 43
0.0
 10
20.0
 20
10.0
 10
420.511561668855
 20
10.0
 10
420.511561668855
 20
287.0
 10
20.0
 20
287.0
  0
ENDSEC
  0
SECTION
  2
OBJECTS
  0
DICTIONARY
  5
C
330
0
100
AcDbDictionary
  3
ACAD_GROUP
350
D
  3
ACAD_LAYOUT
350
6DE
  3
ACAD_MLINESTYLE
350
E
  3
ACAD_PLOTSETTINGS
350
6DF
  3
ACAD_PLOTSTYLENAME
350
6DC
  3
ACDBHEADERROUNDTRIPXREC
350
4F84
  3
ACDBVARIABLEDICTIONARY
350
5D
  0
DICTIONARY
  5
28D4
330
2
100
AcDbDictionary
280
     1
  3
ACAD_LAYERSTATES
360
28D5
  0
DICTIONARY
  5
2F72
330
1A
100
AcDbDictionary
280
     1
  3
ACAD_LAYOUTSELFREF
360
4FA5
  0
DICTIONARY
  5
2F70
330
17
100
AcDbDictionary
280
     1
  3
ACAD_LAYOUTSELFREF
360
4FA4
  0
DICTIONARY
  5
D
102
{ACAD_REACTORS
330
C
102
}
330
C
100
AcDbDictionary
  0
DICTIONARY
  5
6DE
102
{ACAD_REACTORS
330
C
102
}
330
C
100
AcDbDictionary
  0
DICTIONARY
  5
E
102
{ACAD_REACTORS
330
C
102
}
330
C
100
AcDbDictionary
  3
STANDARD
350
13
  0
DICTIONARY
  5
6DF
102
{ACAD_REACTORS
330
C
102
}
330
C
100
AcDbDictionary
  0
ACDBDICTIONARYWDFLT
  5
6DC
102
{ACAD_REACTORS
330
C
102
}
330
C
100
AcDbDictionary
281
     1
  3
Normal
350
6DD
100
AcDbDictionaryWithDefault
340
6DD
  0
DICTIONARY
  5
4F84
102
{ACAD_REACTORS
330
C
102
}
330
C
100
AcDbDictionary
  3
CEPSNTYPE
350
4F8E
  3
FINGERPRINTGUID
350
4F8F
  3
HYPERLINKBASE
350
4F87
  3
INSUNITS
350
4F8D
  3
LAYOUTDICT
350
4F89
  3
LWETCUNION
350
4F8C
  3
PLOTSETDICT
350
4F8A
  3
PLOTSTYLNAMDICT
350
4F8B
  3
PSVPSCALE
350
4F91
  3
PUCSBASE
350
4F94
  3
PUCSORGBACK
350
4F9A
  3
PUCSORGBOTTOM
350
4F96
  3
PUCSORGFRONT
350
4F99
  3
PUCSORGLEFT
350
4F97
  3
PUCSORGRIGHT
350
4F98
  3
PUCSORGTOP
350
4F95
  3
PUCSORTHOREF
350
4F92
  3
PUCSORTHOVIEW
350
4F93
  3
STYLESHEET
350
4F88
  3
TSTACKALIGN
350
4F85
  3
TSTACKSIZE
350
4F86
  3
UCSBASE
350
4F9D
  3
UCSORGBACK
350
4FA3
  3
UCSORGBOTTOM
350
4F9F
  3
UCSORGFRONT
350
4FA2
  3
UCSORGLEFT
350
4FA0
  3
UCSORGRIGHT
350
4FA1
  3
UCSORGTOP
350
4F9E
  3
UCSORTHOREF
350
4F9B
  3
UCSORTHOVIEW
350
4F9C
  3
VERSIONGUID
350
4F90
  0
DICTIONARY
  5
5D
102
{ACAD_REACTORS
330
C
102
}
330
C
100
AcDbDictionary
  3
DIMADEC
350
5E
  3
DIMASSOC
350
A36
  0
DICTIONARY
  5
28D5
102
{ACAD_REACTORS
330
28D4
102
}
330
28D4
100
AcDbDictionary
  0
XRECORD
  5
4FA5
102
{ACAD_REACTORS
330
2F72
102
}
330
2F72
100
AcDbXrecord
340
1A
  0
XRECORD
  5
4FA4
102
{ACAD_REACTORS
330
2F70
102
}
330
2F70
100
AcDbXrecord
340
17
  0
MLINESTYLE
  5
13
102
{ACAD_REACTORS
330
E
102
}
330
E
100
AcDbMlineStyle
  2
STANDARD
 70
     0
  3

 62
     0
 51
90.0
 52
90.0
 71
     2
 49
0.5
 62
   256
  6
BYLAYER
 49
-0.5
 62
   256
  6
BYLAYER
  0
ACDBPLACEHOLDER
  5
6DD
102
{ACAD_REACTORS
330
6DC
102
}
330
6DC
100
AcDbPlaceHolder
280
     0
  0
XRECORD
  5
4F8E
102
{ACAD_REACTORS
330
4F84
102
}
330
4F84
100
AcDbXrecord
 90
        0
  0
XRECORD
  5
4F8F
102
{ACAD_REACTORS
330
4F84
102
}
330
4F84
100
AcDbXrecord
  1
{1ACEAA1B-FFFF-405E-8F9A-F98F7569AEF5}
  0
XRECORD
  5
4F87
102
{ACAD_REACTORS
330
4F84
102
}
330
4F84
100
AcDbXrecord
  1

  0
XRECORD
  5
4F8D
102
{ACAD_REACTORS
330
4F84
102
}
330
4F84
100
AcDbXrecord
 90
        0
  0
XRECORD
  5
4F89
102
{ACAD_REACTORS
330
4F84
102
}
330
4F84
100
AcDbXrecord
340
6DE
  0
XRECORD
  5
4F8C
102
{ACAD_REACTORS
330
4F84
102
}
330
4F84
100
AcDbXrecord
 90
    14877
  0
XRECORD
  5
4F8A
102
{ACAD_REACTORS
330
4F84
102
}
330
4F84
100
AcDbXrecord
340
6DF
  0
XRECORD
  5
4F8B
102
{ACAD_REACTORS
330
4F84
102
}
330
4F84
100
AcDbXrecord
340
6DC
  0
XRECORD
  5
4F91
102
{ACAD_REACTORS
330
4F84
102
}
330
4F84
100
AcDbXrecord
 40
0.0
  0
XRECORD
  5
4F94
102
{ACAD_REACTORS
330
4F84
102
}
330
4F84
100
AcDbXrecord
340
0
  0
XRECORD
  5
4F9A
102
{ACAD_REACTORS
330
4F84
102
}
330
4F84
100
AcDbXrecord
 10
0.0
 20
0.0
 30
0.0
  0
XRECORD
  5
4F96
102
{ACAD_REACTORS
330
4F84
102
}
330
4F84
100
AcDbXrecord
 10
0.0
 20
0.0
 30
0.0
  0
XRECORD
  5
4F99
102
{ACAD_REACTORS
330
4F84
102
}
330
4F84
100
AcDbXrecord
 10
0.0
 20
0.0
 30
0.0
  0
XRECORD
  5
4F97
102
{ACAD_REACTORS
330
4F84
102
}
330
4F84
100
AcDbXrecord
 10
0.0
 20
0.0
 30
0.0
  0
XRECORD
  5
4F98
102
{ACAD_REACTORS
330
4F84
102
}
330
4F84
100
AcDbXrecord
 10
0.0
 20
0.0
 30
0.0
  0
XRECORD
  5
4F95
102
{ACAD_REACTORS
330
4F84
102
}
330
4F84
100
AcDbXrecord
 10
0.0
 20
0.0
 30
0.0
  0
XRECORD
  5
4F92
102
{ACAD_REACTORS
330
4F84
102
}
330
4F84
100
AcDbXrecord
340
0
  0
XRECORD
  5
4F93
102
{ACAD_REACTORS
330
4F84
102
}
330
4F84
100
AcDbXrecord
 70
     0
  0
XRECORD
  5
4F88
102
{ACAD_REACTORS
330
4F84
102
}
330
4F84
100
AcDbXrecord
  1

  0
XRECORD
  5
4F85
102
{ACAD_REACTORS
330
4F84
102
}
330
4F84
100
AcDbXrecord
 90
        1
  0
XRECORD
  5
4F86
102
{ACAD_REACTORS
330
4F84
102
}
330
4F84
100
AcDbXrecord
 90
       70
  0
XRECORD
  5
4F9D
102
{ACAD_REACTORS
330
4F84
102
}
330
4F84
100
AcDbXrecord
340
0
  0
XRECORD
  5
4FA3
102
{ACAD_REACTORS
330
4F84
102
}
330
4F84
100
AcDbXrecord
 10
0.0
 20
0.0
 30
0.0
  0
XRECORD
  5
4F9F
102
{ACAD_REACTORS
330
4F84
102
}
330
4F84
100
AcDbXrecord
 10
0.0
 20
0.0
 30
0.0
  0
XRECORD
  5
4FA2
102
{ACAD_REACTORS
330
4F84
102
}
330
4F84
100
AcDbXrecord
 10
0.0
 20
0.0
 30
0.0
  0
XRECORD
  5
4FA0
102
{ACAD_REACTORS
330
4F84
102
}
330
4F84
100
AcDbXrecord
 10
0.0
 20
0.0
 30
0.0
  0
XRECORD
  5
4FA1
102
{ACAD_REACTORS
330
4F84
102
}
330
4F84
100
AcDbXrecord
 10
0.0
 20
0.0
 30
0.0
  0
XRECORD
  5
4F9E
102
{ACAD_REACTORS
330
4F84
102
}
330
4F84
100
AcDbXrecord
 10
0.0
 20
0.0
 30
0.0
  0
XRECORD
  5
4F9B
102
{ACAD_REACTORS
330
4F84
102
}
330
4F84
100
AcDbXrecord
340
0
  0
XRECORD
  5
4F9C
102
{ACAD_REACTORS
330
4F84
102
}
330
4F84
100
AcDbXrecord
 70
     0
  0
XRECORD
  5
4F90
102
{ACAD_REACTORS
330
4F84
102
}
330
4F84
100
AcDbXrecord
  1
{B33D43CD-81D7-4315-B760-482241FE5E5C}
  0
DICTIONARYVAR
  5
5E
102
{ACAD_REACTORS
330
5D
102
}
330
5D
100
DictionaryVariables
280
     0
  1
0
  0
DICTIONARYVAR
  5
A36
102
{ACAD_REACTORS
330
5D
102
}
330
5D
100
DictionaryVariables
280
     0
  1
1
  0
ENDSEC
  0
EOF
