  0
SECTION
  2
HEADER
  9
$ACADVER
  1
AC1014
  9
$ACADMAINTVER
 70
     9
  9
$DWGCODEPAGE
  3
ANSI_1250
  9
$INSBASE
 10
0.0
 20
0.0
 30
0.0
  9
$EXTMIN
 10
-1414.84560555086
 20
-570.0601244196319
 30
0.0
  9
$EXTMAX
 10
39.76764324068204
 20
1320.370176669596
 30
0.0
  9
$LIMMIN
 10
0.0
 20
0.0
  9
$LIMMAX
 10
420.0
 20
297.0
  9
$ORTHOMODE
 70
     1
  9
$REGENMODE
 70
     1
  9
$FILLMODE
 70
     1
  9
$QTEXTMODE
 70
     0
  9
$MIRRTEXT
 70
     1
  9
$DRAGMODE
 70
     2
  9
$LTSCALE
 40
1.0
  9
$OSMODE
 70
  3007
  9
$ATTMODE
 70
     1
  9
$TEXTSIZE
 40
2.5
  9
$TRACEWID
 40
1.0
  9
$TEXTSTYLE
  7
ISO35
  9
$CLAYER
  8
MAATLIJN
  9
$CELTYPE
  6
BYLAYER
  9
$CECOLOR
 62
   256
  9
$CELTSCALE
 40
1.0
  9
$DELOBJ
 70
     1
  9
$DISPSILH
 70
     0
  9
$DIMSCALE
 40
10.0
  9
$DIMASZ
 40
3.5
  9
$DIMEXO
 40
0.875
  9
$DIMDLI
 40
5.25
  9
$DIMRND
 40
0.0
  9
$DIMDLE
 40
0.0
  9
$DIMEXE
 40
1.75
  9
$DIMTP
 40
0.0
  9
$DIMTM
 40
0.0
  9
$DIMTXT
 40
3.5
  9
$DIMCEN
 40
0.0
  9
$DIMTSZ
 40
0.0
  9
$DIMTOL
 70
     0
  9
$DIMLIM
 70
     0
  9
$DIMTIH
 70
     0
  9
$DIMTOH
 70
     0
  9
$DIMSE1
 70
     0
  9
$DIMSE2
 70
     0
  9
$DIMTAD
 70
     1
  9
$DIMZIN
 70
     8
  9
$DIMBLK
  1

  9
$DIMASO
 70
     1
  9
$DIMSHO
 70
     1
  9
$DIMPOST
  1

  9
$DIMAPOST
  1

  9
$DIMALT
 70
     0
  9
$DIMALTD
 70
     4
  9
$DIMALTF
 40
0.0394
  9
$DIMLFAC
 40
0.1
  9
$DIMTOFL
 70
     1
  9
$DIMTVP
 40
0.0
  9
$DIMTIX
 70
     0
  9
$DIMSOXD
 70
     0
  9
$DIMSAH
 70
     0
  9
$DIMBLK1
  1

  9
$DIMBLK2
  1

  9
$DIMSTYLE
  2
ISO-35
  9
$DIMCLRD
 70
   256
  9
$DIMCLRE
 70
   256
  9
$DIMCLRT
 70
     2
  9
$DIMTFAC
 40
1.0
  9
$DIMGAP
 40
2.0
  9
$DIMJUST
 70
     0
  9
$DIMSD1
 70
     0
  9
$DIMSD2
 70
     0
  9
$DIMTOLJ
 70
     1
  9
$DIMTZIN
 70
     8
  9
$DIMALTZ
 70
     0
  9
$DIMALTTZ
 70
     0
  9
$DIMFIT
 70
     3
  9
$DIMUPT
 70
     0
  9
$DIMUNIT
 70
     2
  9
$DIMDEC
 70
     2
  9
$DIMTDEC
 70
     2
  9
$DIMALTU
 70
     8
  9
$DIMALTTD
 70
     4
  9
$DIMTXSTY
  7
ISO35
  9
$DIMAUNIT
 70
     0
  9
$LUNITS
 70
     2
  9
$LUPREC
 70
     2
  9
$SKETCHINC
 40
1.0
  9
$FILLETRAD
 40
50.0
  9
$AUNITS
 70
     0
  9
$AUPREC
 70
     0
  9
$MENU
  1
.
  9
$ELEVATION
 40
0.0
  9
$PELEVATION
 40
0.0
  9
$THICKNESS
 40
0.0
  9
$LIMCHECK
 70
     0
  9
$BLIPMODE
 70
     0
  9
$CHAMFERA
 40
10.0
  9
$CHAMFERB
 40
10.0
  9
$CHAMFERC
 40
20.0
  9
$CHAMFERD
 40
0.0
  9
$SKPOLY
 70
     1
  9
$TDCREATE
 40
2451204.590596956
  9
$TDUPDATE
 40
2453966.376773356
  9
$TDINDWG
 40
1.0807442477
  9
$TDUSRTIMER
 40
1.0807442477
  9
$USRTIMER
 70
     1
  9
$ANGBASE
 50
0.0
  9
$ANGDIR
 70
     0
  9
$PDMODE
 70
     0
  9
$PDSIZE
 40
0.0
  9
$PLINEWID
 40
0.0
  9
$COORDS
 70
     2
  9
$SPLFRAME
 70
     0
  9
$SPLINETYPE
 70
     6
  9
$SPLINESEGS
 70
     8
  9
$ATTDIA
 70
     0
  9
$ATTREQ
 70
     1
  9
$HANDLING
 70
 22529
  9
$HANDSEED
  5
4A46
  9
$SURFTAB1
 70
     6
  9
$SURFTAB2
 70
     6
  9
$SURFTYPE
 70
     6
  9
$SURFU
 70
     6
  9
$SURFV
 70
     6
  9
$UCSNAME
  2

  9
$UCSORG
 10
0.0
 20
0.0
 30
0.0
  9
$UCSXDIR
 10
1.0
 20
0.0
 30
0.0
  9
$UCSYDIR
 10
0.0
 20
1.0
 30
0.0
  9
$PUCSNAME
  2

  9
$PUCSORG
 10
0.0
 20
0.0
 30
0.0
  9
$PUCSXDIR
 10
1.0
 20
0.0
 30
0.0
  9
$PUCSYDIR
 10
0.0
 20
1.0
 30
0.0
  9
$USERI1
 70
     0
  9
$USERI2
 70
     0
  9
$USERI3
 70
     0
  9
$USERI4
 70
     0
  9
$USERI5
 70
     0
  9
$USERR1
 40
0.0
  9
$USERR2
 40
0.0
  9
$USERR3
 40
0.0
  9
$USERR4
 40
0.0
  9
$USERR5
 40
0.0
  9
$WORLDVIEW
 70
     1
  9
$SHADEDGE
 70
     3
  9
$SHADEDIF
 70
    70
  9
$TILEMODE
 70
     1
  9
$MAXACTVP
 70
    48
  9
$PINSBASE
 10
0.0
 20
0.0
 30
0.0
  9
$PLIMCHECK
 70
     0
  9
$PEXTMIN
 10
20.0
 20
10.0
 30
0.0
  9
$PEXTMAX
 10
410.0
 20
287.0
 30
0.0
  9
$PLIMMIN
 10
12.8901023066575
 20
1.458984058322615
  9
$PLIMMAX
 10
432.1960935415989
 20
297.9319326245359
  9
$UNITMODE
 70
     0
  9
$VISRETAIN
 70
     1
  9
$PLINEGEN
 70
     0
  9
$PSLTSCALE
 70
     1
  9
$TREEDEPTH
 70
  3020
  9
$PICKSTYLE
 70
     1
  9
$CMLSTYLE
  2
STANDARD
  9
$CMLJUST
 70
     0
  9
$CMLSCALE
 40
1.0
  9
$PROXYGRAPHICS
 70
     1
  9
$MEASUREMENT
 70
     1
  0
ENDSEC
  0
SECTION
  2
CLASSES
  0
CLASS
  1
DICTIONARYVAR
  2
AcDbDictionaryVar
  3
AutoCAD 2000
 90
        0
280
     0
281
     0
  0
CLASS
  1
LWPOLYLINE
  2
AcDbPolyline
  3
AutoCAD 2000
 90
        0
280
     0
281
     1
  0
CLASS
  1
HATCH
  2
AcDbHatch
  3
AutoCAD 2000
 90
        0
280
     0
281
     1
  0
CLASS
  1
ACDBDICTIONARYWDFLT
  2
AcDbDictionaryWithDefault
  3
AutoCAD 2000
 90
        0
280
     0
281
     0
  0
CLASS
  1
ACDBPLACEHOLDER
  2
AcDbPlaceHolder
  3
AutoCAD 2000
 90
        0
280
     0
281
     0
  0
CLASS
  1
LAYOUT
  2
AcDbLayout
  3
AutoCAD 2000
 90
        0
280
     0
281
     0
  0
CLASS
  1
LONG_TRANSACTION
  2
AcDbLongTransaction
  3
AutoCAD 2000
 90
        0
280
     0
281
     0
  0
CLASS
  1
LWPOLYLINE
  2
AcDbPolyline
  3
AutoCAD 2000
 90
        0
280
     0
281
     1
  0
CLASS
  1
HATCH
  2
AcDbHatch
  3
AutoCAD 2000
 90
        0
280
     0
281
     1
  0
CLASS
  1
XRECORD
  2
AcDbXrecord
  3
AutoCAD 2000
 90
        0
280
     0
281
     0
  0
CLASS
  1
LONG_TRANSACTION
  2
AcDbLongTransaction
  3
AutoCAD 2000
 90
        0
280
     0
281
     0
  0
CLASS
  1
LWPOLYLINE
  2
AcDbPolyline
  3
AutoCAD 2000
 90
        0
280
     0
281
     1
  0
CLASS
  1
HATCH
  2
AcDbHatch
  3
AutoCAD 2000
 90
        0
280
     0
281
     1
  0
CLASS
  1
XRECORD
  2
AcDbXrecord
  3
AutoCAD 2000
 90
        0
280
     0
281
     0
  0
CLASS
  1
LONG_TRANSACTION
  2
AcDbLongTransaction
  3
AutoCAD 2000
 90
        0
280
     0
281
     0
  0
CLASS
  1
LWPOLYLINE
  2
AcDbPolyline
  3
AutoCAD 2000
 90
        0
280
     0
281
     1
  0
CLASS
  1
HATCH
  2
AcDbHatch
  3
AutoCAD 2000
 90
        0
280
     0
281
     1
  0
CLASS
  1
XRECORD
  2
AcDbXrecord
  3
AutoCAD 2000
 90
        0
280
     0
281
     0
  0
CLASS
  1
LONG_TRANSACTION
  2
AcDbLongTransaction
  3
AutoCAD 2000
 90
        0
280
     0
281
     0
  0
CLASS
  1
LWPOLYLINE
  2
AcDbPolyline
  3
AutoCAD 2000
 90
        0
280
     0
281
     1
  0
CLASS
  1
HATCH
  2
AcDbHatch
  3
AutoCAD 2000
 90
        0
280
     0
281
     1
  0
CLASS
  1
XRECORD
  2
AcDbXrecord
  3
AutoCAD 2000
 90
        0
280
     0
281
     0
  0
CLASS
  1
LONG_TRANSACTION
  2
AcDbLongTransaction
  3
AutoCAD 2000
 90
        0
280
     0
281
     0
  0
CLASS
  1
LWPOLYLINE
  2
AcDbPolyline
  3
AutoCAD 2000
 90
        0
280
     0
281
     1
  0
CLASS
  1
HATCH
  2
AcDbHatch
  3
AutoCAD 2000
 90
        0
280
     0
281
     1
  0
CLASS
  1
XRECORD
  2
AcDbXrecord
  3
AutoCAD 2000
 90
        0
280
     0
281
     0
  0
CLASS
  1
LONG_TRANSACTION
  2
AcDbLongTransaction
  3
AutoCAD 2000
 90
        0
280
     0
281
     0
  0
CLASS
  1
LWPOLYLINE
  2
AcDbPolyline
  3
AutoCAD 2000
 90
        0
280
     0
281
     1
  0
CLASS
  1
HATCH
  2
AcDbHatch
  3
AutoCAD 2000
 90
        0
280
     0
281
     1
  0
CLASS
  1
XRECORD
  2
AcDbXrecord
  3
AutoCAD 2000
 90
        0
280
     0
281
     0
  0
ENDSEC
  0
SECTION
  2
TABLES
  0
TABLE
  2
VPORT
  5
8
330
0
100
AcDbSymbolTable
 70
     2
  0
VPORT
  5
4A23
330
8
100
AcDbSymbolTableRecord
100
AcDbViewportTableRecord
  2
*ACTIVE
 70
     0
 10
0.0
 20
0.0
 11
1.0
 21
1.0
 12
-687.5594471822751
 22
375.1926778468546
 13
0.0
 23
0.0
 14
1.0
 24
1.0
 15
100.0
 25
100.0
 16
0.0
 26
0.0
 36
1.0
 17
0.0
 27
0.0
 37
0.0
 40
1908.463236298755
 41
1.674961119751166
 42
50.0
 43
0.0
 44
0.0
 50
0.0
 51
0.0
 71
     0
 72
   100
 73
     1
 74
     1
 75
     0
 76
     0
 77
     0
 78
     1
  0
ENDTAB
  0
TABLE
  2
LTYPE
  5
5
330
0
100
AcDbSymbolTable
 70
     1
  0
LTYPE
  5
14
330
5
100
AcDbSymbolTableRecord
100
AcDbLinetypeTableRecord
  2
BYBLOCK
 70
     0
  3

 72
    65
 73
     0
 40
0.0
  0
LTYPE
  5
15
330
5
100
AcDbSymbolTableRecord
100
AcDbLinetypeTableRecord
  2
BYLAYER
 70
     0
  3

 72
    65
 73
     0
 40
0.0
  0
LTYPE
  5
16
330
5
100
AcDbSymbolTableRecord
100
AcDbLinetypeTableRecord
  2
CONTINUOUS
 70
     0
  3
Solid line
 72
    65
 73
     0
 40
0.0
  0
ENDTAB
  0
TABLE
  2
LAYER
  5
2
330
0
100
AcDbSymbolTable
 70
     7
  0
LAYER
  5
F
330
2
100
AcDbSymbolTableRecord
100
AcDbLayerTableRecord
  2
0
 70
     0
 62
     7
  6
CONTINUOUS
  0
LAYER
  5
7D
330
2
100
AcDbSymbolTableRecord
100
AcDbLayerTableRecord
  2
PEN50
 70
     0
 62
     7
  6
CONTINUOUS
  0
LAYER
  5
7E
330
2
100
AcDbSymbolTableRecord
100
AcDbLayerTableRecord
  2
PEN35
 70
     0
 62
     2
  6
CONTINUOUS
  0
LAYER
  5
80
330
2
100
AcDbSymbolTableRecord
100
AcDbLayerTableRecord
  2
MAATLIJN
 70
     0
 62
     3
  6
CONTINUOUS
  0
LAYER
  5
C3
330
2
100
AcDbSymbolTableRecord
100
AcDbLayerTableRecord
  2
KADER
 70
     0
 62
     5
  6
CONTINUOUS
  0
LAYER
  5
CB
330
2
100
AcDbSymbolTableRecord
100
AcDbLayerTableRecord
  2
VIEWPORT
 70
     0
 62
     7
  6
CONTINUOUS
  0
LAYER
  5
1517
330
2
100
AcDbSymbolTableRecord
100
AcDbLayerTableRecord
  2
ONDERHOEK
 70
     0
 62
     7
  6
CONTINUOUS
  0
ENDTAB
  0
TABLE
  2
STYLE
  5
3
330
0
100
AcDbSymbolTable
 70
     2
  0
STYLE
  5
10
330
3
100
AcDbSymbolTableRecord
100
AcDbTextStyleTableRecord
  2
STANDARD
 70
     0
 40
3.5
 41
1.0
 50
0.0
 71
     0
 42
2.5
  3
isocp.shx
  4

  0
STYLE
  5
E7
330
3
100
AcDbSymbolTableRecord
100
AcDbTextStyleTableRecord
  2
ISO35
 70
     0
 40
35.0
 41
0.85
 50
0.0
 71
     0
 42
2.5
  3
romans.shx
  4

  0
ENDTAB
  0
TABLE
  2
VIEW
  5
6
330
0
100
AcDbSymbolTable
 70
     0
  0
ENDTAB
  0
TABLE
  2
UCS
  5
7
330
0
100
AcDbSymbolTable
 70
     0
  0
ENDTAB
  0
TABLE
  2
APPID
  5
9
330
0
100
AcDbSymbolTable
 70
     1
  0
APPID
  5
11
330
9
100
AcDbSymbolTableRecord
100
AcDbRegAppTableRecord
  2
ACAD
 70
     0
  0
ENDTAB
  0
TABLE
  2
DIMSTYLE
  5
A
330
0
100
AcDbSymbolTable
 70
     1
  0
DIMSTYLE
105
25
330
A
100
AcDbSymbolTableRecord
100
AcDbDimStyleTableRecord
  2
ISO-35
 70
     0
  3

  4

  5

  6

  7

 40
10.0
 41
3.5
 42
0.875
 43
5.25
 44
1.75
 45
0.0
 46
0.0
 47
0.0
 48
0.0
140
3.5
141
0.0
142
0.0
143
0.0394
144
0.1
145
0.0
146
1.0
147
2.0
 71
     0
 72
     0
 73
     0
 74
     0
 75
     0
 76
     0
 77
     1
 78
     8
170
     0
171
     4
172
     1
173
     0
174
     0
175
     0
176
   256
177
   256
178
     2
270
     2
271
     2
272
     2
273
     8
274
     4
340
E7
275
     0
280
     0
281
     0
282
     0
283
     1
284
     8
285
     0
286
     0
287
     3
288
     0
  0
ENDTAB
  0
TABLE
  2
BLOCK_RECORD
  5
1
330
0
100
AcDbSymbolTable
 70
     0
  0
BLOCK_RECORD
  5
1A
102
{ACAD_XDICTIONARY
360
4859
102
}
330
1
100
AcDbSymbolTableRecord
100
AcDbBlockTableRecord
  2
*MODEL_SPACE
  0
BLOCK_RECORD
  5
17
102
{ACAD_XDICTIONARY
360
4857
102
}
330
1
100
AcDbSymbolTableRecord
100
AcDbBlockTableRecord
  2
*PAPER_SPACE
  0
ENDTAB
  0
ENDSEC
  0
SECTION
  2
BLOCKS
  0
BLOCK
  5
1B
330
1A
100
AcDbEntity
  8
0
100
AcDbBlockBegin
  2
*MODEL_SPACE
 70
     0
 10
0.0
 20
0.0
 30
0.0
  3
*MODEL_SPACE
  1

  0
ENDBLK
  5
1C
330
1A
100
AcDbEntity
  8
0
100
AcDbBlockEnd
  0
BLOCK
  5
18
330
17
100
AcDbEntity
 67
     1
  8
0
100
AcDbBlockBegin
  2
*PAPER_SPACE
 70
     0
 10
0.0
 20
0.0
 30
0.0
  3
*PAPER_SPACE
  1

  0
ENDBLK
  5
19
330
17
100
AcDbEntity
 67
     1
  8
0
100
AcDbBlockEnd
  0
ENDSEC
  0
SECTION
  2
ENTITIES
  0
MTEXT
  5
265D
330
1A
100
AcDbEntity
  8
PEN35
 62
     2
100
AcDbMText
 10
2274.533191374959
 20
168.6495033284136
 30
0.0
 40
17.5
 41
0.0
 71
     6
 72
     1
  1
\A1;
  7
ISO35
1001
ACAD
1000
MTEXTBEGIN
1070
    73
1070
     1
1070
    44
1040
1.0
1070
    74
1070
     0
1000
MTEXTEND
  0
MTEXT
  5
267F
330
1A
100
AcDbEntity
  8
PEN35
 62
     2
100
AcDbMText
 10
3153.085647021145
 20
-107.262365421588
 30
0.0
 40
17.5
 41
0.0
 71
     4
 72
     1
  1
\A1;
  7
ISO35
1001
ACAD
1000
MTEXTBEGIN
1070
    73
1070
     1
1070
    44
1040
1.0
1070
    74
1070
     0
1000
MTEXTEND
  0
LINE
  5
2E8B
330
1A
100
AcDbEntity
  8
PEN50
100
AcDbLine
 10
-236.387878942931
 20
-550.1178375988924
 30
0.0
 11
-1031.027635958856
 21
-541.4537326880037
 31
0.0
  0
LINE
  5
2E8D
330
1A
100
AcDbEntity
  8
PEN50
100
AcDbLine
 10
26.11212105706909
 20
-85.11783759889249
 30
0.0
 11
-1402.774537738994
 21
-85.11783759889249
 31
0.0
  0
LINE
  5
2E8E
330
1A
100
AcDbEntity
  8
PEN50
100
AcDbLine
 10
36.11212105706909
 20
-120.1178375988924
 30
0.0
 11
-1412.774537738994
 21
-120.1178375988924
 31
0.0
  0
LINE
  5
2E8F
330
1A
100
AcDbEntity
  8
PEN50
100
AcDbLine
 10
-1217.475983740122
 20
-120.1178375988924
 30
0.0
 11
-1074.554242283804
 21
-515.0962284051965
 31
0.0
  0
ARC
  5
2E92
330
1A
100
AcDbEntity
  8
PEN50
100
AcDbCircle
 10
-1322.854423031385
 20
-60.11783759889249
 30
0.0
 40
25.0
100
AcDbArc
 50
270.0
 51
0.0
  0
ARC
  5
2E93
330
1A
100
AcDbEntity
  8
PEN50
100
AcDbCircle
 10
-1402.774537738994
 20
-95.11783759889249
 30
0.0
 40
10.0
100
AcDbArc
 50
90.0
 51
180.0
  0
LINE
  5
2E94
330
1A
100
AcDbEntity
  8
PEN50
100
AcDbLine
 10
-1412.774537738994
 20
-120.1178375988924
 30
0.0
 11
-1412.774537738994
 21
-95.11783759889249
 31
0.0
  0
LINE
  5
2E95
330
1A
100
AcDbEntity
  8
PEN50
100
AcDbLine
 10
-1265.078347187351
 20
-5.350414656908924
 30
0.0
 11
-956.3946630551399
 21
-85.11783759889249
 31
0.0
  0
LINE
  5
2E96
330
1A
100
AcDbEntity
  8
PEN50
100
AcDbLine
 10
-1297.854423031385
 20
-60.11783759889249
 30
0.0
 11
-1285.65725131396
 21
-15.11783759889249
 31
0.0
  0
LINE
  5
2E97
330
1A
100
AcDbEntity
  8
PEN50
100
AcDbLine
 10
-1267.882884017448
 20
-5.117837598892492
 30
0.0
 11
-1275.65725131396
 21
-5.117837598892492
 31
0.0
  0
ARC
  5
2E98
330
1A
100
AcDbEntity
  8
PEN50
100
AcDbCircle
 10
-1275.65725131396
 20
-15.11783759889249
 30
0.0
 40
10.0
100
AcDbArc
 50
90.0
 51
180.0
  0
ARC
  5
2E99
330
1A
100
AcDbEntity
  8
PEN50
100
AcDbCircle
 10
-1267.380277813988
 20
-16.08272757021881
 30
0.0
 40
10.97640310297728
100
AcDbArc
 50
77.89427288022134
 51
92.62447421271984
  0
LINE
  5
2E9A
330
1A
100
AcDbEntity
  8
PEN50
100
AcDbLine
 10
-40.76276557819006
 20
-120.1178375988924
 30
0.0
 11
-73.52575052255537
 21
-504.3656862782603
 31
0.0
  0
LINE
  5
2E9C
330
1A
100
AcDbEntity
  8
PEN50
100
AcDbLine
 10
-545.2838312143576
 20
-502.5147139115182
 30
0.0
 11
-576.2301249875863
 21
-249.8750386928739
 31
0.0
  0
LINE
  5
2EA0
330
1A
100
AcDbEntity
  8
PEN50
100
AcDbLine
 10
-123.3449815643648
 20
-550.1178375988923
 30
0.0
 11
-236.3878789429309
 21
-550.1178375988924
 31
0.0
  0
LINE
  5
2EA1
330
1A
100
AcDbEntity
  8
PEN50
100
AcDbLine
 10
-231.3878789429309
 20
-555.1178375988924
 30
0.0
 11
-156.3878789429309
 21
-555.1178375988924
 31
0.0
  0
LINE
  5
2EA3
330
1A
100
AcDbEntity
  8
PEN50
100
AcDbLine
 10
-231.3878789429309
 20
-555.1178375988924
 30
0.0
 11
-236.3878789429309
 21
-550.1178375988924
 31
0.0
  0
LINE
  5
2EA4
330
1A
100
AcDbEntity
  8
PEN50
100
AcDbLine
 10
-156.3878789429309
 20
-555.1178375988924
 30
0.0
 11
-151.3878789429309
 21
-550.1178375988924
 31
0.0
  0
ARC
  5
2EA6
330
1A
100
AcDbEntity
  8
PEN50
100
AcDbCircle
 10
26.11212105706909
 20
-95.11783759889249
 30
0.0
 40
10.0
100
AcDbArc
 50
0.0
 51
90.0
  0
LINE
  5
2EA7
330
1A
100
AcDbEntity
  8
PEN50
100
AcDbLine
 10
36.11212105706909
 20
-120.1178375988924
 30
0.0
 11
36.11212105706909
 21
-95.11783759889249
 31
0.0
  0
LINE
  5
2EA8
330
1A
100
AcDbEntity
  8
PEN50
100
AcDbLine
 10
-905.6728576594938
 20
1177.683938138069
 30
0.0
 11
-554.5831856925299
 21
1177.375676704785
 31
0.0
  0
LINE
  5
2EAB
330
1A
100
AcDbEntity
  8
PEN50
100
AcDbLine
 10
-279.0586939287873
 20
689.3645398538865
 30
0.0
 11
-901.0487613762874
 21
697.7286361760597
 31
0.0
  0
LINE
  5
2EAC
330
1A
100
AcDbEntity
  8
PEN50
100
AcDbLine
 10
-271.5392485136599
 20
662.8313630609036
 30
0.0
 11
-938.886857975862
 21
672.7038121827018
 31
0.0
  0
LINE
  5
2EAD
330
1A
100
AcDbEntity
  8
PEN50
100
AcDbLine
 10
37.22546226100553
 20
612.5435413074314
 30
0.0
 11
-1362.774537738994
 21
612.5435413074314
 31
0.0
  0
LINE
  5
2EB2
330
1A
100
AcDbEntity
  8
PEN50
100
AcDbLine
 10
-279.0586939287873
 20
1235.722542760976
 30
0.0
 11
-951.0487613762874
 21
1225.413910245463
 31
0.0
  0
LINE
  5
2EB3
330
1A
100
AcDbEntity
  8
PEN50
100
AcDbLine
 10
-244.6330810638755
 20
1262.531299576059
 30
0.0
 11
-1001.211346869963
 21
1252.559655695256
 31
0.0
  0
LINE
  5
2EB4
330
1A
100
AcDbEntity
  8
PEN50
100
AcDbLine
 10
-1362.774537738994
 20
1312.543541307431
 30
0.0
 11
37.22546226100553
 21
1312.543541307431
 31
0.0
  0
LINE
  5
2EB8
330
1A
100
AcDbEntity
  8
PEN50
100
AcDbLine
 10
-1362.774537738994
 20
612.5435413074314
 30
0.0
 11
-1362.774537738994
 21
1312.543541307431
 31
0.0
  0
LINE
  5
2EC3
330
1A
100
AcDbEntity
  8
PEN50
100
AcDbLine
 10
37.22546226100553
 20
1312.543541307431
 30
0.0
 11
37.22546226100553
 21
612.5435413074314
 31
0.0
  0
ARC
  5
2EC5
330
1A
100
AcDbEntity
  8
PEN50
100
AcDbCircle
 10
-243.2147078201132
 20
1035.148136218223
 30
0.0
 40
203.7520156958855
100
AcDbArc
 50
1.981587573438735
 51
100.1321812937828
  0
LINE
  5
2EC8
330
1A
100
AcDbEntity
  8
PEN50
100
AcDbLine
 10
-258.5883383305008
 20
707.27778623613
 30
0.0
 11
-525.2678191961658
 21
712.1125117851216
 31
0.0
  0
ARC
  5
2ED0
330
1A
100
AcDbEntity
  8
PEN50
100
AcDbCircle
 10
-256.7593741059524
 20
905.4263978044046
 30
0.0
 40
217.2095442783097
100
AcDbArc
 50
264.1074782568778
 51
358.9757211599977
  0
CIRCLE
  5
2ED3
330
1A
100
AcDbEntity
  8
PEN50
100
AcDbCircle
 10
-192.7745377389944
 20
962.5435413074315
 30
0.0
 40
26.0
  0
LINE
  5
2ED4
330
1A
100
AcDbEntity
  8
PEN50
100
AcDbLine
 10
-76.39466305514179
 20
905.9144184863784
 30
0.0
 11
-76.39466305514179
 21
1037.822664128484
 31
0.0
  0
LINE
  5
2ED5
330
1A
100
AcDbEntity
  8
PEN50
100
AcDbLine
 10
-39.58453773899441
 20
901.5435413074314
 30
0.0
 11
-39.58453773899441
 21
1042.193541307431
 31
0.0
  0
LINE
  5
2ED6
330
1A
100
AcDbEntity
  8
PEN50
100
AcDbLine
 10
-12.77453773899446
 20
905.3194532719306
 30
0.0
 11
-12.77453773899446
 21
1042.193541307431
 31
0.0
  0
LWPOLYLINE
  5
2ED7
330
1A
100
AcDbEntity
  8
PEN50
100
AcDbPolyline
 90
       16
 70
     1
 43
0.0
 10
-48.92853079389806
 20
977.3388244603008
 42
0.2626931627415016
 10
-50.01503182752685
 20
976.7256799860524
 42
0.0746755365336956
 10
-51.60045016224239
 20
972.9139642413091
 42
0.0354790548727563
 10
-52.38594653863401
 20
968.4495380920198
 42
0.0258144101264901
 10
-52.70719540217806
 20
962.2314066890142
 42
0.0258144101264835
 10
-52.38594653863401
 20
956.013275286007
 42
0.0354790548727258
 10
-51.60045016224239
 20
951.5488491367195
 42
0.07467553653367
 10
-50.01503182752708
 20
947.7371333919762
 42
0.2626931627414538
 10
-48.92853079389806
 20
947.1239889177278
 42
0.2626931627414166
 10
-47.84202976026927
 20
947.737133391976
 42
0.0746755365336854
 10
-46.25661142555372
 20
951.5488491367195
 42
0.0354790548727354
 10
-45.47111504916188
 20
956.013275286009
 42
0.0258144101264728
 10
-45.14986618561806
 20
962.2314066890142
 42
0.0258144101264836
 10
-45.47111504916211
 20
968.4495380920214
 42
0.0354790548727262
 10
-46.25661142555372
 20
972.9139642413091
 42
0.0746755365336759
 10
-47.84202976026882
 20
976.7256799860517
 42
0.2626931627416605
  0
LINE
  5
2ED8
330
1A
100
AcDbEntity
  8
PEN50
100
AcDbLine
 10
-258.5883383305008
 20
1217.809296378733
 30
0.0
 11
-525.2678191961658
 21
1212.974570829741
 31
0.0
  0
ARC
  5
2EDA
330
1A
100
AcDbEntity
  8
PEN50
100
AcDbCircle
 10
-518.8413373796338
 20
1187.54001114936
 30
0.0
 40
26.23388066362046
100
AcDbArc
 50
104.1799889023089
 51
179.9922900023189
  0
ARC
  5
2EDE
330
1A
100
AcDbEntity
  8
PEN50
100
AcDbCircle
 10
-555.0752178057366
 20
1187.543541307431
 30
0.0
 40
10.0
100
AcDbArc
 50
270.0
 51
0.0
  0
ARC
  5
3106
330
1A
100
AcDbEntity
  8
PEN50
100
AcDbCircle
 10
-957.538219180628
 20
958.5875384590316
 30
0.0
 40
266.9052748510328
100
AcDbArc
 50
88.60678966610208
 51
282.2188347814109
  0
ARC
  5
311B
330
1A
100
AcDbEntity
  8
PEN50
100
AcDbCircle
 10
-969.9594477018365
 20
959.9543020305929
 30
0.0
 40
292.6721360779513
100
AcDbArc
 50
91.22401363183458
 51
281.0454966234159
  0
ARC
  5
311C
330
1A
100
AcDbEntity
  8
PEN50
100
AcDbCircle
 10
-994.9594477018367
 20
959.9543020305929
 30
0.0
 40
292.6721360779514
100
AcDbArc
 50
91.22401363183469
 51
281.0454966234159
  0
LINE
  5
316A
330
1A
100
AcDbEntity
  8
PEN50
100
AcDbLine
 10
-555.0752178057366
 20
1177.543541307431
 30
0.0
 11
-881.4995605882177
 21
1177.543541307431
 31
0.0
  0
LINE
  5
317C
330
1A
100
AcDbEntity
  8
PEN50
100
AcDbLine
 10
-985.6416908058205
 20
732.5435413074319
 30
0.0
 11
-592.7745377389944
 21
732.5435413074319
 31
0.0
  0
ARC
  5
317E
330
1A
100
AcDbEntity
  8
PEN50
100
AcDbCircle
 10
-592.7745377389944
 20
722.5435413074315
 30
0.0
 40
10.0
100
AcDbArc
 50
0.0
 51
90.00000000000003
  0
ARC
  5
317F
330
1A
100
AcDbEntity
  8
PEN50
100
AcDbCircle
 10
-592.7745377389944
 20
722.5435413074315
 30
0.0
 40
10.0
100
AcDbArc
 50
0.0
 51
90.00000000000003
  0
ARC
  5
3183
330
1A
100
AcDbEntity
  8
PEN50
100
AcDbCircle
 10
-906.8701617892422
 20
1000.765959340914
 30
0.0
 40
296.0340769102714
100
AcDbArc
 50
236.4856830425156
 51
273.4136197271439
  0
ARC
  5
3184
330
1A
100
AcDbEntity
  8
PEN50
100
AcDbCircle
 10
-1068.969483017536
 20
755.419668470261
 30
0.0
 40
2.0
100
AcDbArc
 50
56.75575964427942
 51
227.3703276009968
  0
ARC
  5
3185
330
1A
100
AcDbEntity
  8
PEN50
100
AcDbCircle
 10
-985.6416908058205
 20
882.543541307432
 30
0.0
 40
150.0
100
AcDbArc
 50
236.7557596442813
 51
270.0
  0
ARC
  5
3368
330
1A
100
AcDbEntity
  8
PEN50
100
AcDbCircle
 10
-256.3946630551417
 20
1037.822664128484
 30
0.0
 40
180.0
100
AcDbArc
 50
0.0
 51
90.69828581343893
  0
ARC
  5
3379
330
1A
100
AcDbEntity
  8
PEN50
100
AcDbCircle
 10
-241.6063928028526
 20
1035.369552471037
 30
0.0
 40
228.852154598954
100
AcDbArc
 50
0.7631438058737496
 51
97.51556961527718
  0
ARC
  5
337A
330
1A
100
AcDbEntity
  8
PEN50
100
AcDbCircle
 10
-255.7745377389944
 20
905.3194532719306
 30
0.0
 40
243.0
100
AcDbArc
 50
266.2803037113904
 51
0.0
  0
ARC
  5
337B
330
1A
100
AcDbEntity
  8
PEN50
100
AcDbCircle
 10
-272.8754957197921
 20
903.2565076029964
 30
0.0
 40
196.4988093980681
100
AcDbArc
 50
274.1695763893366
 51
0.775026172325513
  0
ARC
  5
3B6B
330
1A
100
AcDbEntity
  8
MAATLIJN
100
AcDbCircle
 10
-586.155937565677
 20
-251.0908695464947
 30
0.0
 40
10.0
100
AcDbArc
 50
6.983475743141879
 51
95.17832533659403
  0
LINE
  5
3B79
330
1A
100
AcDbEntity
  8
PEN50
100
AcDbLine
 10
-1081.599355423686
 20
-282.1489729036586
 30
0.0
 11
-587.0584959295702
 21
-241.1316834151
 31
0.0
  0
CIRCLE
  5
3C17
330
1A
100
AcDbEntity
  8
ONDERHOEK
100
AcDbCircle
 10
-192.7745377389944
 20
962.5435413074315
 30
0.0
 40
42.5
  0
ARC
  5
3E19
330
1A
100
AcDbEntity
  8
PEN50
100
AcDbCircle
 10
-778.9010460599803
 20
955.1984850267597
 30
0.0
 40
276.252947896208
100
AcDbArc
 50
136.5612172114852
 51
178.4473021055165
  0
ARC
  5
3E1A
330
1A
100
AcDbEntity
  8
PEN50
100
AcDbCircle
 10
-905.672857659494
 20
1077.683938138069
 30
0.0
 40
100.0
100
AcDbArc
 50
89.99999999999992
 51
137.5766579881173
  0
ARC
  5
3F72
330
1A
100
AcDbEntity
  8
PEN50
100
AcDbCircle
 10
-123.3449815643648
 20
-500.1178375988923
 30
0.0
 40
50.0
100
AcDbArc
 50
270.0
 51
355.1264493118823
  0
ARC
  5
3F7C
330
1A
100
AcDbEntity
  8
PEN50
100
AcDbCircle
 10
-1030.49557399836
 20
-491.4565636674462
 30
0.0
 40
50.0
100
AcDbArc
 50
208.2157686485781
 51
269.3902903972697
  0
ARC
  5
3F86
330
1A
100
AcDbEntity
  8
PEN50
100
AcDbCircle
 10
-495.6547683239041
 20
-496.4355596434134
 30
0.0
 40
50.0
100
AcDbArc
 50
186.9834757431418
 51
269.3902903972697
  0
ARC
  5
4210
330
1A
100
AcDbEntity
  8
PEN50
100
AcDbCircle
 10
-555.0752178057366
 20
737.5435413074316
 30
0.0
 40
9.999999999999886
100
AcDbArc
 50
359.9999999999993
 51
90.0
  0
ARC
  5
4211
330
1A
100
AcDbEntity
  8
PEN50
100
AcDbCircle
 10
-518.8413373796341
 20
737.5470714655029
 30
0.0
 40
26.23388066362051
100
AcDbArc
 50
180.0077099976818
 51
255.8200110976915
  0
LINE
  5
4212
330
1A
100
AcDbEntity
  8
PEN50
100
AcDbLine
 10
-855.6728576594938
 20
747.6839381380685
 30
0.0
 11
-554.2746803623042
 21
747.6839381380686
 31
0.0
  0
ARC
  5
4213
330
1A
100
AcDbEntity
  8
PEN50
100
AcDbCircle
 10
-763.1862676876708
 20
994.0072436576418
 30
0.0
 40
293.5423012965615
100
AcDbArc
 50
186.1255794358428
 51
234.1030901370539
  0
ARC
  5
4214
330
1A
100
AcDbEntity
  8
PEN50
100
AcDbCircle
 10
-860.7874063484457
 20
1075.754874311804
 30
0.0
 40
328.110801056904
100
AcDbArc
 50
256.8741118440896
 51
270.893155365976
  0
ARC
  5
4215
330
1A
100
AcDbEntity
  8
PEN50
100
AcDbCircle
 10
-562.7745377389945
 20
720.3130942345382
 30
0.0
 40
20.0
100
AcDbArc
 50
180.0
 51
269.4482291314028
  0
LINE
  5
4216
330
1A
100
AcDbEntity
  8
PEN50
100
AcDbLine
 10
-582.7745377389944
 20
722.5435413074319
 30
0.0
 11
-582.7745377389944
 21
720.3130942345378
 31
0.0
  0
ARC
  5
4217
330
1A
100
AcDbEntity
  8
PEN50
100
AcDbCircle
 10
-592.7745377389944
 20
722.5435413074319
 30
0.0
 40
10.0
100
AcDbArc
 50
0.0
 51
90.00000000000003
  0
ARC
  5
4218
330
1A
100
AcDbEntity
  8
PEN50
100
AcDbCircle
 10
-592.7745377389944
 20
722.5435413074319
 30
0.0
 40
10.0
100
AcDbArc
 50
0.0
 51
90.00000000000003
  0
LINE
  5
4219
330
1A
100
AcDbEntity
  8
PEN50
100
AcDbLine
 10
-562.9671391294234
 20
700.3140216384304
 30
0.0
 11
-889.2432086041342
 21
705.2571350843004
 31
0.0
  0
LINE
  5
43B1
330
1A
100
AcDbEntity
  8
PEN50
100
AcDbLine
 10
-242.0215942164343
 20
-550.0601244196319
 30
0.0
 11
-242.0215942164342
 21
-570.0601244196319
 31
0.0
  0
LINE
  5
43B2
330
1A
100
AcDbEntity
  8
PEN50
100
AcDbLine
 10
-1031.02763595853
 20
-541.4537326880072
 30
0.0
 11
-1031.02763595853
 21
-570.0601244196318
 31
0.0
  0
LINE
  5
43B3
330
1A
100
AcDbEntity
  8
PEN50
100
AcDbLine
 10
-242.0215942164343
 20
-570.0601244196319
 30
0.0
 11
-1031.02763595853
 21
-570.0601244196318
 31
0.0
  0
ARC
  5
4730
330
1A
100
AcDbEntity
  8
PEN50
100
AcDbCircle
 10
-1068.969483017536
 20
1169.667414144601
 30
0.0
 40
2.0
100
AcDbArc
 50
132.6296723990031
 51
303.2442403557205
  0
LINE
  5
4731
330
1A
100
AcDbEntity
  8
PEN50
100
AcDbLine
 10
-985.6416908058205
 20
1192.543541307431
 30
0.0
 11
-592.7745377389944
 21
1192.543541307431
 31
0.0
  0
ARC
  5
4732
330
1A
100
AcDbEntity
  8
PEN50
100
AcDbCircle
 10
-906.8701617892418
 20
924.3211232739477
 30
0.0
 40
296.0340769102719
100
AcDbArc
 50
86.58638027285608
 51
123.5143169574843
  0
ARC
  5
4733
330
1A
100
AcDbEntity
  8
PEN50
100
AcDbCircle
 10
-985.6416908058205
 20
1042.543541307431
 30
0.0
 40
150.0
100
AcDbArc
 50
90.00000000000003
 51
123.2442403557187
  0
LINE
  5
4734
330
1A
100
AcDbEntity
  8
PEN50
100
AcDbLine
 10
-562.9671391294234
 20
1224.773060976432
 30
0.0
 11
-889.2432086041342
 21
1219.829947530562
 31
0.0
  0
LINE
  5
4735
330
1A
100
AcDbEntity
  8
PEN50
100
AcDbLine
 10
-582.7745377389944
 20
1202.543541307431
 30
0.0
 11
-582.7745377389944
 21
1204.773988380325
 31
0.0
  0
ARC
  5
4736
330
1A
100
AcDbEntity
  8
PEN50
100
AcDbCircle
 10
-562.7745377389945
 20
1204.773988380324
 30
0.0
 40
20.0
100
AcDbArc
 50
90.55177086859718
 51
180.0
  0
ARC
  5
4737
330
1A
100
AcDbEntity
  8
PEN50
100
AcDbCircle
 10
-592.7745377389944
 20
1202.543541307431
 30
0.0
 40
10.0
100
AcDbArc
 50
270.0
 51
0.0
  0
VIEWPORT
  5
22
330
17
100
AcDbEntity
 67
     1
  8
0
100
AcDbViewport
 10
230.7156887262401
 20
148.5000006449408
 30
0.0
 40
468.1291832035128
 41
279.4865968429514
 68
     1
 69
     1
1001
ACAD
1000
MVIEW
1002
{
1070
    16
1010
0.0
1020
0.0
1030
0.0
1010
0.0
1020
0.0
1030
1.0
1040
0.0
1040
279.4865968429514
1040
230.7156887262401
1040
148.5000006449408
1040
50.0
1040
0.0
1040
0.0
1070
     0
1070
     0
1070
     1
1070
     1
1070
     0
1070
     0
1070
     0
1070
     0
1040
0.0
1040
0.0
1040
0.0
1040
1.0
1040
1.0
1040
10.0
1040
10.0
1070
     0
1002
{
1002
}
1002
}
  0
VIEWPORT
  5
DC
330
17
100
AcDbEntity
 67
     1
  8
VIEWPORT
100
AcDbViewport
 10
215.0
 20
148.5
 30
0.0
 40
390.0
 41
277.0
 68
     2
 69
     2
1001
ACAD
1000
MVIEW
1002
{
1070
    16
1010
0.0
1020
0.0
1030
0.0
1010
0.0
1020
0.0
1030
1.0
1040
0.0
1040
2735.465157744588
1040
325.8289358640132
1040
286.8018048428703
1040
50.0
1040
0.0
1040
0.0
1070
     0
1070
   100
1070
     1
1070
     1
1070
     0
1070
     0
1070
     0
1070
     0
1040
0.0
1040
0.0
1040
0.0
1040
1.0
1040
1.0
1040
10.0
1040
10.0
1070
     0
1002
{
1002
}
1002
}
  0
LWPOLYLINE
  5
DD
330
17
100
AcDbEntity
 67
     1
  8
KADER
100
AcDbPolyline
 90
        4
 70
     1
 43
0.0
 10
20.0
 20
10.0
 10
410.0
 20
10.0
 10
410.0
 20
287.0
 10
20.0
 20
287.0
  0
ENDSEC
  0
SECTION
  2
OBJECTS
  0
DICTIONARY
  5
C
330
0
100
AcDbDictionary
  3
ACAD_GROUP
350
D
  3
ACAD_LAYOUT
350
482F
  3
ACAD_MLINESTYLE
350
E
  3
ACAD_PLOTSETTINGS
350
4830
  3
ACAD_PLOTSTYLENAME
350
482D
  3
ACDBHEADERROUNDTRIPXREC
350
4A24
  3
ACDBVARIABLEDICTIONARY
350
5D
  0
DICTIONARY
  5
4859
330
1A
100
AcDbDictionary
280
     1
  3
ACAD_LAYOUTSELFREF
360
4A45
  0
DICTIONARY
  5
4857
330
17
100
AcDbDictionary
280
     1
  3
ACAD_LAYOUTSELFREF
360
4A44
  0
DICTIONARY
  5
D
102
{ACAD_REACTORS
330
C
102
}
330
C
100
AcDbDictionary
  0
DICTIONARY
  5
482F
102
{ACAD_REACTORS
330
C
102
}
330
C
100
AcDbDictionary
  0
DICTIONARY
  5
E
102
{ACAD_REACTORS
330
C
102
}
330
C
100
AcDbDictionary
  3
STANDARD
350
13
  0
DICTIONARY
  5
4830
102
{ACAD_REACTORS
330
C
102
}
330
C
100
AcDbDictionary
  0
ACDBDICTIONARYWDFLT
  5
482D
102
{ACAD_REACTORS
330
C
102
}
330
C
100
AcDbDictionary
281
     1
  3
Normal
350
482E
100
AcDbDictionaryWithDefault
340
482E
  0
DICTIONARY
  5
4A24
102
{ACAD_REACTORS
330
C
102
}
330
C
100
AcDbDictionary
  3
CEPSNTYPE
350
4A2E
  3
FINGERPRINTGUID
350
4A2F
  3
HYPERLINKBASE
350
4A27
  3
INSUNITS
350
4A2D
  3
LAYOUTDICT
350
4A29
  3
LWETCUNION
350
4A2C
  3
PLOTSETDICT
350
4A2A
  3
PLOTSTYLNAMDICT
350
4A2B
  3
PSVPSCALE
350
4A31
  3
PUCSBASE
350
4A34
  3
PUCSORGBACK
350
4A3A
  3
PUCSORGBOTTOM
350
4A36
  3
PUCSORGFRONT
350
4A39
  3
PUCSORGLEFT
350
4A37
  3
PUCSORGRIGHT
350
4A38
  3
PUCSORGTOP
350
4A35
  3
PUCSORTHOREF
350
4A32
  3
PUCSORTHOVIEW
350
4A33
  3
STYLESHEET
350
4A28
  3
TSTACKALIGN
350
4A25
  3
TSTACKSIZE
350
4A26
  3
UCSBASE
350
4A3D
  3
UCSORGBACK
350
4A43
  3
UCSORGBOTTOM
350
4A3F
  3
UCSORGFRONT
350
4A42
  3
UCSORGLEFT
350
4A40
  3
UCSORGRIGHT
350
4A41
  3
UCSORGTOP
350
4A3E
  3
UCSORTHOREF
350
4A3B
  3
UCSORTHOVIEW
350
4A3C
  3
VERSIONGUID
350
4A30
  0
DICTIONARY
  5
5D
102
{ACAD_REACTORS
330
C
102
}
330
C
100
AcDbDictionary
  3
DIMADEC
350
5E
  3
DIMASSOC
350
4875
  3
SORTENTS
350
3CBE
  0
XRECORD
  5
4A45
102
{ACAD_REACTORS
330
4859
102
}
330
4859
100
AcDbXrecord
340
1A
  0
XRECORD
  5
4A44
102
{ACAD_REACTORS
330
4857
102
}
330
4857
100
AcDbXrecord
340
17
  0
MLINESTYLE
  5
13
102
{ACAD_REACTORS
330
E
102
}
330
E
100
AcDbMlineStyle
  2
STANDARD
 70
     0
  3

 62
     0
 51
90.0
 52
90.0
 71
     2
 49
0.5
 62
   256
  6
BYLAYER
 49
-0.5
 62
   256
  6
BYLAYER
  0
ACDBPLACEHOLDER
  5
482E
102
{ACAD_REACTORS
330
482D
102
}
330
482D
100
AcDbPlaceHolder
280
     0
  0
XRECORD
  5
4A2E
102
{ACAD_REACTORS
330
4A24
102
}
330
4A24
100
AcDbXrecord
 90
        0
  0
XRECORD
  5
4A2F
102
{ACAD_REACTORS
330
4A24
102
}
330
4A24
100
AcDbXrecord
  1
{B0A27378-16FA-4395-BD9C-F2FDC686C24F}
  0
XRECORD
  5
4A27
102
{ACAD_REACTORS
330
4A24
102
}
330
4A24
100
AcDbXrecord
  1

  0
XRECORD
  5
4A2D
102
{ACAD_REACTORS
330
4A24
102
}
330
4A24
100
AcDbXrecord
 90
        0
  0
XRECORD
  5
4A29
102
{ACAD_REACTORS
330
4A24
102
}
330
4A24
100
AcDbXrecord
340
482F
  0
XRECORD
  5
4A2C
102
{ACAD_REACTORS
330
4A24
102
}
330
4A24
100
AcDbXrecord
 90
    14877
  0
XRECORD
  5
4A2A
102
{ACAD_REACTORS
330
4A24
102
}
330
4A24
100
AcDbXrecord
340
4830
  0
XRECORD
  5
4A2B
102
{ACAD_REACTORS
330
4A24
102
}
330
4A24
100
AcDbXrecord
340
482D
  0
XRECORD
  5
4A31
102
{ACAD_REACTORS
330
4A24
102
}
330
4A24
100
AcDbXrecord
 40
0.0
  0
XRECORD
  5
4A34
102
{ACAD_REACTORS
330
4A24
102
}
330
4A24
100
AcDbXrecord
340
0
  0
XRECORD
  5
4A3A
102
{ACAD_REACTORS
330
4A24
102
}
330
4A24
100
AcDbXrecord
 10
0.0
 20
0.0
 30
0.0
  0
XRECORD
  5
4A36
102
{ACAD_REACTORS
330
4A24
102
}
330
4A24
100
AcDbXrecord
 10
0.0
 20
0.0
 30
0.0
  0
XRECORD
  5
4A39
102
{ACAD_REACTORS
330
4A24
102
}
330
4A24
100
AcDbXrecord
 10
0.0
 20
0.0
 30
0.0
  0
XRECORD
  5
4A37
102
{ACAD_REACTORS
330
4A24
102
}
330
4A24
100
AcDbXrecord
 10
0.0
 20
0.0
 30
0.0
  0
XRECORD
  5
4A38
102
{ACAD_REACTORS
330
4A24
102
}
330
4A24
100
AcDbXrecord
 10
0.0
 20
0.0
 30
0.0
  0
XRECORD
  5
4A35
102
{ACAD_REACTORS
330
4A24
102
}
330
4A24
100
AcDbXrecord
 10
0.0
 20
0.0
 30
0.0
  0
XRECORD
  5
4A32
102
{ACAD_REACTORS
330
4A24
102
}
330
4A24
100
AcDbXrecord
340
0
  0
XRECORD
  5
4A33
102
{ACAD_REACTORS
330
4A24
102
}
330
4A24
100
AcDbXrecord
 70
     0
  0
XRECORD
  5
4A28
102
{ACAD_REACTORS
330
4A24
102
}
330
4A24
100
AcDbXrecord
  1

  0
XRECORD
  5
4A25
102
{ACAD_REACTORS
330
4A24
102
}
330
4A24
100
AcDbXrecord
 90
        1
  0
XRECORD
  5
4A26
102
{ACAD_REACTORS
330
4A24
102
}
330
4A24
100
AcDbXrecord
 90
       70
  0
XRECORD
  5
4A3D
102
{ACAD_REACTORS
330
4A24
102
}
330
4A24
100
AcDbXrecord
340
0
  0
XRECORD
  5
4A43
102
{ACAD_REACTORS
330
4A24
102
}
330
4A24
100
AcDbXrecord
 10
0.0
 20
0.0
 30
0.0
  0
XRECORD
  5
4A3F
102
{ACAD_REACTORS
330
4A24
102
}
330
4A24
100
AcDbXrecord
 10
0.0
 20
0.0
 30
0.0
  0
XRECORD
  5
4A42
102
{ACAD_REACTORS
330
4A24
102
}
330
4A24
100
AcDbXrecord
 10
0.0
 20
0.0
 30
0.0
  0
XRECORD
  5
4A40
102
{ACAD_REACTORS
330
4A24
102
}
330
4A24
100
AcDbXrecord
 10
0.0
 20
0.0
 30
0.0
  0
XRECORD
  5
4A41
102
{ACAD_REACTORS
330
4A24
102
}
330
4A24
100
AcDbXrecord
 10
0.0
 20
0.0
 30
0.0
  0
XRECORD
  5
4A3E
102
{ACAD_REACTORS
330
4A24
102
}
330
4A24
100
AcDbXrecord
 10
0.0
 20
0.0
 30
0.0
  0
XRECORD
  5
4A3B
102
{ACAD_REACTORS
330
4A24
102
}
330
4A24
100
AcDbXrecord
340
0
  0
XRECORD
  5
4A3C
102
{ACAD_REACTORS
330
4A24
102
}
330
4A24
100
AcDbXrecord
 70
     0
  0
XRECORD
  5
4A30
102
{ACAD_REACTORS
330
4A24
102
}
330
4A24
100
AcDbXrecord
  1
{BFD62813-B034-4835-891B-016CBE2AAEC7}
  0
DICTIONARYVAR
  5
5E
102
{ACAD_REACTORS
330
5D
102
}
330
5D
100
DictionaryVariables
280
     0
  1
0
  0
DICTIONARYVAR
  5
4875
102
{ACAD_REACTORS
330
5D
102
}
330
5D
100
DictionaryVariables
280
     0
  1
1
  0
DICTIONARYVAR
  5
3CBE
102
{ACAD_REACTORS
330
5D
102
}
330
5D
100
DictionaryVariables
280
     0
  1
96
  0
ENDSEC
  0
EOF
