  0
SECTION
  2
HEADER
  9
$ACADVER
  1
AC1014
  9
$ACADMAINTVER
 70
     9
  9
$DWGCODEPAGE
  3
ANSI_1250
  9
$INSBASE
 10
0.0
 20
0.0
 30
0.0
  9
$EXTMIN
 10
-1362.41882388509
 20
-674.8480816867528
 30
0.0
  9
$EXTMAX
 10
142.1944249064523
 20
1238.536752119881
 30
0.0
  9
$LIMMIN
 10
0.0
 20
0.0
  9
$LIMMAX
 10
420.0
 20
297.0
  9
$ORTHOMODE
 70
     1
  9
$REGENMODE
 70
     1
  9
$FILLMODE
 70
     1
  9
$QTEXTMODE
 70
     0
  9
$MIRRTEXT
 70
     1
  9
$DRAGMODE
 70
     2
  9
$LTSCALE
 40
1.0
  9
$OSMODE
 70
  3007
  9
$ATTMODE
 70
     1
  9
$TEXTSIZE
 40
2.5
  9
$TRACEWID
 40
1.0
  9
$TEXTSTYLE
  7
ISO35
  9
$CLAYER
  8
MAATLIJN
  9
$CELTYPE
  6
BYLAYER
  9
$CECOLOR
 62
   256
  9
$CELTSCALE
 40
1.0
  9
$DELOBJ
 70
     1
  9
$DISPSILH
 70
     0
  9
$DIMSCALE
 40
10.0
  9
$DIMASZ
 40
3.5
  9
$DIMEXO
 40
0.875
  9
$DIMDLI
 40
5.25
  9
$DIMRND
 40
0.0
  9
$DIMDLE
 40
0.0
  9
$DIMEXE
 40
1.75
  9
$DIMTP
 40
0.0
  9
$DIMTM
 40
0.0
  9
$DIMTXT
 40
3.5
  9
$DIMCEN
 40
0.0
  9
$DIMTSZ
 40
0.0
  9
$DIMTOL
 70
     0
  9
$DIMLIM
 70
     0
  9
$DIMTIH
 70
     0
  9
$DIMTOH
 70
     0
  9
$DIMSE1
 70
     0
  9
$DIMSE2
 70
     0
  9
$DIMTAD
 70
     1
  9
$DIMZIN
 70
     8
  9
$DIMBLK
  1

  9
$DIMASO
 70
     1
  9
$DIMSHO
 70
     1
  9
$DIMPOST
  1

  9
$DIMAPOST
  1

  9
$DIMALT
 70
     0
  9
$DIMALTD
 70
     4
  9
$DIMALTF
 40
0.0394
  9
$DIMLFAC
 40
0.1
  9
$DIMTOFL
 70
     1
  9
$DIMTVP
 40
0.0
  9
$DIMTIX
 70
     0
  9
$DIMSOXD
 70
     0
  9
$DIMSAH
 70
     0
  9
$DIMBLK1
  1

  9
$DIMBLK2
  1

  9
$DIMSTYLE
  2
ISO-35
  9
$DIMCLRD
 70
   256
  9
$DIMCLRE
 70
   256
  9
$DIMCLRT
 70
     2
  9
$DIMTFAC
 40
1.0
  9
$DIMGAP
 40
2.0
  9
$DIMJUST
 70
     0
  9
$DIMSD1
 70
     0
  9
$DIMSD2
 70
     0
  9
$DIMTOLJ
 70
     1
  9
$DIMTZIN
 70
     8
  9
$DIMALTZ
 70
     0
  9
$DIMALTTZ
 70
     0
  9
$DIMFIT
 70
     3
  9
$DIMUPT
 70
     0
  9
$DIMUNIT
 70
     2
  9
$DIMDEC
 70
     2
  9
$DIMTDEC
 70
     2
  9
$DIMALTU
 70
     8
  9
$DIMALTTD
 70
     4
  9
$DIMTXSTY
  7
ISO35
  9
$DIMAUNIT
 70
     0
  9
$LUNITS
 70
     2
  9
$LUPREC
 70
     2
  9
$SKETCHINC
 40
1.0
  9
$FILLETRAD
 40
50.0
  9
$AUNITS
 70
     0
  9
$AUPREC
 70
     0
  9
$MENU
  1
.
  9
$ELEVATION
 40
0.0
  9
$PELEVATION
 40
0.0
  9
$THICKNESS
 40
0.0
  9
$LIMCHECK
 70
     0
  9
$BLIPMODE
 70
     0
  9
$CHAMFERA
 40
10.0
  9
$CHAMFERB
 40
10.0
  9
$CHAMFERC
 40
20.0
  9
$CHAMFERD
 40
0.0
  9
$SKPOLY
 70
     1
  9
$TDCREATE
 40
2451204.590596956
  9
$TDUPDATE
 40
2453966.376851481
  9
$TDINDWG
 40
1.3317589699
  9
$TDUSRTIMER
 40
1.3317589699
  9
$USRTIMER
 70
     1
  9
$ANGBASE
 50
0.0
  9
$ANGDIR
 70
     0
  9
$PDMODE
 70
     0
  9
$PDSIZE
 40
0.0
  9
$PLINEWID
 40
0.0
  9
$COORDS
 70
     2
  9
$SPLFRAME
 70
     0
  9
$SPLINETYPE
 70
     6
  9
$SPLINESEGS
 70
     8
  9
$ATTDIA
 70
     0
  9
$ATTREQ
 70
     1
  9
$HANDLING
 70
 22529
  9
$HANDSEED
  5
4D9E
  9
$SURFTAB1
 70
     6
  9
$SURFTAB2
 70
     6
  9
$SURFTYPE
 70
     6
  9
$SURFU
 70
     6
  9
$SURFV
 70
     6
  9
$UCSNAME
  2

  9
$UCSORG
 10
0.0
 20
0.0
 30
0.0
  9
$UCSXDIR
 10
1.0
 20
0.0
 30
0.0
  9
$UCSYDIR
 10
0.0
 20
1.0
 30
0.0
  9
$PUCSNAME
  2

  9
$PUCSORG
 10
0.0
 20
0.0
 30
0.0
  9
$PUCSXDIR
 10
1.0
 20
0.0
 30
0.0
  9
$PUCSYDIR
 10
0.0
 20
1.0
 30
0.0
  9
$USERI1
 70
     0
  9
$USERI2
 70
     0
  9
$USERI3
 70
     0
  9
$USERI4
 70
     0
  9
$USERI5
 70
     0
  9
$USERR1
 40
0.0
  9
$USERR2
 40
0.0
  9
$USERR3
 40
0.0
  9
$USERR4
 40
0.0
  9
$USERR5
 40
0.0
  9
$WORLDVIEW
 70
     1
  9
$SHADEDGE
 70
     3
  9
$SHADEDIF
 70
    70
  9
$TILEMODE
 70
     1
  9
$MAXACTVP
 70
    48
  9
$PINSBASE
 10
0.0
 20
0.0
 30
0.0
  9
$PLIMCHECK
 70
     0
  9
$PEXTMIN
 10
12.66193779506477
 20
10.0
 30
0.0
  9
$PEXTMAX
 10
417.3384104189152
 20
288.3088313405777
 30
0.0
  9
$PLIMMIN
 10
5.520847546440854
 20
1.412401958194729
  9
$PLIMMAX
 10
426.9356819506143
 20
299.3764216708736
  9
$UNITMODE
 70
     0
  9
$VISRETAIN
 70
     1
  9
$PLINEGEN
 70
     0
  9
$PSLTSCALE
 70
     1
  9
$TREEDEPTH
 70
  3020
  9
$PICKSTYLE
 70
     1
  9
$CMLSTYLE
  2
STANDARD
  9
$CMLJUST
 70
     0
  9
$CMLSCALE
 40
1.0
  9
$PROXYGRAPHICS
 70
     1
  9
$MEASUREMENT
 70
     1
  0
ENDSEC
  0
SECTION
  2
CLASSES
  0
CLASS
  1
DICTIONARYVAR
  2
AcDbDictionaryVar
  3
AutoCAD 2000
 90
        0
280
     0
281
     0
  0
CLASS
  1
LWPOLYLINE
  2
AcDbPolyline
  3
AutoCAD 2000
 90
        0
280
     0
281
     1
  0
CLASS
  1
HATCH
  2
AcDbHatch
  3
AutoCAD 2000
 90
        0
280
     0
281
     1
  0
CLASS
  1
ACDBDICTIONARYWDFLT
  2
AcDbDictionaryWithDefault
  3
AutoCAD 2000
 90
        0
280
     0
281
     0
  0
CLASS
  1
ACDBPLACEHOLDER
  2
AcDbPlaceHolder
  3
AutoCAD 2000
 90
        0
280
     0
281
     0
  0
CLASS
  1
LAYOUT
  2
AcDbLayout
  3
AutoCAD 2000
 90
        0
280
     0
281
     0
  0
CLASS
  1
LONG_TRANSACTION
  2
AcDbLongTransaction
  3
AutoCAD 2000
 90
        0
280
     0
281
     0
  0
CLASS
  1
LWPOLYLINE
  2
AcDbPolyline
  3
AutoCAD 2000
 90
        0
280
     0
281
     1
  0
CLASS
  1
HATCH
  2
AcDbHatch
  3
AutoCAD 2000
 90
        0
280
     0
281
     1
  0
CLASS
  1
XRECORD
  2
AcDbXrecord
  3
AutoCAD 2000
 90
        0
280
     0
281
     0
  0
CLASS
  1
LONG_TRANSACTION
  2
AcDbLongTransaction
  3
AutoCAD 2000
 90
        0
280
     0
281
     0
  0
CLASS
  1
LWPOLYLINE
  2
AcDbPolyline
  3
AutoCAD 2000
 90
        0
280
     0
281
     1
  0
CLASS
  1
HATCH
  2
AcDbHatch
  3
AutoCAD 2000
 90
        0
280
     0
281
     1
  0
CLASS
  1
XRECORD
  2
AcDbXrecord
  3
AutoCAD 2000
 90
        0
280
     0
281
     0
  0
CLASS
  1
LONG_TRANSACTION
  2
AcDbLongTransaction
  3
AutoCAD 2000
 90
        0
280
     0
281
     0
  0
CLASS
  1
LWPOLYLINE
  2
AcDbPolyline
  3
AutoCAD 2000
 90
        0
280
     0
281
     1
  0
CLASS
  1
HATCH
  2
AcDbHatch
  3
AutoCAD 2000
 90
        0
280
     0
281
     1
  0
CLASS
  1
XRECORD
  2
AcDbXrecord
  3
AutoCAD 2000
 90
        0
280
     0
281
     0
  0
CLASS
  1
LONG_TRANSACTION
  2
AcDbLongTransaction
  3
AutoCAD 2000
 90
        0
280
     0
281
     0
  0
CLASS
  1
LWPOLYLINE
  2
AcDbPolyline
  3
AutoCAD 2000
 90
        0
280
     0
281
     1
  0
CLASS
  1
HATCH
  2
AcDbHatch
  3
AutoCAD 2000
 90
        0
280
     0
281
     1
  0
CLASS
  1
XRECORD
  2
AcDbXrecord
  3
AutoCAD 2000
 90
        0
280
     0
281
     0
  0
CLASS
  1
LONG_TRANSACTION
  2
AcDbLongTransaction
  3
AutoCAD 2000
 90
        0
280
     0
281
     0
  0
CLASS
  1
LWPOLYLINE
  2
AcDbPolyline
  3
AutoCAD 2000
 90
        0
280
     0
281
     1
  0
CLASS
  1
HATCH
  2
AcDbHatch
  3
AutoCAD 2000
 90
        0
280
     0
281
     1
  0
CLASS
  1
XRECORD
  2
AcDbXrecord
  3
AutoCAD 2000
 90
        0
280
     0
281
     0
  0
CLASS
  1
LONG_TRANSACTION
  2
AcDbLongTransaction
  3
AutoCAD 2000
 90
        0
280
     0
281
     0
  0
CLASS
  1
LWPOLYLINE
  2
AcDbPolyline
  3
AutoCAD 2000
 90
        0
280
     0
281
     1
  0
CLASS
  1
HATCH
  2
AcDbHatch
  3
AutoCAD 2000
 90
        0
280
     0
281
     1
  0
CLASS
  1
XRECORD
  2
AcDbXrecord
  3
AutoCAD 2000
 90
        0
280
     0
281
     0
  0
CLASS
  1
LONG_TRANSACTION
  2
AcDbLongTransaction
  3
AutoCAD 2000
 90
        0
280
     0
281
     0
  0
CLASS
  1
LWPOLYLINE
  2
AcDbPolyline
  3
AutoCAD 2000
 90
        0
280
     0
281
     1
  0
CLASS
  1
HATCH
  2
AcDbHatch
  3
AutoCAD 2000
 90
        0
280
     0
281
     1
  0
CLASS
  1
XRECORD
  2
AcDbXrecord
  3
AutoCAD 2000
 90
        0
280
     0
281
     0
  0
CLASS
  1
LONG_TRANSACTION
  2
AcDbLongTransaction
  3
AutoCAD 2000
 90
        0
280
     0
281
     0
  0
CLASS
  1
LWPOLYLINE
  2
AcDbPolyline
  3
AutoCAD 2000
 90
        0
280
     0
281
     1
  0
CLASS
  1
HATCH
  2
AcDbHatch
  3
AutoCAD 2000
 90
        0
280
     0
281
     1
  0
CLASS
  1
XRECORD
  2
AcDbXrecord
  3
AutoCAD 2000
 90
        0
280
     0
281
     0
  0
ENDSEC
  0
SECTION
  2
TABLES
  0
TABLE
  2
VPORT
  5
8
330
0
100
AcDbSymbolTable
 70
     2
  0
VPORT
  5
4D7B
330
8
100
AcDbSymbolTableRecord
100
AcDbViewportTableRecord
  2
*ACTIVE
 70
     0
 10
0.0
 20
0.0
 11
1.0
 21
1.0
 12
-610.0250395265216
 22
281.8575539261513
 13
0.0
 23
0.0
 14
1.0
 24
1.0
 15
10.0
 25
10.0
 16
0.0
 26
0.0
 36
1.0
 17
0.0
 27
0.0
 37
0.0
 40
1932.820236324072
 41
1.674961119751166
 42
50.0
 43
0.0
 44
0.0
 50
0.0
 51
0.0
 71
     0
 72
   100
 73
     1
 74
     1
 75
     0
 76
     0
 77
     0
 78
     1
  0
ENDTAB
  0
TABLE
  2
LTYPE
  5
5
330
0
100
AcDbSymbolTable
 70
     1
  0
LTYPE
  5
14
330
5
100
AcDbSymbolTableRecord
100
AcDbLinetypeTableRecord
  2
BYBLOCK
 70
     0
  3

 72
    65
 73
     0
 40
0.0
  0
LTYPE
  5
15
330
5
100
AcDbSymbolTableRecord
100
AcDbLinetypeTableRecord
  2
BYLAYER
 70
     0
  3

 72
    65
 73
     0
 40
0.0
  0
LTYPE
  5
16
330
5
100
AcDbSymbolTableRecord
100
AcDbLinetypeTableRecord
  2
CONTINUOUS
 70
     0
  3
Solid line
 72
    65
 73
     0
 40
0.0
  0
ENDTAB
  0
TABLE
  2
LAYER
  5
2
102
{ACAD_XDICTIONARY
360
45D0
102
}
330
0
100
AcDbSymbolTable
 70
     7
  0
LAYER
  5
F
330
2
100
AcDbSymbolTableRecord
100
AcDbLayerTableRecord
  2
0
 70
     0
 62
     7
  6
CONTINUOUS
  0
LAYER
  5
7D
330
2
100
AcDbSymbolTableRecord
100
AcDbLayerTableRecord
  2
PEN50
 70
     0
 62
     7
  6
CONTINUOUS
  0
LAYER
  5
7E
330
2
100
AcDbSymbolTableRecord
100
AcDbLayerTableRecord
  2
PEN35
 70
     0
 62
     2
  6
CONTINUOUS
  0
LAYER
  5
80
330
2
100
AcDbSymbolTableRecord
100
AcDbLayerTableRecord
  2
MAATLIJN
 70
     0
 62
     3
  6
CONTINUOUS
  0
LAYER
  5
C3
330
2
100
AcDbSymbolTableRecord
100
AcDbLayerTableRecord
  2
KADER
 70
     0
 62
     5
  6
CONTINUOUS
  0
LAYER
  5
CB
330
2
100
AcDbSymbolTableRecord
100
AcDbLayerTableRecord
  2
VIEWPORT
 70
     0
 62
     7
  6
CONTINUOUS
  0
LAYER
  5
1517
330
2
100
AcDbSymbolTableRecord
100
AcDbLayerTableRecord
  2
ONDERHOEK
 70
     0
 62
     7
  6
CONTINUOUS
  0
ENDTAB
  0
TABLE
  2
STYLE
  5
3
330
0
100
AcDbSymbolTable
 70
     2
  0
STYLE
  5
10
330
3
100
AcDbSymbolTableRecord
100
AcDbTextStyleTableRecord
  2
STANDARD
 70
     0
 40
3.5
 41
1.0
 50
0.0
 71
     0
 42
2.5
  3
isocp.shx
  4

  0
STYLE
  5
E7
330
3
100
AcDbSymbolTableRecord
100
AcDbTextStyleTableRecord
  2
ISO35
 70
     0
 40
35.0
 41
0.85
 50
0.0
 71
     0
 42
2.5
  3
romans.shx
  4

  0
ENDTAB
  0
TABLE
  2
VIEW
  5
6
330
0
100
AcDbSymbolTable
 70
     0
  0
ENDTAB
  0
TABLE
  2
UCS
  5
7
330
0
100
AcDbSymbolTable
 70
     0
  0
ENDTAB
  0
TABLE
  2
APPID
  5
9
330
0
100
AcDbSymbolTable
 70
     2
  0
APPID
  5
11
330
9
100
AcDbSymbolTableRecord
100
AcDbRegAppTableRecord
  2
ACAD
 70
     0
  0
APPID
  5
4C29
330
9
100
AcDbSymbolTableRecord
100
AcDbRegAppTableRecord
  2
CONTENTBLOCKICON
 70
     0
  0
ENDTAB
  0
TABLE
  2
DIMSTYLE
  5
A
330
0
100
AcDbSymbolTable
 70
     1
  0
DIMSTYLE
105
25
330
A
100
AcDbSymbolTableRecord
100
AcDbDimStyleTableRecord
  2
ISO-35
 70
     0
  3

  4

  5

  6

  7

 40
10.0
 41
3.5
 42
0.875
 43
5.25
 44
1.75
 45
0.0
 46
0.0
 47
0.0
 48
0.0
140
3.5
141
0.0
142
0.0
143
0.0394
144
0.1
145
0.0
146
1.0
147
2.0
 71
     0
 72
     0
 73
     0
 74
     0
 75
     0
 76
     0
 77
     1
 78
     8
170
     0
171
     4
172
     1
173
     0
174
     0
175
     0
176
   256
177
   256
178
     2
270
     2
271
     2
272
     2
273
     8
274
     4
340
E7
275
     0
280
     0
281
     0
282
     0
283
     1
284
     8
285
     0
286
     0
287
     3
288
     0
  0
ENDTAB
  0
TABLE
  2
BLOCK_RECORD
  5
1
330
0
100
AcDbSymbolTable
 70
     0
  0
BLOCK_RECORD
  5
1A
102
{ACAD_XDICTIONARY
360
44B5
102
}
330
1
100
AcDbSymbolTableRecord
100
AcDbBlockTableRecord
  2
*MODEL_SPACE
  0
BLOCK_RECORD
  5
17
102
{ACAD_XDICTIONARY
360
44B3
102
}
330
1
100
AcDbSymbolTableRecord
100
AcDbBlockTableRecord
  2
*PAPER_SPACE
  0
ENDTAB
  0
ENDSEC
  0
SECTION
  2
BLOCKS
  0
BLOCK
  5
1B
330
1A
100
AcDbEntity
  8
0
100
AcDbBlockBegin
  2
*MODEL_SPACE
 70
     0
 10
0.0
 20
0.0
 30
0.0
  3
*MODEL_SPACE
  1

  0
ENDBLK
  5
1C
330
1A
100
AcDbEntity
  8
0
100
AcDbBlockEnd
  0
BLOCK
  5
18
330
17
100
AcDbEntity
 67
     1
  8
0
100
AcDbBlockBegin
  2
*PAPER_SPACE
 70
     0
 10
0.0
 20
0.0
 30
0.0
  3
*PAPER_SPACE
  1

  0
ENDBLK
  5
19
330
17
100
AcDbEntity
 67
     1
  8
0
100
AcDbBlockEnd
  0
ENDSEC
  0
SECTION
  2
ENTITIES
  0
MTEXT
  5
265D
330
1A
100
AcDbEntity
  8
PEN35
 62
     2
100
AcDbMText
 10
2274.533191374959
 20
168.6495033284136
 30
0.0
 40
17.5
 41
0.0
 71
     6
 72
     1
  1
\A1;
  7
ISO35
1001
ACAD
1000
MTEXTBEGIN
1070
    73
1070
     1
1070
    44
1040
1.0
1070
    74
1070
     0
1000
MTEXTEND
  0
MTEXT
  5
267F
330
1A
100
AcDbEntity
  8
PEN35
 62
     2
100
AcDbMText
 10
3153.085647021145
 20
-107.262365421588
 30
0.0
 40
17.5
 41
0.0
 71
     4
 72
     1
  1
\A1;
  7
ISO35
1001
ACAD
1000
MTEXTBEGIN
1070
    73
1070
     1
1070
    44
1040
1.0
1070
    74
1070
     0
1000
MTEXTEND
  0
LINE
  5
2E8B
330
1A
100
AcDbEntity
  8
PEN50
100
AcDbLine
 10
-132.8477560732243
 20
-654.9057948660133
 30
0.0
 11
-978.6008542930863
 21
-646.2416899551246
 31
0.0
  0
LINE
  5
2E8D
330
1A
100
AcDbEntity
  8
PEN50
100
AcDbLine
 10
129.6522439267757
 20
-189.9057948660133
 30
0.0
 11
-1350.347756073224
 21
-189.9057948660133
 31
0.0
  0
LINE
  5
2E8E
330
1A
100
AcDbEntity
  8
PEN50
100
AcDbLine
 10
139.6522439267757
 20
-224.9057948660133
 30
0.0
 11
-1360.347756073224
 21
-224.9057948660133
 31
0.0
  0
LINE
  5
2E8F
330
1A
100
AcDbEntity
  8
PEN50
100
AcDbLine
 10
-1202.454541912766
 20
-224.9057948660133
 30
0.0
 11
-1022.127460618033
 21
-619.8841856723174
 31
0.0
  0
ARC
  5
2E92
330
1A
100
AcDbEntity
  8
PEN50
100
AcDbCircle
 10
-1327.347756073224
 20
-164.9057948660133
 30
0.0
 40
25.0
100
AcDbArc
 50
270.0
 51
0.0
  0
ARC
  5
2E93
330
1A
100
AcDbEntity
  8
PEN50
100
AcDbCircle
 10
-1350.347756073224
 20
-199.9057948660133
 30
0.0
 40
10.0
100
AcDbArc
 50
90.0
 51
180.0
  0
LINE
  5
2E94
330
1A
100
AcDbEntity
  8
PEN50
100
AcDbLine
 10
-1360.347756073224
 20
-224.9057948660133
 30
0.0
 11
-1360.347756073224
 21
-199.9057948660133
 31
0.0
  0
LINE
  5
2E95
330
1A
100
AcDbEntity
  8
PEN50
100
AcDbLine
 10
-1267.336226966254
 20
-125.1383719240297
 30
0.0
 11
-990.7845652041924
 21
-189.9057948660133
 31
0.0
  0
LINE
  5
2E96
330
1A
100
AcDbEntity
  8
PEN50
100
AcDbLine
 10
-1302.347756073224
 20
-164.9057948660133
 30
0.0
 11
-1302.347756073224
 21
-134.9057948660133
 31
0.0
  0
LINE
  5
2E97
330
1A
100
AcDbEntity
  8
PEN50
100
AcDbLine
 10
-1270.140763796351
 20
-124.9057948660133
 30
0.0
 11
-1292.347756073224
 21
-124.9057948660133
 31
0.0
  0
ARC
  5
2E98
330
1A
100
AcDbEntity
  8
PEN50
100
AcDbCircle
 10
-1292.347756073224
 20
-134.9057948660133
 30
0.0
 40
10.0
100
AcDbArc
 50
90.0
 51
180.0
  0
ARC
  5
2E99
330
1A
100
AcDbEntity
  8
PEN50
100
AcDbCircle
 10
-1270.181485508707
 20
-142.4224194053065
 30
0.0
 40
17.51667187305933
100
AcDbArc
 50
80.65194501837838
 51
89.86680207455883
  0
LINE
  5
2E9A
330
1A
100
AcDbEntity
  8
PEN50
100
AcDbLine
 10
62.77735729151664
 20
-224.9057948660133
 30
0.0
 11
30.01437234715126
 21
-609.1536435453813
 31
0.0
  0
LINE
  5
2E9C
330
1A
100
AcDbEntity
  8
PEN50
100
AcDbLine
 10
-528.2296410166771
 20
-607.302671178639
 30
0.0
 11
-559.1759347899057
 21
-354.6629959599947
 31
0.0
  0
LINE
  5
2EA0
330
1A
100
AcDbEntity
  8
PEN50
100
AcDbLine
 10
-19.80485869465815
 20
-654.9057948660133
 30
0.0
 11
-132.8477560732242
 21
-654.9057948660133
 31
0.0
  0
LINE
  5
2EA1
330
1A
100
AcDbEntity
  8
PEN50
100
AcDbLine
 10
-127.8477560732242
 20
-659.9057948660133
 30
0.0
 11
-52.84775607322422
 21
-659.9057948660133
 31
0.0
  0
LINE
  5
2EA3
330
1A
100
AcDbEntity
  8
PEN50
100
AcDbLine
 10
-127.8477560732242
 20
-659.9057948660133
 30
0.0
 11
-132.8477560732242
 21
-654.9057948660133
 31
0.0
  0
LINE
  5
2EA4
330
1A
100
AcDbEntity
  8
PEN50
100
AcDbLine
 10
-52.84775607322422
 20
-659.9057948660133
 30
0.0
 11
-47.84775607322422
 21
-654.9057948660133
 31
0.0
  0
ARC
  5
2EA6
330
1A
100
AcDbEntity
  8
PEN50
100
AcDbCircle
 10
129.6522439267757
 20
-199.9057948660133
 30
0.0
 40
10.0
100
AcDbArc
 50
0.0
 51
90.0
  0
LINE
  5
2EA7
330
1A
100
AcDbEntity
  8
PEN50
100
AcDbLine
 10
139.6522439267757
 20
-224.9057948660133
 30
0.0
 11
139.6522439267757
 21
-199.9057948660133
 31
0.0
  0
LINE
  5
2EA8
330
1A
100
AcDbEntity
  8
PEN50
100
AcDbLine
 10
-854.5881780318536
 20
1070.255584040311
 30
0.0
 11
-532.6484361399663
 21
1070.25558404031
 31
0.0
  0
LINE
  5
2EAB
330
1A
100
AcDbEntity
  8
PEN50
100
AcDbLine
 10
-176.631912263017
 20
559.5765825867657
 30
0.0
 11
-965.6219797105173
 21
567.9406789089389
 31
0.0
  0
LINE
  5
2EAC
330
1A
100
AcDbEntity
  8
PEN50
100
AcDbLine
 10
-169.1124668478896
 20
533.0434057937828
 30
0.0
 11
-1003.460076310091
 21
542.9158549155808
 31
0.0
  0
LINE
  5
2EAD
330
1A
100
AcDbEntity
  8
PEN50
100
AcDbLine
 10
139.6522439267757
 20
482.7555840403106
 30
0.0
 11
-1360.347756073224
 21
482.7555840403106
 31
0.0
  0
LINE
  5
2EB2
330
1A
100
AcDbEntity
  8
PEN50
100
AcDbLine
 10
-176.631912263017
 20
1155.934585493855
 30
0.0
 11
-965.6219797105173
 21
1145.625952978342
 31
0.0
  0
LINE
  5
2EB3
330
1A
100
AcDbEntity
  8
PEN50
100
AcDbLine
 10
-142.2062993981053
 20
1182.743342308938
 30
0.0
 11
-1015.784565204193
 21
1172.771698428135
 31
0.0
  0
LINE
  5
2EB4
330
1A
100
AcDbEntity
  8
PEN50
100
AcDbLine
 10
-1360.347756073224
 20
1232.75558404031
 30
0.0
 11
139.6522439267757
 21
1232.75558404031
 31
0.0
  0
LINE
  5
2EB5
330
1A
100
AcDbEntity
  8
PEN50
100
AcDbLine
 10
-1050.21490914005
 20
1100.255584040309
 30
0.0
 11
-570.3477560732242
 21
1100.255584040309
 31
0.0
  0
LINE
  5
2EB6
330
1A
100
AcDbEntity
  8
PEN50
100
AcDbLine
 10
-540.5403574636531
 20
1144.985103709311
 30
0.0
 11
-953.816426938364
 21
1140.041990263441
 31
0.0
  0
LINE
  5
2EB8
330
1A
100
AcDbEntity
  8
PEN50
100
AcDbLine
 10
-1360.347756073224
 20
482.7555840403106
 30
0.0
 11
-1360.347756073224
 21
1232.75558404031
 31
0.0
  0
ARC
  5
2EBF
330
1A
100
AcDbEntity
  8
PEN50
100
AcDbCircle
 10
-950.8571002588846
 20
832.7555840403102
 30
0.0
 40
307.3006558143395
100
AcDbArc
 50
90.55177086859721
 51
126.790633241947
  0
LINE
  5
2EC3
330
1A
100
AcDbEntity
  8
PEN50
100
AcDbLine
 10
139.6522439267757
 20
1232.75558404031
 30
0.0
 11
139.6522439267757
 21
482.7555840403106
 31
0.0
  0
ARC
  5
2EC5
330
1A
100
AcDbEntity
  8
PEN50
100
AcDbCircle
 10
-154.3325924401822
 20
939.8727275433371
 30
0.0
 40
217.2095442783099
100
AcDbArc
 50
1.024278840002393
 51
95.89252174312221
  0
LINE
  5
2EC8
330
1A
100
AcDbEntity
  8
PEN50
100
AcDbLine
 10
-156.1615566647305
 20
596.1398289690091
 30
0.0
 11
-502.8410375303955
 21
600.9745545180008
 31
0.0
  0
ARC
  5
2ED0
330
1A
100
AcDbEntity
  8
PEN50
100
AcDbCircle
 10
-154.3325924401822
 20
775.6384405372837
 30
0.0
 40
217.2095442783097
100
AcDbArc
 50
264.1074782568778
 51
358.9757211599977
  0
CIRCLE
  5
2ED3
330
1A
100
AcDbEntity
  8
PEN50
100
AcDbCircle
 10
-90.34775607322421
 20
857.7555840403105
 30
0.0
 40
26.0
  0
LINE
  5
2ED4
330
1A
100
AcDbEntity
  8
PEN50
100
AcDbLine
 10
26.03211861062845
 20
776.1264612192576
 30
0.0
 11
26.03211861062845
 21
939.3847068613636
 31
0.0
  0
LINE
  5
2ED5
330
1A
100
AcDbEntity
  8
PEN50
100
AcDbLine
 10
62.84224392677583
 20
771.7555840403106
 30
0.0
 11
62.84224392677583
 21
943.7555840403106
 31
0.0
  0
LINE
  5
2ED6
330
1A
100
AcDbEntity
  8
PEN50
100
AcDbLine
 10
89.65224392677578
 20
775.5314960048097
 30
0.0
 11
89.65224392677578
 21
943.7555840403106
 31
0.0
  0
LWPOLYLINE
  5
2ED7
330
1A
100
AcDbEntity
  8
PEN50
100
AcDbPolyline
 90
       16
 70
     1
 43
0.0
 10
53.49825087187219
 20
872.5508671931798
 42
0.2626931627415016
 10
52.4117498382434
 20
871.9377227189314
 42
0.0746755365336956
 10
50.82633150352785
 20
868.1260069741883
 42
0.0354790548727563
 10
50.04083512713624
 20
863.661580824899
 42
0.0258144101264901
 10
49.71958626359219
 20
857.4434494218934
 42
0.0258144101264835
 10
50.04083512713624
 20
851.2253180188862
 42
0.0354790548727258
 10
50.82633150352785
 20
846.7608918695985
 42
0.07467553653367
 10
52.41174983824317
 20
842.9491761248554
 42
0.2626931627414538
 10
53.49825087187219
 20
842.3360316506069
 42
0.2626931627414167
 10
54.58475190550098
 20
842.9491761248552
 42
0.0746755365336854
 10
56.17017024021652
 20
846.7608918695985
 42
0.0354790548727354
 10
56.95566661660837
 20
851.225318018888
 42
0.0258144101264728
 10
57.27691548015219
 20
857.4434494218934
 42
0.0258144101264836
 10
56.95566661660814
 20
863.6615808249006
 42
0.0354790548727262
 10
56.17017024021652
 20
868.1260069741883
 42
0.0746755365336759
 10
54.58475190550143
 20
871.9377227189308
 42
0.2626931627416604
  0
LINE
  5
2ED8
330
1A
100
AcDbEntity
  8
PEN50
100
AcDbLine
 10
-156.1615566647305
 20
1119.371339111612
 30
0.0
 11
-502.8410375303955
 21
1114.53661356262
 31
0.0
  0
LINE
  5
2ED9
330
1A
100
AcDbEntity
  8
PEN50
100
AcDbLine
 10
-560.3477560732242
 20
1110.25558404031
 30
0.0
 11
-560.3477560732242
 21
1124.986031113204
 31
0.0
  0
ARC
  5
2EDA
330
1A
100
AcDbEntity
  8
PEN50
100
AcDbCircle
 10
-502.6384466735155
 20
1094.513908500658
 30
0.0
 40
20.02372994857867
100
AcDbArc
 50
90.57970214044273
 51
177.8772885419573
  0
ARC
  5
2EDC
330
1A
100
AcDbEntity
  8
PEN50
100
AcDbCircle
 10
-570.3477560732242
 20
1110.25558404031
 30
0.0
 40
10.0
100
AcDbArc
 50
270.0
 51
0.0
  0
ARC
  5
2EDD
330
1A
100
AcDbEntity
  8
PEN50
100
AcDbCircle
 10
-570.3477560732242
 20
1110.25558404031
 30
0.0
 40
10.0
100
AcDbArc
 50
270.0
 51
0.0
  0
ARC
  5
2EDE
330
1A
100
AcDbEntity
  8
PEN50
100
AcDbCircle
 10
-555.0169990072409
 20
1093.70300918722
 30
0.0
 40
32.40577650307333
100
AcDbArc
 50
313.6510640381583
 51
2.746116989138617
  0
ARC
  5
2EDF
330
1A
100
AcDbEntity
  8
PEN50
100
AcDbCircle
 10
-540.3477560732242
 20
1124.986031113203
 30
0.0
 40
20.0
100
AcDbArc
 50
90.55177086859718
 51
180.0
  0
ARC
  5
3106
330
1A
100
AcDbEntity
  8
PEN50
100
AcDbCircle
 10
-975.1577560732242
 20
856.7833159436409
 30
0.0
 40
289.0
100
AcDbArc
 50
88.10913865946728
 51
271.8908613405322
  0
ARC
  5
311B
330
1A
100
AcDbEntity
  8
PEN50
100
AcDbCircle
 10
-987.347756073224
 20
857.7904476480334
 30
0.0
 40
315.0
100
AcDbArc
 50
90.62513830210745
 51
271.6168067565857
  0
ARC
  5
311C
330
1A
100
AcDbEntity
  8
PEN50
100
AcDbCircle
 10
-1012.347756073224
 20
857.7904476480334
 30
0.0
 40
315.0
100
AcDbArc
 50
90.62513830210745
 51
271.6168067565857
  0
LINE
  5
316A
330
1A
100
AcDbEntity
  8
PEN50
100
AcDbLine
 10
-532.6484361399663
 20
1070.25558404031
 30
0.0
 11
-799.0727789224474
 21
1070.25558404031
 31
0.0
  0
LINE
  5
316C
330
1A
100
AcDbEntity
  8
PEN50
100
AcDbLine
 10
-570.3477560732242
 20
1100.25558404031
 30
0.0
 11
-1048.321556298426
 21
1100.25558404031
 31
0.0
  0
ARC
  5
3178
330
1A
100
AcDbEntity
  8
PEN50
100
AcDbCircle
 10
-1050.21490914005
 20
950.2555840403102
 30
0.0
 40
150.0
100
AcDbArc
 50
90.0
 51
123.2442403557187
  0
ARC
  5
3179
330
1A
100
AcDbEntity
  8
PEN50
100
AcDbCircle
 10
-1133.542701351765
 20
1077.379456877481
 30
0.0
 40
2.0
100
AcDbArc
 50
132.6296723990031
 51
303.2442403557205
  0
LINE
  5
317C
330
1A
100
AcDbEntity
  8
PEN50
100
AcDbLine
 10
-1050.21490914005
 20
615.2555840403111
 30
0.0
 11
-570.3477560732242
 21
615.2555840403111
 31
0.0
  0
ARC
  5
317E
330
1A
100
AcDbEntity
  8
PEN50
100
AcDbCircle
 10
-570.3477560732242
 20
605.2555840403106
 30
0.0
 40
10.0
100
AcDbArc
 50
0.0
 51
90.00000000000003
  0
ARC
  5
317F
330
1A
100
AcDbEntity
  8
PEN50
100
AcDbCircle
 10
-570.3477560732242
 20
605.2555840403106
 30
0.0
 40
10.0
100
AcDbArc
 50
0.0
 51
90.00000000000003
  0
ARC
  5
3183
330
1A
100
AcDbEntity
  8
PEN50
100
AcDbCircle
 10
-950.8571002588846
 20
882.755584040311
 30
0.0
 40
307.3006558143395
100
AcDbArc
 50
233.2093667580529
 51
269.4482291314027
  0
ARC
  5
3184
330
1A
100
AcDbEntity
  8
PEN50
100
AcDbCircle
 10
-1133.542701351765
 20
638.1317112031402
 30
0.0
 40
2.0
100
AcDbArc
 50
56.75575964427942
 51
227.3703276009968
  0
ARC
  5
3185
330
1A
100
AcDbEntity
  8
PEN50
100
AcDbCircle
 10
-1050.21490914005
 20
765.2555840403111
 30
0.0
 40
150.0
100
AcDbArc
 50
236.7557596442813
 51
270.0
  0
ARC
  5
3368
330
1A
100
AcDbEntity
  8
PEN50
100
AcDbCircle
 10
-153.9678813893715
 20
939.3847068613636
 30
0.0
 40
180.0
100
AcDbArc
 50
0.0
 51
90.69828581343893
  0
ARC
  5
3379
330
1A
100
AcDbEntity
  8
PEN50
100
AcDbCircle
 10
-153.3477560732242
 20
939.9796720758116
 30
0.0
 40
243.0
100
AcDbArc
 50
0.0
 51
93.71969628860956
  0
ARC
  5
337A
330
1A
100
AcDbEntity
  8
PEN50
100
AcDbCircle
 10
-153.3477560732242
 20
775.5314960048097
 30
0.0
 40
243.0
100
AcDbArc
 50
266.2803037113904
 51
0.0
  0
ARC
  5
337B
330
1A
100
AcDbEntity
  8
PEN50
100
AcDbCircle
 10
-153.9678813893715
 20
776.1264612192576
 30
0.0
 40
180.0
100
AcDbArc
 50
269.301714186561
 51
0.0
  0
ARC
  5
3B6B
330
1A
100
AcDbEntity
  8
PEN50
100
AcDbCircle
 10
-569.1017473679965
 20
-355.8788268136156
 30
0.0
 40
10.0
100
AcDbArc
 50
6.983475743141879
 51
95.17832533659403
  0
LINE
  5
3B79
330
1A
100
AcDbEntity
  8
PEN50
100
AcDbLine
 10
-1115.516786761704
 20
-386.9369301707795
 30
0.0
 11
-570.0043057318896
 21
-345.9196406822209
 31
0.0
  0
CIRCLE
  5
3C17
330
1A
100
AcDbEntity
  8
ONDERHOEK
100
AcDbCircle
 10
-90.34775607322421
 20
857.7555840403105
 30
0.0
 40
42.5
  0
ARC
  5
3E19
330
1A
100
AcDbEntity
  8
PEN50
100
AcDbCircle
 10
-734.024827835068
 20
850.2555840403097
 30
0.0
 40
270.0472220968428
100
AcDbArc
 50
136.0384036072298
 51
178.4085242388257
  0
ARC
  5
3E1A
330
1A
100
AcDbEntity
  8
PEN50
100
AcDbCircle
 10
-854.5881780318538
 20
970.255584040311
 30
0.0
 40
100.0
100
AcDbArc
 50
89.99999999999992
 51
137.5766579881173
  0
ARC
  5
3F72
330
1A
100
AcDbEntity
  8
PEN50
100
AcDbCircle
 10
-19.80485869465815
 20
-604.9057948660133
 30
0.0
 40
50.0
100
AcDbArc
 50
270.0
 51
355.1264493118823
  0
ARC
  5
3F7C
330
1A
100
AcDbEntity
  8
PEN50
100
AcDbCircle
 10
-978.0687923325899
 20
-596.2445209345672
 30
0.0
 40
50.0
100
AcDbArc
 50
208.2157686485781
 51
269.3902903972697
  0
ARC
  5
3F86
330
1A
100
AcDbEntity
  8
PEN50
100
AcDbCircle
 10
-478.6005781262235
 20
-601.2235169105342
 30
0.0
 40
50.0
100
AcDbArc
 50
186.9834757431418
 51
269.3902903972697
  0
ARC
  5
4210
330
1A
100
AcDbEntity
  8
PEN50
100
AcDbCircle
 10
-555.0169990072409
 20
621.808158893401
 30
0.0
 40
32.40577650307333
100
AcDbArc
 50
357.2538830108614
 51
46.34893596184168
  0
ARC
  5
4211
330
1A
100
AcDbEntity
  8
PEN50
100
AcDbCircle
 10
-502.6384466735155
 20
620.9972595799627
 30
0.0
 40
20.02372994857867
100
AcDbArc
 50
182.1227114580426
 51
269.4202978595573
  0
LINE
  5
4212
330
1A
100
AcDbEntity
  8
PEN50
100
AcDbLine
 10
-854.5881780318536
 20
645.2555840403106
 30
0.0
 11
-532.6484361399663
 21
645.2555840403106
 31
0.0
  0
ARC
  5
4213
330
1A
100
AcDbEntity
  8
PEN50
100
AcDbCircle
 10
-734.024827835068
 20
865.2555840403117
 30
0.0
 40
270.0472220968428
100
AcDbArc
 50
181.5914757611743
 51
223.9615963927701
  0
ARC
  5
4214
330
1A
100
AcDbEntity
  8
PEN50
100
AcDbCircle
 10
-854.5881780318538
 20
745.2555840403106
 30
0.0
 40
100.0
100
AcDbArc
 50
222.4233420118826
 51
270.0
  0
ARC
  5
4215
330
1A
100
AcDbEntity
  8
PEN50
100
AcDbCircle
 10
-540.3477560732242
 20
590.5251369674174
 30
0.0
 40
20.0
100
AcDbArc
 50
180.0
 51
269.4482291314028
  0
LINE
  5
4216
330
1A
100
AcDbEntity
  8
PEN50
100
AcDbLine
 10
-560.3477560732242
 20
605.255584040311
 30
0.0
 11
-560.3477560732242
 21
590.525136967417
 31
0.0
  0
ARC
  5
4217
330
1A
100
AcDbEntity
  8
PEN50
100
AcDbCircle
 10
-570.3477560732242
 20
605.255584040311
 30
0.0
 40
10.0
100
AcDbArc
 50
0.0
 51
90.00000000000003
  0
ARC
  5
4218
330
1A
100
AcDbEntity
  8
PEN50
100
AcDbCircle
 10
-570.3477560732242
 20
605.255584040311
 30
0.0
 40
10.0
100
AcDbArc
 50
0.0
 51
90.00000000000003
  0
LINE
  5
4219
330
1A
100
AcDbEntity
  8
PEN50
100
AcDbLine
 10
-540.5403574636531
 20
570.5260643713095
 30
0.0
 11
-953.816426938364
 21
575.4691778171795
 31
0.0
  0
LINE
  5
43B1
330
1A
100
AcDbEntity
  8
PEN50
100
AcDbLine
 10
-138.4814713467276
 20
-654.8480816867528
 30
0.0
 11
-138.4814713467276
 21
-674.8480816867528
 31
0.0
  0
LINE
  5
43B2
330
1A
100
AcDbEntity
  8
PEN50
100
AcDbLine
 10
-978.6008542927604
 20
-646.241689955128
 30
0.0
 11
-978.6008542927604
 21
-674.8480816867527
 31
0.0
  0
LINE
  5
43B3
330
1A
100
AcDbEntity
  8
PEN50
100
AcDbLine
 10
-138.4814713467276
 20
-674.8480816867528
 30
0.0
 11
-978.6008542927604
 21
-674.8480816867527
 31
0.0
  0
ELLIPSE
  5
487E
330
1A
100
AcDbEntity
  8
PEN50
100
AcDbEllipse
 10
88.31931876765324
 20
-274.426931449097
 30
0.0
 11
-33.61873736789519
 21
13.48263395386031
 31
0.0
210
0.0
220
0.0
230
1.0
 40
0.8744281980668009
 41
-0.3359502512729835
 42
0.8577716076904536
  0
VIEWPORT
  5
22
330
17
100
AcDbEntity
 67
     1
  8
0
100
AcDbViewport
 10
214.9967557066107
 20
149.1562747002399
 30
0.0
 40
470.5468152734829
 41
280.929992777019
 68
     1
 69
     1
1001
ACAD
1000
MVIEW
1002
{
1070
    16
1010
0.0
1020
0.0
1030
0.0
1010
0.0
1020
0.0
1030
1.0
1040
0.0
1040
280.929992777019
1040
214.9967557066107
1040
149.1562747002399
1040
50.0
1040
0.0
1040
0.0
1070
     0
1070
     0
1070
     1
1070
     1
1070
     0
1070
     0
1070
     0
1070
     0
1040
0.0
1040
0.0
1040
0.0
1040
1.0
1040
1.0
1040
10.0
1040
10.0
1070
     0
1002
{
1002
}
1002
}
  0
VIEWPORT
  5
DC
330
17
100
AcDbEntity
 67
     1
  8
VIEWPORT
100
AcDbViewport
 10
215.00017410699
 20
149.1544156702888
 30
0.0
 40
404.6764726238505
 41
278.3088313405777
 68
     2
 69
     2
1001
ACAD
1000
MVIEW
1002
{
1070
    16
1010
0.0
1020
0.0
1030
0.0
1010
0.0
1020
0.0
1030
1.0
1040
0.0
1040
2748.390293230199
1040
325.8306552272078
1040
293.2643725856763
1040
50.0
1040
0.0
1040
0.0
1070
     0
1070
   100
1070
     1
1070
     1
1070
     0
1070
     0
1070
     0
1070
     0
1040
0.0
1040
0.0
1040
0.0
1040
1.0
1040
1.0
1040
10.0
1040
10.0
1070
     0
1002
{
1002
}
1002
}
  0
LWPOLYLINE
  5
DD
330
17
100
AcDbEntity
 67
     1
  8
KADER
100
AcDbPolyline
 90
        4
 70
     1
 43
0.0
 10
12.66193779506477
 20
10.0
 10
417.3384104189152
 20
10.0
 10
417.3384104189152
 20
288.3088313405777
 10
12.66193779506477
 20
288.3088313405777
  0
ENDSEC
  0
SECTION
  2
OBJECTS
  0
DICTIONARY
  5
C
330
0
100
AcDbDictionary
  3
ACAD_GROUP
350
D
  3
ACAD_LAYOUT
350
448B
  3
ACAD_MLINESTYLE
350
E
  3
ACAD_PLOTSETTINGS
350
448C
  3
ACAD_PLOTSTYLENAME
350
4489
  3
ACDBHEADERROUNDTRIPXREC
350
4D7C
  3
ACDBVARIABLEDICTIONARY
350
5D
  0
DICTIONARY
  5
45D0
330
2
100
AcDbDictionary
280
     1
  3
ACAD_LAYERSTATES
360
45D1
  0
DICTIONARY
  5
44B5
330
1A
100
AcDbDictionary
280
     1
  3
ACAD_LAYOUTSELFREF
360
4D9D
  0
DICTIONARY
  5
44B3
330
17
100
AcDbDictionary
280
     1
  3
ACAD_LAYOUTSELFREF
360
4D9C
  0
DICTIONARY
  5
D
102
{ACAD_REACTORS
330
C
102
}
330
C
100
AcDbDictionary
  0
DICTIONARY
  5
448B
102
{ACAD_REACTORS
330
C
102
}
330
C
100
AcDbDictionary
  0
DICTIONARY
  5
E
102
{ACAD_REACTORS
330
C
102
}
330
C
100
AcDbDictionary
  3
STANDARD
350
13
  0
DICTIONARY
  5
448C
102
{ACAD_REACTORS
330
C
102
}
330
C
100
AcDbDictionary
  0
ACDBDICTIONARYWDFLT
  5
4489
102
{ACAD_REACTORS
330
C
102
}
330
C
100
AcDbDictionary
281
     1
  3
Normal
350
448A
100
AcDbDictionaryWithDefault
340
448A
  0
DICTIONARY
  5
4D7C
102
{ACAD_REACTORS
330
C
102
}
330
C
100
AcDbDictionary
  3
CEPSNTYPE
350
4D86
  3
FINGERPRINTGUID
350
4D87
  3
HYPERLINKBASE
350
4D7F
  3
INSUNITS
350
4D85
  3
LAYOUTDICT
350
4D81
  3
LWETCUNION
350
4D84
  3
PLOTSETDICT
350
4D82
  3
PLOTSTYLNAMDICT
350
4D83
  3
PSVPSCALE
350
4D89
  3
PUCSBASE
350
4D8C
  3
PUCSORGBACK
350
4D92
  3
PUCSORGBOTTOM
350
4D8E
  3
PUCSORGFRONT
350
4D91
  3
PUCSORGLEFT
350
4D8F
  3
PUCSORGRIGHT
350
4D90
  3
PUCSORGTOP
350
4D8D
  3
PUCSORTHOREF
350
4D8A
  3
PUCSORTHOVIEW
350
4D8B
  3
STYLESHEET
350
4D80
  3
TSTACKALIGN
350
4D7D
  3
TSTACKSIZE
350
4D7E
  3
UCSBASE
350
4D95
  3
UCSORGBACK
350
4D9B
  3
UCSORGBOTTOM
350
4D97
  3
UCSORGFRONT
350
4D9A
  3
UCSORGLEFT
350
4D98
  3
UCSORGRIGHT
350
4D99
  3
UCSORGTOP
350
4D96
  3
UCSORTHOREF
350
4D93
  3
UCSORTHOVIEW
350
4D94
  3
VERSIONGUID
350
4D88
  0
DICTIONARY
  5
5D
102
{ACAD_REACTORS
330
C
102
}
330
C
100
AcDbDictionary
  3
DIMADEC
350
5E
  3
DIMASSOC
350
44D1
  3
SORTENTS
350
3CBE
  0
DICTIONARY
  5
45D1
102
{ACAD_REACTORS
330
45D0
102
}
330
45D0
100
AcDbDictionary
  0
XRECORD
  5
4D9D
102
{ACAD_REACTORS
330
44B5
102
}
330
44B5
100
AcDbXrecord
340
1A
  0
XRECORD
  5
4D9C
102
{ACAD_REACTORS
330
44B3
102
}
330
44B3
100
AcDbXrecord
340
17
  0
MLINESTYLE
  5
13
102
{ACAD_REACTORS
330
E
102
}
330
E
100
AcDbMlineStyle
  2
STANDARD
 70
     0
  3

 62
     0
 51
90.0
 52
90.0
 71
     2
 49
0.5
 62
   256
  6
BYLAYER
 49
-0.5
 62
   256
  6
BYLAYER
  0
ACDBPLACEHOLDER
  5
448A
102
{ACAD_REACTORS
330
4489
102
}
330
4489
100
AcDbPlaceHolder
280
     0
  0
XRECORD
  5
4D86
102
{ACAD_REACTORS
330
4D7C
102
}
330
4D7C
100
AcDbXrecord
 90
        0
  0
XRECORD
  5
4D87
102
{ACAD_REACTORS
330
4D7C
102
}
330
4D7C
100
AcDbXrecord
  1
{C222935A-A96F-4CC0-9F48-62D4D8276FA3}
  0
XRECORD
  5
4D7F
102
{ACAD_REACTORS
330
4D7C
102
}
330
4D7C
100
AcDbXrecord
  1

  0
XRECORD
  5
4D85
102
{ACAD_REACTORS
330
4D7C
102
}
330
4D7C
100
AcDbXrecord
 90
        0
  0
XRECORD
  5
4D81
102
{ACAD_REACTORS
330
4D7C
102
}
330
4D7C
100
AcDbXrecord
340
448B
  0
XRECORD
  5
4D84
102
{ACAD_REACTORS
330
4D7C
102
}
330
4D7C
100
AcDbXrecord
 90
    14877
  0
XRECORD
  5
4D82
102
{ACAD_REACTORS
330
4D7C
102
}
330
4D7C
100
AcDbXrecord
340
448C
  0
XRECORD
  5
4D83
102
{ACAD_REACTORS
330
4D7C
102
}
330
4D7C
100
AcDbXrecord
340
4489
  0
XRECORD
  5
4D89
102
{ACAD_REACTORS
330
4D7C
102
}
330
4D7C
100
AcDbXrecord
 40
0.0
  0
XRECORD
  5
4D8C
102
{ACAD_REACTORS
330
4D7C
102
}
330
4D7C
100
AcDbXrecord
340
0
  0
XRECORD
  5
4D92
102
{ACAD_REACTORS
330
4D7C
102
}
330
4D7C
100
AcDbXrecord
 10
0.0
 20
0.0
 30
0.0
  0
XRECORD
  5
4D8E
102
{ACAD_REACTORS
330
4D7C
102
}
330
4D7C
100
AcDbXrecord
 10
0.0
 20
0.0
 30
0.0
  0
XRECORD
  5
4D91
102
{ACAD_REACTORS
330
4D7C
102
}
330
4D7C
100
AcDbXrecord
 10
0.0
 20
0.0
 30
0.0
  0
XRECORD
  5
4D8F
102
{ACAD_REACTORS
330
4D7C
102
}
330
4D7C
100
AcDbXrecord
 10
0.0
 20
0.0
 30
0.0
  0
XRECORD
  5
4D90
102
{ACAD_REACTORS
330
4D7C
102
}
330
4D7C
100
AcDbXrecord
 10
0.0
 20
0.0
 30
0.0
  0
XRECORD
  5
4D8D
102
{ACAD_REACTORS
330
4D7C
102
}
330
4D7C
100
AcDbXrecord
 10
0.0
 20
0.0
 30
0.0
  0
XRECORD
  5
4D8A
102
{ACAD_REACTORS
330
4D7C
102
}
330
4D7C
100
AcDbXrecord
340
0
  0
XRECORD
  5
4D8B
102
{ACAD_REACTORS
330
4D7C
102
}
330
4D7C
100
AcDbXrecord
 70
     0
  0
XRECORD
  5
4D80
102
{ACAD_REACTORS
330
4D7C
102
}
330
4D7C
100
AcDbXrecord
  1

  0
XRECORD
  5
4D7D
102
{ACAD_REACTORS
330
4D7C
102
}
330
4D7C
100
AcDbXrecord
 90
        1
  0
XRECORD
  5
4D7E
102
{ACAD_REACTORS
330
4D7C
102
}
330
4D7C
100
AcDbXrecord
 90
       70
  0
XRECORD
  5
4D95
102
{ACAD_REACTORS
330
4D7C
102
}
330
4D7C
100
AcDbXrecord
340
0
  0
XRECORD
  5
4D9B
102
{ACAD_REACTORS
330
4D7C
102
}
330
4D7C
100
AcDbXrecord
 10
0.0
 20
0.0
 30
0.0
  0
XRECORD
  5
4D97
102
{ACAD_REACTORS
330
4D7C
102
}
330
4D7C
100
AcDbXrecord
 10
0.0
 20
0.0
 30
0.0
  0
XRECORD
  5
4D9A
102
{ACAD_REACTORS
330
4D7C
102
}
330
4D7C
100
AcDbXrecord
 10
0.0
 20
0.0
 30
0.0
  0
XRECORD
  5
4D98
102
{ACAD_REACTORS
330
4D7C
102
}
330
4D7C
100
AcDbXrecord
 10
0.0
 20
0.0
 30
0.0
  0
XRECORD
  5
4D99
102
{ACAD_REACTORS
330
4D7C
102
}
330
4D7C
100
AcDbXrecord
 10
0.0
 20
0.0
 30
0.0
  0
XRECORD
  5
4D96
102
{ACAD_REACTORS
330
4D7C
102
}
330
4D7C
100
AcDbXrecord
 10
0.0
 20
0.0
 30
0.0
  0
XRECORD
  5
4D93
102
{ACAD_REACTORS
330
4D7C
102
}
330
4D7C
100
AcDbXrecord
340
0
  0
XRECORD
  5
4D94
102
{ACAD_REACTORS
330
4D7C
102
}
330
4D7C
100
AcDbXrecord
 70
     0
  0
XRECORD
  5
4D88
102
{ACAD_REACTORS
330
4D7C
102
}
330
4D7C
100
AcDbXrecord
  1
{756AC577-7117-487D-B0BB-EFEF39A322F9}
  0
DICTIONARYVAR
  5
5E
102
{ACAD_REACTORS
330
5D
102
}
330
5D
100
DictionaryVariables
280
     0
  1
0
  0
DICTIONARYVAR
  5
44D1
102
{ACAD_REACTORS
330
5D
102
}
330
5D
100
DictionaryVariables
280
     0
  1
1
  0
DICTIONARYVAR
  5
3CBE
102
{ACAD_REACTORS
330
5D
102
}
330
5D
100
DictionaryVariables
280
     0
  1
96
  0
ENDSEC
  0
EOF
