  0
SECTION
  2
HEADER
  9
$ACADVER
  1
AC1014
  9
$ACADMAINTVER
 70
     9
  9
$DWGCODEPAGE
  3
ANSI_1250
  9
$INSBASE
 10
0.0
 20
0.0
 30
0.0
  9
$EXTMIN
 10
4.320403566824621
 20
7.039188207935742
 30
0.0
  9
$EXTMAX
 10
15.49417410356789
 20
18.21295874467899
 30
0.0
  9
$LIMMIN
 10
0.0
 20
0.0
  9
$LIMMAX
 10
0.0
 20
0.0
  9
$ORTHOMODE
 70
     0
  9
$REGENMODE
 70
     1
  9
$FILLMODE
 70
     1
  9
$QTEXTMODE
 70
     0
  9
$MIRRTEXT
 70
     1
  9
$DRAGMODE
 70
     2
  9
$LTSCALE
 40
1.0
  9
$OSMODE
 70
  3007
  9
$ATTMODE
 70
     1
  9
$TEXTSIZE
 40
2.5
  9
$TRACEWID
 40
1.0
  9
$TEXTSTYLE
  7
STANDARD
  9
$CLAYER
  8
0
  9
$CELTYPE
  6
BYLAYER
  9
$CECOLOR
 62
   256
  9
$CELTSCALE
 40
1.0
  9
$DELOBJ
 70
     1
  9
$DISPSILH
 70
     0
  9
$DIMSCALE
 40
1.0
  9
$DIMASZ
 40
0.3
  9
$DIMEXO
 40
0.01
  9
$DIMDLI
 40
3.75
  9
$DIMRND
 40
0.0
  9
$DIMDLE
 40
0.0
  9
$DIMEXE
 40
0.1
  9
$DIMTP
 40
0.0
  9
$DIMTM
 40
0.0
  9
$DIMTXT
 40
0.2822222222222222
  9
$DIMCEN
 40
2.5
  9
$DIMTSZ
 40
0.0
  9
$DIMTOL
 70
     0
  9
$DIMLIM
 70
     0
  9
$DIMTIH
 70
     1
  9
$DIMTOH
 70
     1
  9
$DIMSE1
 70
     0
  9
$DIMSE2
 70
     0
  9
$DIMTAD
 70
     1
  9
$DIMZIN
 70
     0
  9
$DIMBLK
  1

  9
$DIMASO
 70
     1
  9
$DIMSHO
 70
     1
  9
$DIMPOST
  1

  9
$DIMAPOST
  1

  9
$DIMALT
 70
     0
  9
$DIMALTD
 70
     3
  9
$DIMALTF
 40
0.3937007874015748
  9
$DIMLFAC
 40
10.0
  9
$DIMTOFL
 70
     1
  9
$DIMTVP
 40
0.0
  9
$DIMTIX
 70
     0
  9
$DIMSOXD
 70
     0
  9
$DIMSAH
 70
     0
  9
$DIMBLK1
  1

  9
$DIMBLK2
  1

  9
$DIMSTYLE
  2
ISO-25
  9
$DIMCLRD
 70
     0
  9
$DIMCLRE
 70
     0
  9
$DIMCLRT
 70
     0
  9
$DIMTFAC
 40
1.0
  9
$DIMGAP
 40
0.1524
  9
$DIMJUST
 70
     0
  9
$DIMSD1
 70
     0
  9
$DIMSD2
 70
     0
  9
$DIMTOLJ
 70
     0
  9
$DIMTZIN
 70
     0
  9
$DIMALTZ
 70
     0
  9
$DIMALTTZ
 70
     0
  9
$DIMFIT
 70
     3
  9
$DIMUPT
 70
     0
  9
$DIMUNIT
 70
     2
  9
$DIMDEC
 70
     2
  9
$DIMTDEC
 70
     2
  9
$DIMALTU
 70
     2
  9
$DIMALTTD
 70
     3
  9
$DIMTXSTY
  7
STANDARD
  9
$DIMAUNIT
 70
     0
  9
$LUNITS
 70
     2
  9
$LUPREC
 70
     2
  9
$SKETCHINC
 40
1.0
  9
$FILLETRAD
 40
10.0
  9
$AUNITS
 70
     0
  9
$AUPREC
 70
     0
  9
$MENU
  1
.
  9
$ELEVATION
 40
0.0
  9
$PELEVATION
 40
0.0
  9
$THICKNESS
 40
0.0
  9
$LIMCHECK
 70
     0
  9
$BLIPMODE
 70
     0
  9
$CHAMFERA
 40
10.0
  9
$CHAMFERB
 40
10.0
  9
$CHAMFERC
 40
20.0
  9
$CHAMFERD
 40
0.0
  9
$SKPOLY
 70
     0
  9
$TDCREATE
 40
2453966.348596273
  9
$TDUPDATE
 40
2453966.356680949
  9
$TDINDWG
 40
0.0018880324
  9
$TDUSRTIMER
 40
0.0018880324
  9
$USRTIMER
 70
     1
  9
$ANGBASE
 50
0.0
  9
$ANGDIR
 70
     0
  9
$PDMODE
 70
     0
  9
$PDSIZE
 40
-1.0
  9
$PLINEWID
 40
0.0
  9
$COORDS
 70
     2
  9
$SPLFRAME
 70
     0
  9
$SPLINETYPE
 70
     6
  9
$SPLINESEGS
 70
     8
  9
$ATTDIA
 70
     0
  9
$ATTREQ
 70
     1
  9
$HANDLING
 70
 22529
  9
$HANDSEED
  5
1BE
  9
$SURFTAB1
 70
     6
  9
$SURFTAB2
 70
     6
  9
$SURFTYPE
 70
     6
  9
$SURFU
 70
     6
  9
$SURFV
 70
     6
  9
$UCSNAME
  2

  9
$UCSORG
 10
0.0
 20
0.0
 30
0.0
  9
$UCSXDIR
 10
1.0
 20
0.0
 30
0.0
  9
$UCSYDIR
 10
0.0
 20
1.0
 30
0.0
  9
$PUCSNAME
  2

  9
$PUCSORG
 10
0.0
 20
0.0
 30
0.0
  9
$PUCSXDIR
 10
1.0
 20
0.0
 30
0.0
  9
$PUCSYDIR
 10
0.0
 20
1.0
 30
0.0
  9
$USERI1
 70
     0
  9
$USERI2
 70
     0
  9
$USERI3
 70
     0
  9
$USERI4
 70
     0
  9
$USERI5
 70
     0
  9
$USERR1
 40
0.0
  9
$USERR2
 40
0.0
  9
$USERR3
 40
0.0
  9
$USERR4
 40
0.0
  9
$USERR5
 40
0.0
  9
$WORLDVIEW
 70
     1
  9
$SHADEDGE
 70
     3
  9
$SHADEDIF
 70
    70
  9
$TILEMODE
 70
     1
  9
$MAXACTVP
 70
    48
  9
$PINSBASE
 10
0.0
 20
0.0
 30
0.0
  9
$PLIMCHECK
 70
     0
  9
$PEXTMIN
 10
1.000000000000000E+20
 20
1.000000000000000E+20
 30
1.000000000000000E+20
  9
$PEXTMAX
 10
-1.000000000000000E+20
 20
-1.000000000000000E+20
 30
-1.000000000000000E+20
  9
$PLIMMIN
 10
0.0
 20
0.0
  9
$PLIMMAX
 10
420.0
 20
297.0
  9
$UNITMODE
 70
     0
  9
$VISRETAIN
 70
     1
  9
$PLINEGEN
 70
     0
  9
$PSLTSCALE
 70
     1
  9
$TREEDEPTH
 70
  3020
  9
$PICKSTYLE
 70
     1
  9
$CMLSTYLE
  2
STANDARD
  9
$CMLJUST
 70
     0
  9
$CMLSCALE
 40
20.0
  9
$PROXYGRAPHICS
 70
     1
  9
$MEASUREMENT
 70
     1
  0
ENDSEC
  0
SECTION
  2
CLASSES
  0
CLASS
  1
ACDBDICTIONARYWDFLT
  2
AcDbDictionaryWithDefault
  3
AutoCAD 2000
 90
        0
280
     0
281
     0
  0
CLASS
  1
ACDBPLACEHOLDER
  2
AcDbPlaceHolder
  3
AutoCAD 2000
 90
        0
280
     0
281
     0
  0
CLASS
  1
LAYOUT
  2
AcDbLayout
  3
AutoCAD 2000
 90
        0
280
     0
281
     0
  0
CLASS
  1
DICTIONARYVAR
  2
AcDbDictionaryVar
  3
AutoCAD 2000
 90
        0
280
     0
281
     0
  0
CLASS
  1
LONG_TRANSACTION
  2
AcDbLongTransaction
  3
AutoCAD 2000
 90
        0
280
     0
281
     0
  0
CLASS
  1
LWPOLYLINE
  2
AcDbPolyline
  3
AutoCAD 2000
 90
        0
280
     0
281
     1
  0
CLASS
  1
HATCH
  2
AcDbHatch
  3
AutoCAD 2000
 90
        0
280
     0
281
     1
  0
CLASS
  1
XRECORD
  2
AcDbXrecord
  3
AutoCAD 2000
 90
        0
280
     0
281
     0
  0
CLASS
  1
LONG_TRANSACTION
  2
AcDbLongTransaction
  3
AutoCAD 2000
 90
        0
280
     0
281
     0
  0
CLASS
  1
LWPOLYLINE
  2
AcDbPolyline
  3
AutoCAD 2000
 90
        0
280
     0
281
     1
  0
CLASS
  1
HATCH
  2
AcDbHatch
  3
AutoCAD 2000
 90
        0
280
     0
281
     1
  0
CLASS
  1
XRECORD
  2
AcDbXrecord
  3
AutoCAD 2000
 90
        0
280
     0
281
     0
  0
ENDSEC
  0
SECTION
  2
TABLES
  0
TABLE
  2
VPORT
  5
8
330
0
100
AcDbSymbolTable
 70
     2
  0
VPORT
  5
199
330
8
100
AcDbSymbolTableRecord
100
AcDbViewportTableRecord
  2
*ACTIVE
 70
     0
 10
0.0
 20
0.0
 11
1.0
 21
1.0
 12
9.90800635001856
 22
12.62608342539296
 13
0.0
 23
0.0
 14
10.0
 24
10.0
 15
10.0
 25
10.0
 16
0.0
 26
0.0
 36
1.0
 17
0.0
 27
0.0
 37
0.0
 40
11.2826764003911
 41
1.674961119751166
 42
50.0
 43
0.0
 44
0.0
 50
0.0
 51
0.0
 71
     0
 72
  2000
 73
     1
 74
     3
 75
     0
 76
     0
 77
     0
 78
     0
  0
ENDTAB
  0
TABLE
  2
LTYPE
  5
5
330
0
100
AcDbSymbolTable
 70
     1
  0
LTYPE
  5
14
330
5
100
AcDbSymbolTableRecord
100
AcDbLinetypeTableRecord
  2
BYBLOCK
 70
     0
  3

 72
    65
 73
     0
 40
0.0
  0
LTYPE
  5
15
330
5
100
AcDbSymbolTableRecord
100
AcDbLinetypeTableRecord
  2
BYLAYER
 70
     0
  3

 72
    65
 73
     0
 40
0.0
  0
LTYPE
  5
16
330
5
100
AcDbSymbolTableRecord
100
AcDbLinetypeTableRecord
  2
CONTINUOUS
 70
     0
  3
Solid line
 72
    65
 73
     0
 40
0.0
  0
ENDTAB
  0
TABLE
  2
LAYER
  5
2
330
0
100
AcDbSymbolTable
 70
     1
  0
LAYER
  5
10
330
2
100
AcDbSymbolTableRecord
100
AcDbLayerTableRecord
  2
0
 70
     0
 62
     7
  6
CONTINUOUS
  0
ENDTAB
  0
TABLE
  2
STYLE
  5
3
330
0
100
AcDbSymbolTable
 70
     1
  0
STYLE
  5
11
330
3
100
AcDbSymbolTableRecord
100
AcDbTextStyleTableRecord
  2
STANDARD
 70
     0
 40
0.0
 41
1.0
 50
0.0
 71
     0
 42
2.5
  3
ARIAL.TTF
  4

1001
ACAD
1000
Arial
1071
       34
  0
ENDTAB
  0
TABLE
  2
VIEW
  5
6
330
0
100
AcDbSymbolTable
 70
     0
  0
ENDTAB
  0
TABLE
  2
UCS
  5
7
330
0
100
AcDbSymbolTable
 70
     0
  0
ENDTAB
  0
TABLE
  2
APPID
  5
9
330
0
100
AcDbSymbolTable
 70
     1
  0
APPID
  5
12
330
9
100
AcDbSymbolTableRecord
100
AcDbRegAppTableRecord
  2
ACAD
 70
     0
  0
ENDTAB
  0
TABLE
  2
DIMSTYLE
  5
A
330
0
100
AcDbSymbolTable
 70
     1
  0
DIMSTYLE
105
27
330
A
100
AcDbSymbolTableRecord
100
AcDbDimStyleTableRecord
  2
ISO-25
 70
     0
  3

  4

  5

  6

  7

 40
1.0
 41
2.5
 42
0.625
 43
3.75
 44
1.25
 45
0.0
 46
0.0
 47
0.0
 48
0.0
140
2.5
141
2.5
142
0.0
143
0.03937007874016
144
1.0
145
0.0
146
1.0
147
0.625
 71
     0
 72
     0
 73
     0
 74
     0
 75
     0
 76
     0
 77
     1
 78
     8
170
     0
171
     3
172
     1
173
     0
174
     0
175
     0
176
     0
177
     0
178
     0
270
     2
271
     2
272
     2
273
     2
274
     3
340
11
275
     0
280
     0
281
     0
282
     0
283
     0
284
     8
285
     0
286
     0
287
     3
288
     0
  0
ENDTAB
  0
TABLE
  2
BLOCK_RECORD
  5
1
330
0
100
AcDbSymbolTable
 70
     1
  0
BLOCK_RECORD
  5
1F
102
{ACAD_XDICTIONARY
360
15C
102
}
330
1
100
AcDbSymbolTableRecord
100
AcDbBlockTableRecord
  2
*MODEL_SPACE
  0
BLOCK_RECORD
  5
1B
102
{ACAD_XDICTIONARY
360
15E
102
}
330
1
100
AcDbSymbolTableRecord
100
AcDbBlockTableRecord
  2
*PAPER_SPACE
  0
ENDTAB
  0
ENDSEC
  0
SECTION
  2
BLOCKS
  0
BLOCK
  5
20
330
1F
100
AcDbEntity
  8
0
100
AcDbBlockBegin
  2
*MODEL_SPACE
 70
     0
 10
0.0
 20
0.0
 30
0.0
  3
*MODEL_SPACE
  1

  0
ENDBLK
  5
21
330
1F
100
AcDbEntity
  8
0
100
AcDbBlockEnd
  0
BLOCK
  5
1C
330
1B
100
AcDbEntity
 67
     1
  8
0
100
AcDbBlockBegin
  2
*PAPER_SPACE
 70
     0
 10
0.0
 20
0.0
 30
0.0
  3
*PAPER_SPACE
  1

  0
ENDBLK
  5
1D
330
1B
100
AcDbEntity
 67
     1
  8
0
100
AcDbBlockEnd
  0
ENDSEC
  0
SECTION
  2
ENTITIES
  0
LWPOLYLINE
  5
104
330
1F
100
AcDbEntity
  8
0
  6
CONTINUOUS
 62
     7
100
AcDbPolyline
 90
       17
 70
   128
 43
0.0
 10
13.63032607578571
 20
17.3296491622225
 10
13.62964484179186
 20
17.3487172563119
 10
13.62714537713611
 20
17.36767212991063
 10
13.62268784936786
 20
17.38620317439668
 10
13.61789711433447
 20
17.39981829630662
 10
13.61183794660299
 20
17.41299222914267
 10
13.60454892566375
 20
17.42551466695977
 10
13.59606863100704
 20
17.43717530381284
 10
13.58472934706319
 20
17.44948524507256
 10
13.57193885758133
 20
17.46037834646141
 10
13.55799400363635
 20
17.46964085530974
 10
13.54417789617492
 20
17.47670458181291
 10
13.52967581986273
 20
17.48234639866793
 10
13.51473407129855
 20
17.48657208483864
 10
13.49949105927576
 20
17.48943494309694
 10
13.48403508795266
 20
17.49103522857548
 10
13.46852267691079
 20
17.49145256109757
  0
LWPOLYLINE
  5
105
330
1F
100
AcDbEntity
  8
0
  6
CONTINUOUS
 62
     7
100
AcDbPolyline
 90
       12
 70
   128
 43
0.0
 10
13.65188797861714
 20
13.69724439840771
 10
13.64290066830376
 20
14.37593267282169
 10
13.63464390739643
 20
15.05464722518741
 10
13.63168720350379
 20
15.32616587982881
 10
13.62909676245619
 20
15.59769938052817
 10
13.62704672187994
 20
15.86924457689537
 10
13.62571121940138
 20
16.1407983185403
 10
13.62526439264682
 20
16.41235745507282
 10
13.62566483694845
 20
16.64168355489667
 10
13.62671460942651
 20
16.87100394854331
 10
13.62831042552769
 20
17.10033123308721
 10
13.63032607578578
 20
17.3296491622225
  0
LWPOLYLINE
  5
106
330
1F
100
AcDbEntity
  8
0
  6
CONTINUOUS
 62
     7
100
AcDbPolyline
 90
       73
 70
   128
 43
0.0
 10
8.836117913095915
 20
8.801150171270128
 10
8.939052605971564
 20
8.802905036805389
 10
9.041961496450779
 20
8.806839856862163
 10
9.144775512161873
 20
8.812950746393802
 10
9.247425580733159
 20
8.821233820353668
 10
9.349842629792954
 20
8.831685193695125
 10
9.452015015156007
 20
8.844306241512246
 10
9.55393126813364
 20
8.859093458648123
 10
9.655523036453505
 20
8.876035691200865
 10
9.756721967843263
 20
8.895121785268599
 10
9.857459710030568
 20
8.916340586949447
 10
9.962420733613972
 20
8.940841365367621
 10
10.06685062447241
 20
8.967674933333928
 10
10.17067268798587
 20
8.996820074985398
 10
10.27381022953434
 20
9.028255574459073
 10
10.37618655449779
 20
9.061960215891989
 10
10.47749017765992
 20
9.097823580502195
 10
10.57801176426047
 20
9.135934767891532
 10
10.67767798031653
 20
9.176264453491933
 10
10.77641549184517
 20
9.218783312735338
 10
10.87415096486345
 20
9.263462021053683
 10
10.97087127569399
 20
9.310297998279478
 10
11.06656526261915
 20
9.359283159426896
 10
11.16116317029039
 20
9.410380221870227
 10
11.25459524335917
 20
9.463551902983782
 10
11.34679172647697
 20
9.518760920141863
 10
11.44239835097823
 20
9.579012159208787
 10
11.53661235031629
 20
9.64150154675643
 10
11.62935791075669
 20
9.706176741917072
 10
11.72055921856496
 20
9.772985403822993
 10
11.81014046000665
 20
9.841875191606479
 10
11.89364546380172
 20
9.909173384103073
 10
11.97566960386759
 20
9.978329656007105
 10
12.05615345602288
 20
10.04929213599532
 10
12.13503759608624
 20
10.1220089527445
 10
12.21226259987631
 20
10.19642823493137
 10
12.28781694495842
 20
10.27254329180478
 10
12.36169270366451
 20
10.35034281220186
 10
12.43383644444028
 20
10.42976858583448
 10
12.50419473573141
 20
10.5107624024145
 10
12.57271414598357
 20
10.5932660516538
 10
12.64277651615223
 20
10.68165091037053
 10
12.71078523423188
 20
10.7716829680128
 10
12.77668612248587
 20
10.86328777873009
 10
12.8404250031775
 20
10.95639089667187
 10
12.90194769857012
 20
11.0509178759876
 10
12.95824560220196
 20
11.14188586476708
 10
13.01253444683767
 20
11.23411239853664
 10
13.06477541550494
 20
11.32752898565119
 10
13.1149296912315
 20
11.42206713446566
 10
13.16295845704505
 20
11.51765835333495
 10
13.20885304606928
 20
11.61429259180613
 10
13.25260966974986
 20
11.71195655246966
 10
13.29419724954864
 20
11.81057773477105
 10
13.33358470692744
 20
11.9100836381558
 10
13.3707409633481
 20
12.0104017620694
 10
13.40740191018171
 20
12.11676889979023
 10
13.44158368029866
 20
12.22400651565707
 10
13.47325986386254
 20
12.33202653755636
 10
13.50240405103689
 20
12.44074089337459
 10
13.52898983198528
 20
12.5500615109982
 10
13.54955386637049
 20
12.64336512596766
 10
13.56826669091609
 20
12.7370766131282
 10
13.58511746412787
 20
12.83114061496391
 10
13.60009534451163
 20
12.92550177395883
 10
13.61319575698607
 20
13.02014187758722
 10
13.62441703431655
 20
13.11504197704472
 10
13.63375274655606
 20
13.21014594545731
 10
13.64119646375758
 20
13.30539765595099
 10
13.64686337671074
 20
13.40324728365305
 10
13.65053563474558
 20
13.50121231755716
 10
13.65221118600132
 20
13.59923170627237
 10
13.65188797861714
 20
13.69724439840771
  0
LWPOLYLINE
  5
107
330
1F
100
AcDbEntity
  8
0
  6
CONTINUOUS
 62
     7
100
AcDbPolyline
 90
        5
 70
   128
 43
0.0
 10
5.069494089800171
 20
8.768817176236989
 10
6.011113326782821
 20
8.778163950115168
 10
6.952752895181768
 20
8.786770074531149
 10
7.894423797028525
 20
8.794489705929194
 10
8.836117913095915
 20
8.801150171270128
  0
LWPOLYLINE
  5
108
330
1F
100
AcDbEntity
  8
0
  6
CONTINUOUS
 62
     7
100
AcDbPolyline
 90
       17
 70
   128
 43
0.0
 10
4.907690690925183
 20
8.930620575111976
 10
4.90835652380928
 20
8.911556854326175
 10
4.910838518302189
 20
8.892604708299893
 10
4.91527748518293
 20
8.874074230501653
 10
4.920054363422321
 20
8.860457299499705
 10
4.926100359502567
 20
8.847280376783681
 10
4.933377394229779
 20
8.834754273751487
 10
4.941847388410064
 20
8.823089801801039
 10
4.953168620273191
 20
8.810784139184047
 10
4.96594162585365
 20
8.799894169822348
 10
4.979869549296493
 20
8.790634005599912
 10
4.993659314042635
 20
8.783576769925513
 10
5.008134291544248
 20
8.777938450015712
 10
5.023048635015966
 20
8.773713115802488
 10
5.038368080406878
 20
8.770832368294927
 10
5.053902882931033
 20
8.769227485772987
 10
5.069494089800171
 20
8.768817176236986
  0
LWPOLYLINE
  5
109
330
1F
100
AcDbEntity
  8
0
  6
CONTINUOUS
 62
     7
100
AcDbPolyline
 90
       11
 70
   128
 43
0.0
 10
4.951592129927223
 20
17.41996678270139
 10
4.952512978301633
 20
16.66840043838096
 10
4.952336532832912
 20
15.91682940738419
 10
4.951096456156886
 20
15.16525986812375
 10
4.948826410909386
 20
14.41369799901228
 10
4.945560059726241
 20
13.66214997846245
 10
4.940190381719411
 20
12.72263132176842
 10
4.933581507421255
 20
11.78313352954392
 10
4.92590729424105
 20
10.84365813092808
 10
4.917341599588072
 20
9.90420665506001
 10
4.907690690925183
 20
8.930620575111976
  0
LWPOLYLINE
  5
10A
330
1F
100
AcDbEntity
  8
0
  6
CONTINUOUS
 62
     7
100
AcDbPolyline
 90
       17
 70
   128
 43
0.0
 10
5.115412942556202
 20
17.57975276782239
 10
5.096018448276486
 20
17.57915482231893
 10
5.076730339040301
 20
17.57670688080742
 10
5.057864659701635
 20
17.57226237020872
 10
5.04399347479581
 20
17.56744893769275
 10
5.030567888007304
 20
17.56133529289785
 10
5.017806751699245
 20
17.55395821025691
 10
5.005928918234755
 20
17.54535446420285
 10
4.993493581259225
 20
17.53391939792123
 10
4.982497660320454
 20
17.52100774599071
 10
4.973163743500299
 20
17.50692128577124
 10
4.9661175329009
 20
17.49307237945642
 10
4.960502466089595
 20
17.47853636380404
 10
4.956314232947836
 20
17.46356142818189
 10
4.953627241782386
 20
17.44917632934751
 10
4.952075408691555
 20
17.4345998627604
 10
4.951592129927223
 20
17.41996678270139
  0
LWPOLYLINE
  5
10B
330
1F
100
AcDbEntity
  8
0
  6
CONTINUOUS
 62
     7
100
AcDbPolyline
 90
       15
 70
   128
 43
0.0
 10
13.46852267691079
 20
17.49145256109757
 10
13.12193381440917
 20
17.48856045763405
 10
12.77532468314211
 20
17.48677196750036
 10
12.54420581960592
 20
17.48640434430197
 10
12.31308515216066
 20
17.48673619896911
 10
12.08197120983887
 20
17.4877280178919
 10
11.66867933380449
 20
17.49072061829092
 10
11.2554123766541
 20
17.49481235651566
 10
10.84216542076395
 20
17.49969507832563
 10
10.42893354851033
 20
17.50506062948035
 10
10.01571184226951
 20
17.51060085573934
 10
8.982721562395726
 20
17.52472012612085
 10
7.949747312922952
 20
17.53924189024073
 10
5.883395904115405
 20
17.56872014437615
 10
5.115412942556202
 20
17.57975276782239
  0
CIRCLE
  5
10C
330
1F
100
AcDbEntity
  8
0
  6
CONTINUOUS
 62
     7
100
AcDbCircle
 10
12.5361179130959
 20
16.39724439840771
 30
0.0
 40
0.5999999999999979
  0
ARC
  5
10D
330
1F
100
AcDbEntity
  8
0
  6
CONTINUOUS
 62
     7
100
AcDbCircle
 10
8.836117913095915
 20
13.69724439840771
 30
0.0
 40
4.992272954677407
100
AcDbArc
 50
270.0000000000008
 51
0.0
  0
ELLIPSE
  5
110
330
1F
100
AcDbEntity
  8
0
  6
CONTINUOUS
 62
     7
100
AcDbEllipse
 10
4.420464521254505
 20
18.11289779024911
 30
0.0
 11
0.0707968544599194
 21
-0.0707968544599176
 31
0.0
210
0.0
220
0.0
230
1.0
 40
0.9987827659586992
 41
2.356803477777916
 42
3.926381829401631
  0
ELLIPSE
  5
111
330
1F
100
AcDbEntity
  8
0
  6
CONTINUOUS
 62
     7
100
AcDbEllipse
 10
13.57735681095978
 20
17.43848329627157
 30
0.0
 11
0.2030626225458931
 21
0.2087437841940058
 31
0.0
210
0.0
220
0.0
230
1.0
 40
0.6866956083138449
 41
6.263098016707169
 42
6.872114935467922
  0
LINE
  5
112
330
1F
100
AcDbEntity
  8
0
  6
CONTINUOUS
 62
     7
100
AcDbLine
 10
13.66658746889833
 20
17.68951735308511
 30
0.0
 11
5.00564835729349
 21
17.68951735308511
 31
0.0
  0
ELLIPSE
  5
113
330
1F
100
AcDbEntity
  8
0
  6
CONTINUOUS
 62
     7
100
AcDbEllipse
 10
5.094879015232037
 20
17.43848329627157
 30
0.0
 11
-0.203062622545894
 21
0.2087437841940058
 31
0.0
210
0.0
220
0.0
230
1.0
 40
0.6866956083138457
 41
5.694255678891274
 42
6.30327259765204
  0
ELLIPSE
  5
118
330
1F
100
AcDbEntity
  8
0
  6
CONTINUOUS
 62
     7
100
AcDbEllipse
 10
4.420464521254504
 20
8.281591006566307
 30
0.0
 11
0.0707968544599194
 21
0.0707968544599176
 31
0.0
210
0.0
220
0.0
230
1.0
 40
0.9987827659587434
 41
2.356803477777972
 42
3.92638182940167
  0
ELLIPSE
  5
119
330
1F
100
AcDbEntity
  8
0
  6
CONTINUOUS
 62
     7
100
AcDbEllipse
 10
5.094879015232037
 20
17.43848329627157
 30
0.0
 11
0.2087437841940067
 21
-0.2030626225458967
 31
0.0
210
0.0
220
0.0
230
1.0
 40
0.6866956083138464
 41
3.121505363117302
 42
3.730522281878143
  0
LINE
  5
11A
330
1F
100
AcDbEntity
  8
0
  6
CONTINUOUS
 62
     7
100
AcDbLine
 10
4.843844958418499
 20
17.52771395421012
 30
0.0
 11
4.843844958418499
 21
8.866774842605293
 31
0.0
  0
ELLIPSE
  5
11B
330
1F
100
AcDbEntity
  8
0
  6
CONTINUOUS
 62
     7
100
AcDbEllipse
 10
5.094879015232034
 20
8.95600550054384
 30
0.0
 11
0.2087437841940068
 21
0.2030626225458949
 31
0.0
210
0.0
220
0.0
230
1.0
 40
0.6866956083138449
 41
2.552663025301467
 42
3.161679944062282
  0
LINE
  5
11D
330
1F
100
AcDbEntity
  8
0
  6
CONTINUOUS
 62
     7
100
AcDbLine
 10
14.25189317666528
 20
18.21295874467899
 30
0.0
 11
4.420342649526534
 21
18.21295874467899
 31
0.0
  0
LINE
  5
11F
330
1F
100
AcDbEntity
  8
0
  6
CONTINUOUS
 62
     7
100
AcDbLine
 10
14.3518322593672
 20
13.69724439840771
 30
0.0
 11
14.35183225936719
 21
18.11301966197708
 31
0.0
  0
ELLIPSE
  5
120
330
1F
100
AcDbEntity
  8
0
  6
CONTINUOUS
 62
     7
100
AcDbEllipse
 10
5.094879015232034
 20
8.95600550054384
 30
0.0
 11
0.2030626225458949
 21
0.2087437841940059
 31
0.0
210
0.0
220
0.0
230
1.0
 40
0.6866956083138442
 41
3.121505363117333
 42
3.730522281878132
  0
LINE
  5
121
330
1F
100
AcDbEntity
  8
0
  6
CONTINUOUS
 62
     7
100
AcDbLine
 10
5.005648357293487
 20
8.704971443730306
 30
0.0
 11
8.836117913095915
 21
8.704971443730302
 31
0.0
  0
LINE
  5
123
330
1F
100
AcDbEntity
  8
0
  6
CONTINUOUS
 62
     7
100
AcDbLine
 10
4.320403566824623
 20
18.11301966197708
 30
0.0
 11
4.320403566824623
 21
8.281469134838335
 31
0.0
  0
LINE
  5
125
330
1F
100
AcDbEntity
  8
0
  6
CONTINUOUS
 62
     7
100
AcDbLine
 10
4.420342649526534
 20
8.181530052136423
 30
0.0
 11
8.836117913095915
 21
8.181530052136423
 31
0.0
  0
ELLIPSE
  5
127
330
1F
100
AcDbEntity
  8
0
  6
CONTINUOUS
 62
     7
100
AcDbEllipse
 10
14.25177130493731
 20
18.11289779024911
 30
0.0
 11
0.0707968544599229
 21
0.0707968544599176
 31
0.0
210
0.0
220
0.0
230
1.0
 40
0.9987827659586992
 41
5.4983961313678
 42
7.067974482991475
  0
ARC
  5
128
330
1F
100
AcDbEntity
  8
0
  6
CONTINUOUS
 62
     7
100
AcDbCircle
 10
8.836117913095915
 20
13.69724439840771
 30
0.0
 40
5.515714346271286
100
AcDbArc
 50
270.0000000000008
 51
0.0
  0
LINE
  5
129
330
1F
100
AcDbEntity
  8
0
  6
CONTINUOUS
 62
     7
100
AcDbLine
 10
13.82839086777332
 20
13.69724439840771
 30
0.0
 11
13.82839086777332
 21
17.52771395421012
 31
0.0
  0
ELLIPSE
  5
12A
330
1F
100
AcDbEntity
  8
0
  6
CONTINUOUS
 62
     7
100
AcDbEllipse
 10
13.57735681095978
 20
17.43848329627157
 30
0.0
 11
0.2087437841940058
 21
0.2030626225458931
 31
0.0
210
0.0
220
0.0
230
1.0
 40
0.6866956083138493
 41
5.694255678891279
 42
6.303272597652106
  0
CIRCLE
  5
12B
330
1F
100
AcDbEntity
  8
0
  6
CONTINUOUS
 62
     7
100
AcDbCircle
 10
12.5361179130959
 20
16.39724439840771
 30
0.0
 40
0.4499999999626656
  0
ENDSEC
  0
SECTION
  2
OBJECTS
  0
DICTIONARY
  5
C
330
0
100
AcDbDictionary
  3
ACAD_GROUP
350
D
  3
ACAD_LAYOUT
350
1A
  3
ACAD_MLINESTYLE
350
17
  3
ACAD_PLOTSETTINGS
350
19
  3
ACAD_PLOTSTYLENAME
350
E
  3
ACDBHEADERROUNDTRIPXREC
350
19A
  3
ACDBVARIABLEDICTIONARY
350
194
  0
DICTIONARY
  5
15C
330
1F
100
AcDbDictionary
280
     1
  3
ACAD_LAYOUTSELFREF
360
1BC
  0
DICTIONARY
  5
15E
330
1B
100
AcDbDictionary
280
     1
  3
ACAD_LAYOUTSELFREF
360
1BB
  0
DICTIONARY
  5
D
102
{ACAD_REACTORS
330
C
102
}
330
C
100
AcDbDictionary
  0
DICTIONARY
  5
1A
102
{ACAD_REACTORS
330
C
102
}
330
C
100
AcDbDictionary
  0
DICTIONARY
  5
17
102
{ACAD_REACTORS
330
C
102
}
330
C
100
AcDbDictionary
  3
STANDARD
350
18
  0
DICTIONARY
  5
19
102
{ACAD_REACTORS
330
C
102
}
330
C
100
AcDbDictionary
  0
ACDBDICTIONARYWDFLT
  5
E
102
{ACAD_REACTORS
330
C
102
}
330
C
100
AcDbDictionary
281
     1
  3
Normal
350
F
100
AcDbDictionaryWithDefault
340
F
  0
DICTIONARY
  5
19A
102
{ACAD_REACTORS
330
C
102
}
330
C
100
AcDbDictionary
  3
CEPSNTYPE
350
1A4
  3
DIMSTYLEDATA
350
1A8
  3
FINGERPRINTGUID
350
1A5
  3
HYPERLINKBASE
350
19D
  3
INSUNITS
350
1A3
  3
LAYOUTDICT
350
19F
  3
LWETCUNION
350
1A2
  3
PLOTSETDICT
350
1A0
  3
PLOTSTYLNAMDICT
350
1A1
  3
PSVPSCALE
350
1A7
  3
PUCSBASE
350
1AB
  3
PUCSORGBACK
350
1B1
  3
PUCSORGBOTTOM
350
1AD
  3
PUCSORGFRONT
350
1B0
  3
PUCSORGLEFT
350
1AE
  3
PUCSORGRIGHT
350
1AF
  3
PUCSORGTOP
350
1AC
  3
PUCSORTHOREF
350
1A9
  3
PUCSORTHOVIEW
350
1AA
  3
STYLESHEET
350
19E
  3
TSTACKALIGN
350
19B
  3
TSTACKSIZE
350
19C
  3
UCSBASE
350
1B4
  3
UCSORGBACK
350
1BA
  3
UCSORGBOTTOM
350
1B6
  3
UCSORGFRONT
350
1B9
  3
UCSORGLEFT
350
1B7
  3
UCSORGRIGHT
350
1B8
  3
UCSORGTOP
350
1B5
  3
UCSORTHOREF
350
1B2
  3
UCSORTHOVIEW
350
1B3
  3
VERSIONGUID
350
1A6
  0
DICTIONARY
  5
194
102
{ACAD_REACTORS
330
C
102
}
330
C
100
AcDbDictionary
  3
DIMASSOC
350
195
  0
XRECORD
  5
1BC
102
{ACAD_REACTORS
330
15C
102
}
330
15C
100
AcDbXrecord
340
1F
  0
XRECORD
  5
1BB
102
{ACAD_REACTORS
330
15E
102
}
330
15E
100
AcDbXrecord
340
1B
  0
MLINESTYLE
  5
18
102
{ACAD_REACTORS
330
17
102
}
330
17
100
AcDbMlineStyle
  2
STANDARD
 70
     0
  3

 62
   256
 51
90.0
 52
90.0
 71
     2
 49
0.5
 62
   256
  6
BYLAYER
 49
-0.5
 62
   256
  6
BYLAYER
  0
ACDBPLACEHOLDER
  5
F
102
{ACAD_REACTORS
330
E
102
}
330
E
100
AcDbPlaceHolder
280
     0
  0
XRECORD
  5
1A4
102
{ACAD_REACTORS
330
19A
102
}
330
19A
100
AcDbXrecord
 90
        0
  0
XRECORD
  5
1A8
102
{ACAD_REACTORS
330
19A
102
}
330
19A
100
AcDbXrecord
1000
DSTYLE
1002
{
1070
   278
 70
    44
1002
}
  0
XRECORD
  5
1A5
102
{ACAD_REACTORS
330
19A
102
}
330
19A
100
AcDbXrecord
  1
{981F5C23-6F20-4D8D-835D-0DDDEAE32FBF}
  0
XRECORD
  5
19D
102
{ACAD_REACTORS
330
19A
102
}
330
19A
100
AcDbXrecord
  1

  0
XRECORD
  5
1A3
102
{ACAD_REACTORS
330
19A
102
}
330
19A
100
AcDbXrecord
 90
        4
  0
XRECORD
  5
19F
102
{ACAD_REACTORS
330
19A
102
}
330
19A
100
AcDbXrecord
340
1A
  0
XRECORD
  5
1A2
102
{ACAD_REACTORS
330
19A
102
}
330
19A
100
AcDbXrecord
 90
    10269
  0
XRECORD
  5
1A0
102
{ACAD_REACTORS
330
19A
102
}
330
19A
100
AcDbXrecord
340
19
  0
XRECORD
  5
1A1
102
{ACAD_REACTORS
330
19A
102
}
330
19A
100
AcDbXrecord
340
E
  0
XRECORD
  5
1A7
102
{ACAD_REACTORS
330
19A
102
}
330
19A
100
AcDbXrecord
 40
0.0
  0
XRECORD
  5
1AB
102
{ACAD_REACTORS
330
19A
102
}
330
19A
100
AcDbXrecord
340
0
  0
XRECORD
  5
1B1
102
{ACAD_REACTORS
330
19A
102
}
330
19A
100
AcDbXrecord
 10
0.0
 20
0.0
 30
0.0
  0
XRECORD
  5
1AD
102
{ACAD_REACTORS
330
19A
102
}
330
19A
100
AcDbXrecord
 10
0.0
 20
0.0
 30
0.0
  0
XRECORD
  5
1B0
102
{ACAD_REACTORS
330
19A
102
}
330
19A
100
AcDbXrecord
 10
0.0
 20
0.0
 30
0.0
  0
XRECORD
  5
1AE
102
{ACAD_REACTORS
330
19A
102
}
330
19A
100
AcDbXrecord
 10
0.0
 20
0.0
 30
0.0
  0
XRECORD
  5
1AF
102
{ACAD_REACTORS
330
19A
102
}
330
19A
100
AcDbXrecord
 10
0.0
 20
0.0
 30
0.0
  0
XRECORD
  5
1AC
102
{ACAD_REACTORS
330
19A
102
}
330
19A
100
AcDbXrecord
 10
0.0
 20
0.0
 30
0.0
  0
XRECORD
  5
1A9
102
{ACAD_REACTORS
330
19A
102
}
330
19A
100
AcDbXrecord
340
0
  0
XRECORD
  5
1AA
102
{ACAD_REACTORS
330
19A
102
}
330
19A
100
AcDbXrecord
 70
     0
  0
XRECORD
  5
19E
102
{ACAD_REACTORS
330
19A
102
}
330
19A
100
AcDbXrecord
  1

  0
XRECORD
  5
19B
102
{ACAD_REACTORS
330
19A
102
}
330
19A
100
AcDbXrecord
 90
        1
  0
XRECORD
  5
19C
102
{ACAD_REACTORS
330
19A
102
}
330
19A
100
AcDbXrecord
 90
       70
  0
XRECORD
  5
1B4
102
{ACAD_REACTORS
330
19A
102
}
330
19A
100
AcDbXrecord
340
0
  0
XRECORD
  5
1BA
102
{ACAD_REACTORS
330
19A
102
}
330
19A
100
AcDbXrecord
 10
0.0
 20
0.0
 30
0.0
  0
XRECORD
  5
1B6
102
{ACAD_REACTORS
330
19A
102
}
330
19A
100
AcDbXrecord
 10
0.0
 20
0.0
 30
0.0
  0
XRECORD
  5
1B9
102
{ACAD_REACTORS
330
19A
102
}
330
19A
100
AcDbXrecord
 10
0.0
 20
0.0
 30
0.0
  0
XRECORD
  5
1B7
102
{ACAD_REACTORS
330
19A
102
}
330
19A
100
AcDbXrecord
 10
0.0
 20
0.0
 30
0.0
  0
XRECORD
  5
1B8
102
{ACAD_REACTORS
330
19A
102
}
330
19A
100
AcDbXrecord
 10
0.0
 20
0.0
 30
0.0
  0
XRECORD
  5
1B5
102
{ACAD_REACTORS
330
19A
102
}
330
19A
100
AcDbXrecord
 10
0.0
 20
0.0
 30
0.0
  0
XRECORD
  5
1B2
102
{ACAD_REACTORS
330
19A
102
}
330
19A
100
AcDbXrecord
340
0
  0
XRECORD
  5
1B3
102
{ACAD_REACTORS
330
19A
102
}
330
19A
100
AcDbXrecord
 70
     0
  0
XRECORD
  5
1A6
102
{ACAD_REACTORS
330
19A
102
}
330
19A
100
AcDbXrecord
  1
{291206BF-40B1-418E-AD4C-858428E8793E}
  0
DICTIONARYVAR
  5
195
102
{ACAD_REACTORS
330
194
102
}
330
194
100
DictionaryVariables
280
     0
  1
1
  0
ENDSEC
  0
EOF
