  0
SECTION
  2
HEADER
  9
$ACADVER
  1
AC1014
  9
$ACADMAINTVER
 70
     9
  9
$DWGCODEPAGE
  3
ANSI_1250
  9
$INSBASE
 10
0.0
 20
0.0
 30
0.0
  9
$EXTMIN
 10
4.172747811516607
 20
8.268330694099898
 30
0.0
  9
$EXTMAX
 10
13.34651834825988
 20
17.44210123084315
 30
0.0
  9
$LIMMIN
 10
0.0
 20
0.0
  9
$LIMMAX
 10
0.0
 20
0.0
  9
$ORTHOMODE
 70
     0
  9
$REGENMODE
 70
     1
  9
$FILLMODE
 70
     1
  9
$QTEXTMODE
 70
     0
  9
$MIRRTEXT
 70
     1
  9
$DRAGMODE
 70
     2
  9
$LTSCALE
 40
1.0
  9
$OSMODE
 70
  3007
  9
$ATTMODE
 70
     1
  9
$TEXTSIZE
 40
2.5
  9
$TRACEWID
 40
1.0
  9
$TEXTSTYLE
  7
STANDARD
  9
$CLAYER
  8
0
  9
$CELTYPE
  6
BYLAYER
  9
$CECOLOR
 62
   256
  9
$CELTSCALE
 40
1.0
  9
$DELOBJ
 70
     1
  9
$DISPSILH
 70
     0
  9
$DIMSCALE
 40
1.0
  9
$DIMASZ
 40
0.3
  9
$DIMEXO
 40
0.01
  9
$DIMDLI
 40
3.75
  9
$DIMRND
 40
0.0
  9
$DIMDLE
 40
0.0
  9
$DIMEXE
 40
0.1
  9
$DIMTP
 40
0.0
  9
$DIMTM
 40
0.0
  9
$DIMTXT
 40
0.2822222222222222
  9
$DIMCEN
 40
2.5
  9
$DIMTSZ
 40
0.0
  9
$DIMTOL
 70
     0
  9
$DIMLIM
 70
     0
  9
$DIMTIH
 70
     1
  9
$DIMTOH
 70
     1
  9
$DIMSE1
 70
     0
  9
$DIMSE2
 70
     0
  9
$DIMTAD
 70
     1
  9
$DIMZIN
 70
     0
  9
$DIMBLK
  1

  9
$DIMASO
 70
     1
  9
$DIMSHO
 70
     1
  9
$DIMPOST
  1

  9
$DIMAPOST
  1

  9
$DIMALT
 70
     0
  9
$DIMALTD
 70
     3
  9
$DIMALTF
 40
0.3937007874015748
  9
$DIMLFAC
 40
10.0
  9
$DIMTOFL
 70
     1
  9
$DIMTVP
 40
0.0
  9
$DIMTIX
 70
     0
  9
$DIMSOXD
 70
     0
  9
$DIMSAH
 70
     0
  9
$DIMBLK1
  1

  9
$DIMBLK2
  1

  9
$DIMSTYLE
  2
ISO-25
  9
$DIMCLRD
 70
     0
  9
$DIMCLRE
 70
     0
  9
$DIMCLRT
 70
     0
  9
$DIMTFAC
 40
1.0
  9
$DIMGAP
 40
0.1524
  9
$DIMJUST
 70
     0
  9
$DIMSD1
 70
     0
  9
$DIMSD2
 70
     0
  9
$DIMTOLJ
 70
     0
  9
$DIMTZIN
 70
     0
  9
$DIMALTZ
 70
     0
  9
$DIMALTTZ
 70
     0
  9
$DIMFIT
 70
     3
  9
$DIMUPT
 70
     0
  9
$DIMUNIT
 70
     2
  9
$DIMDEC
 70
     2
  9
$DIMTDEC
 70
     2
  9
$DIMALTU
 70
     2
  9
$DIMALTTD
 70
     3
  9
$DIMTXSTY
  7
STANDARD
  9
$DIMAUNIT
 70
     0
  9
$LUNITS
 70
     2
  9
$LUPREC
 70
     2
  9
$SKETCHINC
 40
1.0
  9
$FILLETRAD
 40
10.0
  9
$AUNITS
 70
     0
  9
$AUPREC
 70
     0
  9
$MENU
  1
.
  9
$ELEVATION
 40
0.0
  9
$PELEVATION
 40
0.0
  9
$THICKNESS
 40
0.0
  9
$LIMCHECK
 70
     0
  9
$BLIPMODE
 70
     0
  9
$CHAMFERA
 40
10.0
  9
$CHAMFERB
 40
10.0
  9
$CHAMFERC
 40
20.0
  9
$CHAMFERD
 40
0.0
  9
$SKPOLY
 70
     0
  9
$TDCREATE
 40
2453966.347420787
  9
$TDUPDATE
 40
2453966.356882766
  9
$TDINDWG
 40
0.0019789931
  9
$TDUSRTIMER
 40
0.0019789931
  9
$USRTIMER
 70
     1
  9
$ANGBASE
 50
0.0
  9
$ANGDIR
 70
     0
  9
$PDMODE
 70
     0
  9
$PDSIZE
 40
-1.0
  9
$PLINEWID
 40
0.0
  9
$COORDS
 70
     2
  9
$SPLFRAME
 70
     0
  9
$SPLINETYPE
 70
     6
  9
$SPLINESEGS
 70
     8
  9
$ATTDIA
 70
     0
  9
$ATTREQ
 70
     1
  9
$HANDLING
 70
 22529
  9
$HANDSEED
  5
1BE
  9
$SURFTAB1
 70
     6
  9
$SURFTAB2
 70
     6
  9
$SURFTYPE
 70
     6
  9
$SURFU
 70
     6
  9
$SURFV
 70
     6
  9
$UCSNAME
  2

  9
$UCSORG
 10
0.0
 20
0.0
 30
0.0
  9
$UCSXDIR
 10
1.0
 20
0.0
 30
0.0
  9
$UCSYDIR
 10
0.0
 20
1.0
 30
0.0
  9
$PUCSNAME
  2

  9
$PUCSORG
 10
0.0
 20
0.0
 30
0.0
  9
$PUCSXDIR
 10
1.0
 20
0.0
 30
0.0
  9
$PUCSYDIR
 10
0.0
 20
1.0
 30
0.0
  9
$USERI1
 70
     0
  9
$USERI2
 70
     0
  9
$USERI3
 70
     0
  9
$USERI4
 70
     0
  9
$USERI5
 70
     0
  9
$USERR1
 40
0.0
  9
$USERR2
 40
0.0
  9
$USERR3
 40
0.0
  9
$USERR4
 40
0.0
  9
$USERR5
 40
0.0
  9
$WORLDVIEW
 70
     1
  9
$SHADEDGE
 70
     3
  9
$SHADEDIF
 70
    70
  9
$TILEMODE
 70
     1
  9
$MAXACTVP
 70
    48
  9
$PINSBASE
 10
0.0
 20
0.0
 30
0.0
  9
$PLIMCHECK
 70
     0
  9
$PEXTMIN
 10
1.000000000000000E+20
 20
1.000000000000000E+20
 30
1.000000000000000E+20
  9
$PEXTMAX
 10
-1.000000000000000E+20
 20
-1.000000000000000E+20
 30
-1.000000000000000E+20
  9
$PLIMMIN
 10
0.0
 20
0.0
  9
$PLIMMAX
 10
420.0
 20
297.0
  9
$UNITMODE
 70
     0
  9
$VISRETAIN
 70
     1
  9
$PLINEGEN
 70
     0
  9
$PSLTSCALE
 70
     1
  9
$TREEDEPTH
 70
  3020
  9
$PICKSTYLE
 70
     1
  9
$CMLSTYLE
  2
STANDARD
  9
$CMLJUST
 70
     0
  9
$CMLSCALE
 40
20.0
  9
$PROXYGRAPHICS
 70
     1
  9
$MEASUREMENT
 70
     1
  0
ENDSEC
  0
SECTION
  2
CLASSES
  0
CLASS
  1
ACDBDICTIONARYWDFLT
  2
AcDbDictionaryWithDefault
  3
AutoCAD 2000
 90
        0
280
     0
281
     0
  0
CLASS
  1
ACDBPLACEHOLDER
  2
AcDbPlaceHolder
  3
AutoCAD 2000
 90
        0
280
     0
281
     0
  0
CLASS
  1
LAYOUT
  2
AcDbLayout
  3
AutoCAD 2000
 90
        0
280
     0
281
     0
  0
CLASS
  1
DICTIONARYVAR
  2
AcDbDictionaryVar
  3
AutoCAD 2000
 90
        0
280
     0
281
     0
  0
CLASS
  1
LONG_TRANSACTION
  2
AcDbLongTransaction
  3
AutoCAD 2000
 90
        0
280
     0
281
     0
  0
CLASS
  1
LWPOLYLINE
  2
AcDbPolyline
  3
AutoCAD 2000
 90
        0
280
     0
281
     1
  0
CLASS
  1
HATCH
  2
AcDbHatch
  3
AutoCAD 2000
 90
        0
280
     0
281
     1
  0
CLASS
  1
XRECORD
  2
AcDbXrecord
  3
AutoCAD 2000
 90
        0
280
     0
281
     0
  0
CLASS
  1
LONG_TRANSACTION
  2
AcDbLongTransaction
  3
AutoCAD 2000
 90
        0
280
     0
281
     0
  0
CLASS
  1
LWPOLYLINE
  2
AcDbPolyline
  3
AutoCAD 2000
 90
        0
280
     0
281
     1
  0
CLASS
  1
HATCH
  2
AcDbHatch
  3
AutoCAD 2000
 90
        0
280
     0
281
     1
  0
CLASS
  1
XRECORD
  2
AcDbXrecord
  3
AutoCAD 2000
 90
        0
280
     0
281
     0
  0
ENDSEC
  0
SECTION
  2
TABLES
  0
TABLE
  2
VPORT
  5
8
330
0
100
AcDbSymbolTable
 70
     2
  0
VPORT
  5
199
330
8
100
AcDbSymbolTableRecord
100
AcDbViewportTableRecord
  2
*ACTIVE
 70
     0
 10
0.0
 20
0.0
 11
1.0
 21
1.0
 12
8.759179749560059
 22
12.85519414343312
 13
0.0
 23
0.0
 14
10.0
 24
10.0
 15
10.0
 25
10.0
 16
0.0
 26
0.0
 36
1.0
 17
0.0
 27
0.0
 37
0.0
 40
9.265469162113506
 41
1.674961119751166
 42
50.0
 43
0.0
 44
0.0
 50
0.0
 51
0.0
 71
     0
 72
  2000
 73
     1
 74
     3
 75
     0
 76
     0
 77
     0
 78
     0
  0
ENDTAB
  0
TABLE
  2
LTYPE
  5
5
330
0
100
AcDbSymbolTable
 70
     1
  0
LTYPE
  5
14
330
5
100
AcDbSymbolTableRecord
100
AcDbLinetypeTableRecord
  2
BYBLOCK
 70
     0
  3

 72
    65
 73
     0
 40
0.0
  0
LTYPE
  5
15
330
5
100
AcDbSymbolTableRecord
100
AcDbLinetypeTableRecord
  2
BYLAYER
 70
     0
  3

 72
    65
 73
     0
 40
0.0
  0
LTYPE
  5
16
330
5
100
AcDbSymbolTableRecord
100
AcDbLinetypeTableRecord
  2
CONTINUOUS
 70
     0
  3
Solid line
 72
    65
 73
     0
 40
0.0
  0
ENDTAB
  0
TABLE
  2
LAYER
  5
2
330
0
100
AcDbSymbolTable
 70
     1
  0
LAYER
  5
10
330
2
100
AcDbSymbolTableRecord
100
AcDbLayerTableRecord
  2
0
 70
     0
 62
     7
  6
CONTINUOUS
  0
ENDTAB
  0
TABLE
  2
STYLE
  5
3
330
0
100
AcDbSymbolTable
 70
     1
  0
STYLE
  5
11
330
3
100
AcDbSymbolTableRecord
100
AcDbTextStyleTableRecord
  2
STANDARD
 70
     0
 40
0.0
 41
1.0
 50
0.0
 71
     0
 42
2.5
  3
ARIAL.TTF
  4

1001
ACAD
1000
Arial
1071
       34
  0
ENDTAB
  0
TABLE
  2
VIEW
  5
6
330
0
100
AcDbSymbolTable
 70
     0
  0
ENDTAB
  0
TABLE
  2
UCS
  5
7
330
0
100
AcDbSymbolTable
 70
     0
  0
ENDTAB
  0
TABLE
  2
APPID
  5
9
330
0
100
AcDbSymbolTable
 70
     1
  0
APPID
  5
12
330
9
100
AcDbSymbolTableRecord
100
AcDbRegAppTableRecord
  2
ACAD
 70
     0
  0
ENDTAB
  0
TABLE
  2
DIMSTYLE
  5
A
330
0
100
AcDbSymbolTable
 70
     1
  0
DIMSTYLE
105
27
330
A
100
AcDbSymbolTableRecord
100
AcDbDimStyleTableRecord
  2
ISO-25
 70
     0
  3

  4

  5

  6

  7

 40
1.0
 41
2.5
 42
0.625
 43
3.75
 44
1.25
 45
0.0
 46
0.0
 47
0.0
 48
0.0
140
2.5
141
2.5
142
0.0
143
0.03937007874016
144
1.0
145
0.0
146
1.0
147
0.625
 71
     0
 72
     0
 73
     0
 74
     0
 75
     0
 76
     0
 77
     1
 78
     8
170
     0
171
     3
172
     1
173
     0
174
     0
175
     0
176
     0
177
     0
178
     0
270
     2
271
     2
272
     2
273
     2
274
     3
340
11
275
     0
280
     0
281
     0
282
     0
283
     0
284
     8
285
     0
286
     0
287
     3
288
     0
  0
ENDTAB
  0
TABLE
  2
BLOCK_RECORD
  5
1
330
0
100
AcDbSymbolTable
 70
     1
  0
BLOCK_RECORD
  5
1F
102
{ACAD_XDICTIONARY
360
15C
102
}
330
1
100
AcDbSymbolTableRecord
100
AcDbBlockTableRecord
  2
*MODEL_SPACE
  0
BLOCK_RECORD
  5
1B
102
{ACAD_XDICTIONARY
360
15E
102
}
330
1
100
AcDbSymbolTableRecord
100
AcDbBlockTableRecord
  2
*PAPER_SPACE
  0
ENDTAB
  0
ENDSEC
  0
SECTION
  2
BLOCKS
  0
BLOCK
  5
20
330
1F
100
AcDbEntity
  8
0
100
AcDbBlockBegin
  2
*MODEL_SPACE
 70
     0
 10
0.0
 20
0.0
 30
0.0
  3
*MODEL_SPACE
  1

  0
ENDBLK
  5
21
330
1F
100
AcDbEntity
  8
0
100
AcDbBlockEnd
  0
BLOCK
  5
1C
330
1B
100
AcDbEntity
 67
     1
  8
0
100
AcDbBlockBegin
  2
*PAPER_SPACE
 70
     0
 10
0.0
 20
0.0
 30
0.0
  3
*PAPER_SPACE
  1

  0
ENDBLK
  5
1D
330
1B
100
AcDbEntity
 67
     1
  8
0
100
AcDbBlockEnd
  0
ENDSEC
  0
SECTION
  2
ENTITIES
  0
LWPOLYLINE
  5
104
330
1F
100
AcDbEntity
  8
0
  6
CONTINUOUS
 62
     7
100
AcDbPolyline
 90
       18
 70
   128
 43
0.0
 10
11.48267032047777
 20
16.55879164838673
 10
11.48232439190182
 20
16.57309120022547
 10
11.48097537251691
 20
16.58737074487567
 10
11.47856427050794
 20
16.60149924432494
 10
11.47503209405984
 20
16.61534566056086
 10
11.47024135902645
 20
16.62896078247078
 10
11.46418219129498
 20
16.64213471530682
 10
11.45689317035574
 20
16.65465715312391
 10
11.44841287569905
 20
16.66631778997698
 10
11.43707359175519
 20
16.67862773123669
 10
11.42428310227334
 20
16.68952083262555
 10
11.41033824832836
 20
16.69878334147388
 10
11.39652214086694
 20
16.70584706797705
 10
11.38202006455475
 20
16.71148888483208
 10
11.36707831599057
 20
16.71571457100279
 10
11.35183530396777
 20
16.7185774292611
 10
11.33637933264465
 20
16.72017771473964
 10
11.32086692160278
 20
16.72059504726172
  0
ARC
  5
105
330
1F
100
AcDbEntity
  8
0
  6
CONTINUOUS
 62
     7
100
AcDbCircle
 10
95.11673420589991
 20
15.63075578347242
 30
0.0
 40
83.6392126490765
100
AcDbArc
 50
179.3642500003826
 51
180.4940466708703
  0
LWPOLYLINE
  5
106
330
1F
100
AcDbEntity
  8
0
  6
CONTINUOUS
 62
     7
100
AcDbPolyline
 90
       81
 70
   128
 43
0.0
 10
6.688462157787899
 20
10.0558955702615
 10
6.784388323666449
 20
10.05762663610383
 10
6.880280083085941
 20
10.06125687347732
 10
6.976081087959586
 20
10.06678380525305
 10
7.071734990200587
 20
10.07420495430211
 10
7.167222978731279
 20
10.08352038777518
 10
7.262526316521393
 20
10.09472719431647
 10
7.357588974954371
 20
10.10781844728484
 10
7.452354925413656
 20
10.12278722003917
 10
7.546805394403044
 20
10.13963209867044
 10
7.640921911795745
 20
10.15834870004871
 10
7.734649118254453
 20
10.17892567971979
 10
7.827931654441868
 20
10.20135169322952
 10
7.90709819519588
 20
10.22193021499175
 10
7.985922334693838
 20
10.24384879427823
 10
8.064370416283249
 20
10.26709761026581
 10
8.142408783311628
 20
10.29166684213133
 10
8.220003779126482
 20
10.31754666905165
 10
8.314524895577729
 20
10.35106342347265
 10
8.408350823969261
 20
10.38654026458182
 10
8.501421202714661
 20
10.42395394949473
 10
8.593675670227508
 20
10.463281235327
 10
8.685093733185395
 20
10.50451539564621
 10
8.775656105653997
 20
10.5476463284963
 10
8.865304495033923
 20
10.59264584082818
 10
8.95398060872578
 20
10.63948573959271
 10
9.041664558651817
 20
10.68815761799261
 10
9.128337940848386
 20
10.73864979717033
 10
9.213944939661629
 20
10.79092931179874
 10
9.298429739437693
 20
10.84496319655067
 10
9.370006589451485
 20
10.8927139566375
 10
9.440737782398009
 20
10.94174446667645
 10
9.510589948226266
 20
10.99203092282735
 10
9.579529716885256
 20
11.04354952124999
 10
9.647523718323977
 20
11.09627645810421
 10
9.725407826649275
 20
11.15911711225237
 10
9.801988501776042
 20
11.22357305238142
 10
9.877216608016912
 20
11.28960240292807
 10
9.951043009684525
 20
11.35716328832904
 10
10.02345063905871
 20
11.42624257945087
 10
10.09442470156156
 20
11.49682436684912
 10
10.16391966724526
 20
11.56886278765957
 10
10.23189000616206
 20
11.64231197901803
 10
10.2983197888431
 20
11.71715740925418
 10
10.36319560408397
 20
11.79338196903541
 10
10.42647586603077
 20
11.87093611293456
 10
10.48811898882963
 20
11.94977029552444
 10
10.53969151407868
 20
12.01841714606057
 10
10.59004440111873
 20
12.08798873658229
 10
10.63915417848582
 20
12.15845158523279
 10
10.68699737471596
 20
12.22977221015524
 10
10.73355051834518
 20
12.30191712949283
 10
10.78606560577921
 20
12.38685549386414
 10
10.8368196122741
 20
12.47288264840036
 10
10.88578033221289
 20
12.55994287077354
 10
10.93291555997858
 20
12.64798043865572
 10
10.97821371878049
 20
12.73697718993042
 10
11.02166645196293
 20
12.82691324105044
 10
11.06324640657698
 20
12.91773033056922
 10
11.10292622967371
 20
13.0093701970402
 10
11.14069600157429
 20
13.10181365755672
 10
11.17654927714418
 20
13.19504019888415
 10
11.21046386800236
 20
13.2889894517826
 10
11.24241758576777
 20
13.38360104701218
 10
11.26826017028942
 20
13.46527650695148
 10
11.29265279981091
 20
13.54741789769751
 10
11.31558509001236
 20
13.62998605199648
 10
11.33704665657392
 20
13.71294180259465
 10
11.35702711517571
 20
13.79624598223822
 10
11.37727934400059
 20
13.88821127539979
 10
11.39573852608314
 20
13.98057163556419
 10
11.41239598081347
 20
14.07327418722563
 10
11.42724302758169
 20
14.16626605487832
 10
11.44027699795102
 20
14.25952892352746
 10
11.45149895244477
 20
14.35304536905816
 10
11.46090557459627
 20
14.44676232047098
 10
11.46849354793885
 20
14.54062670676645
 10
11.47438264517439
 20
14.636947617924
 10
11.47836653599671
 20
14.73338555565188
 10
11.48044826951893
 20
14.8298841133884
 10
11.48063089485415
 20
14.92638688457186
  0
LWPOLYLINE
  5
107
330
1F
100
AcDbEntity
  8
0
  6
CONTINUOUS
 62
     7
100
AcDbPolyline
 90
        3
 70
   128
 43
0.0
 10
4.963796715295224
 20
10.03991804320421
 10
5.826116141897321
 20
10.04835582382932
 10
6.688462157787899
 20
10.05589557026151
  0
LWPOLYLINE
  5
108
330
1F
100
AcDbEntity
  8
0
  6
CONTINUOUS
 62
     7
100
AcDbPolyline
 90
       18
 70
   128
 43
0.0
 10
4.801993316420165
 20
10.20172144207913
 10
4.802328560330491
 20
10.18742514773526
 10
4.803665668557522
 20
10.17314805514617
 10
4.806064020955524
 20
10.15902099746263
 10
4.809582997378761
 20
10.14517480783543
 10
4.814360647899621
 20
10.13155801804926
 10
4.820407370281182
 20
10.11838130136443
 10
4.827685055755753
 20
10.10585543717606
 10
4.836155595555639
 20
10.09419120487928
 10
4.847477844454578
 20
10.08188526136907
 10
4.86025183608658
 20
10.07099507211809
 10
4.874180717810065
 20
10.06173472999721
 10
4.887972009998881
 20
10.05467707065569
 10
4.902448566016024
 20
10.04903850613203
 10
4.917364511448652
 20
10.04481311825185
 10
4.932679628699939
 20
10.04193337466072
 10
4.948209968684436
 20
10.04032874823048
 10
4.963796715295224
 20
10.03991804320421
  0
ARC
  5
109
330
1F
100
AcDbEntity
  8
0
  6
CONTINUOUS
 62
     7
100
AcDbCircle
 10
-441.8854670211825
 20
15.57854640327793
 30
0.0
 40
446.7198198754123
100
AcDbArc
 50
359.3103578515665
 51
0.133563798643099
  0
LWPOLYLINE
  5
10A
330
1F
100
AcDbEntity
  8
0
  6
CONTINUOUS
 62
     7
100
AcDbPolyline
 90
       18
 70
   128
 43
0.0
 10
4.996829082414764
 20
16.77982335881997
 10
4.982303621110127
 20
16.77954117007645
 10
4.967793642895779
 20
16.77824044138441
 10
4.953432267752239
 20
16.77585944207111
 10
4.93935261566003
 20
16.77233644146382
 10
4.925498968724323
 20
16.76752828325217
 10
4.912090276909878
 20
16.76142200957256
 10
4.899344877486766
 20
16.75405441615527
 10
4.887481107725059
 20
16.74546229873062
 10
4.875054563600103
 20
16.73403837691889
 10
4.864065473998161
 20
16.72113946178983
 10
4.854735886636501
 20
16.70706695792857
 10
4.847688427691373
 20
16.69322571632408
 10
4.842070871830425
 20
16.67869745100581
 10
4.837878816967082
 20
16.66373013822949
 10
4.835175057778125
 20
16.64927010377132
 10
4.833617721929318
 20
16.63461668664948
 10
4.833139081743501
 20
16.61990656174126
  0
LWPOLYLINE
  5
10B
330
1F
100
AcDbEntity
  8
0
  6
CONTINUOUS
 62
     7
100
AcDbPolyline
 90
       15
 70
   128
 43
0.0
 10
11.32086692160278
 20
16.72059504726172
 10
11.08981028941557
 20
16.71856525234918
 10
10.85874357670169
 20
16.71696325895054
 10
10.62766892783409
 20
16.71591445366451
 10
10.39655006429791
 20
16.71554683046613
 10
10.16542939685264
 20
16.71587868513327
 10
9.934315454530857
 20
16.71687050405605
 10
9.62568707748148
 20
16.71904074201053
 10
9.317073746212784
 20
16.72192179543737
 10
9.008473625383105
 20
16.72531206546311
 10
8.699884879650781
 20
16.72900995321428
 10
8.082694685711878
 20
16.73688426506728
 10
7.465520420688628
 20
16.74518345040977
 10
6.231167143250232
 20
16.76231493518943
 10
4.996829082414764
 20
16.77982335881997
  0
CIRCLE
  5
10C
330
1F
100
AcDbEntity
  8
0
  6
CONTINUOUS
 62
     7
100
AcDbCircle
 10
10.38846215778789
 20
15.62638688457187
 30
0.0
 40
0.5999999999999979
  0
ARC
  5
10D
330
1F
100
AcDbEntity
  8
0
  6
CONTINUOUS
 62
     7
100
AcDbCircle
 10
6.688462157787899
 20
14.92638688457186
 30
0.0
 40
4.992272954677408
100
AcDbArc
 50
270.0000000000008
 51
0.0
  0
LINE
  5
10E
330
1F
100
AcDbEntity
  8
0
  6
CONTINUOUS
 62
     7
100
AcDbLine
 10
4.172747811516607
 20
17.34216214814124
 30
0.0
 11
4.172747811516607
 21
9.510611621002492
 31
0.0
  0
ELLIPSE
  5
110
330
1F
100
AcDbEntity
  8
0
  6
CONTINUOUS
 62
     7
100
AcDbEllipse
 10
11.42970105565176
 20
16.66762578243573
 30
0.0
 11
0.2030626225458949
 21
0.2087437841940059
 31
0.0
210
0.0
220
0.0
230
1.0
 40
0.6866956083138464
 41
6.263098016707175
 42
6.872114935467912
  0
LINE
  5
111
330
1F
100
AcDbEntity
  8
0
  6
CONTINUOUS
 62
     7
100
AcDbLine
 10
11.51893171359031
 20
16.91865983924926
 30
0.0
 11
4.857992601985473
 21
16.91865983924926
 31
0.0
  0
ELLIPSE
  5
112
330
1F
100
AcDbEntity
  8
0
  6
CONTINUOUS
 62
     7
100
AcDbEllipse
 10
4.947223259924022
 20
16.66762578243573
 30
0.0
 11
-0.2030626225458949
 21
0.2087437841940023
 31
0.0
210
0.0
220
0.0
230
1.0
 40
0.6866956083138394
 41
5.69425567889127
 42
6.303272597652021
  0
LINE
  5
117
330
1F
100
AcDbEntity
  8
0
  6
CONTINUOUS
 62
     7
100
AcDbLine
 10
12.20417650405918
 20
14.92638688457186
 30
0.0
 11
12.20417650405918
 21
17.34216214814124
 31
0.0
  0
LINE
  5
118
330
1F
100
AcDbEntity
  8
0
  6
CONTINUOUS
 62
     7
100
AcDbLine
 10
12.10423742135727
 20
17.44210123084315
 30
0.0
 11
4.272686894218519
 21
17.44210123084315
 31
0.0
  0
LINE
  5
11A
330
1F
100
AcDbEntity
  8
0
  6
CONTINUOUS
 62
     7
100
AcDbLine
 10
11.6807351124653
 20
14.92638688457186
 30
0.0
 11
11.6807351124653
 21
16.75685644037427
 31
0.0
  0
ELLIPSE
  5
11B
330
1F
100
AcDbEntity
  8
0
  6
CONTINUOUS
 62
     7
100
AcDbEllipse
 10
11.42970105565176
 20
16.66762578243573
 30
0.0
 11
0.2087437841940077
 21
0.2030626225458932
 31
0.0
210
0.0
220
0.0
230
0.9999999999999998
 40
0.6866956083138507
 41
5.694255678891268
 42
6.303272597652112
  0
ELLIPSE
  5
11D
330
1F
100
AcDbEntity
  8
0
  6
CONTINUOUS
 62
     7
100
AcDbEllipse
 10
4.947223259924022
 20
10.185147986708
 30
0.0
 11
0.2030626225458931
 21
0.2087437841940058
 31
0.0
210
0.0
220
0.0
230
1.0
 40
0.6866956083138449
 41
3.12150536311734
 42
3.730522281878132
  0
LINE
  5
11E
330
1F
100
AcDbEntity
  8
0
  6
CONTINUOUS
 62
     7
100
AcDbLine
 10
4.857992601985474
 20
9.934113929894461
 30
0.0
 11
6.688462157787899
 21
9.934113929894458
 31
0.0
  0
ELLIPSE
  5
121
330
1F
100
AcDbEntity
  8
0
  6
CONTINUOUS
 62
     7
100
AcDbEllipse
 10
4.947223259924022
 20
16.66762578243573
 30
0.0
 11
0.2087437841940058
 21
-0.2030626225458967
 31
0.0
210
0.0
220
0.0
230
0.9999999999999998
 40
0.6866956083138481
 41
3.121505363117302
 42
3.730522281878144
  0
LINE
  5
122
330
1F
100
AcDbEntity
  8
0
  6
CONTINUOUS
 62
     7
100
AcDbLine
 10
4.696189203110484
 20
16.75685644037427
 30
0.0
 11
4.696189203110485
 21
10.09591732876945
 31
0.0
  0
ELLIPSE
  5
123
330
1F
100
AcDbEntity
  8
0
  6
CONTINUOUS
 62
     7
100
AcDbEllipse
 10
4.947223259924022
 20
10.185147986708
 30
0.0
 11
0.2087437841940068
 21
0.2030626225458932
 31
0.0
210
0.0
220
0.0
230
1.0
 40
0.6866956083138458
 41
2.552663025301487
 42
3.161679944062301
  0
ELLIPSE
  5
126
330
1F
100
AcDbEntity
  8
0
  6
CONTINUOUS
 62
     7
100
AcDbEllipse
 10
4.27280876594649
 20
17.34204027641327
 30
0.0
 11
0.0707968544599194
 21
-0.0707968544599176
 31
0.0
210
0.0
220
0.0
230
1.0
 40
0.9987827659587242
 41
2.356803477777928
 42
3.926381829401619
  0
LINE
  5
127
330
1F
100
AcDbEntity
  8
0
  6
CONTINUOUS
 62
     7
100
AcDbLine
 10
4.272686894218519
 20
9.410672538300579
 30
0.0
 11
6.688462157787899
 21
9.410672538300579
 31
0.0
  0
ELLIPSE
  5
128
330
1F
100
AcDbEntity
  8
0
  6
CONTINUOUS
 62
     7
100
AcDbEllipse
 10
12.10411554962929
 20
17.34204027641327
 30
0.0
 11
0.0707968544599176
 21
0.0707968544599211
 31
0.0
210
0.0
220
0.0
230
1.0
 40
0.9987827659587118
 41
5.498396131367743
 42
7.067974482991406
  0
ARC
  5
129
330
1F
100
AcDbEntity
  8
0
  6
CONTINUOUS
 62
     7
100
AcDbCircle
 10
6.688462157787899
 20
14.92638688457186
 30
0.0
 40
5.515714346271286
100
AcDbArc
 50
270.0000000000008
 51
0.0
  0
ELLIPSE
  5
12A
330
1F
100
AcDbEntity
  8
0
  6
CONTINUOUS
 62
     7
100
AcDbEllipse
 10
4.27280876594649
 20
9.510733492730464
 30
0.0
 11
0.0707968544599194
 21
0.0707968544599158
 31
0.0
210
0.0
220
0.0
230
1.0
 40
0.9987827659587368
 41
2.356803477777982
 42
3.926381829401677
  0
CIRCLE
  5
12B
330
1F
100
AcDbEntity
  8
0
  6
CONTINUOUS
 62
     7
100
AcDbCircle
 10
10.38846215778789
 20
15.62638688457187
 30
0.0
 40
0.4499999999626656
  0
ENDSEC
  0
SECTION
  2
OBJECTS
  0
DICTIONARY
  5
C
330
0
100
AcDbDictionary
  3
ACAD_GROUP
350
D
  3
ACAD_LAYOUT
350
1A
  3
ACAD_MLINESTYLE
350
17
  3
ACAD_PLOTSETTINGS
350
19
  3
ACAD_PLOTSTYLENAME
350
E
  3
ACDBHEADERROUNDTRIPXREC
350
19A
  3
ACDBVARIABLEDICTIONARY
350
194
  0
DICTIONARY
  5
15C
330
1F
100
AcDbDictionary
280
     1
  3
ACAD_LAYOUTSELFREF
360
1BC
  0
DICTIONARY
  5
15E
330
1B
100
AcDbDictionary
280
     1
  3
ACAD_LAYOUTSELFREF
360
1BB
  0
DICTIONARY
  5
D
102
{ACAD_REACTORS
330
C
102
}
330
C
100
AcDbDictionary
  0
DICTIONARY
  5
1A
102
{ACAD_REACTORS
330
C
102
}
330
C
100
AcDbDictionary
  0
DICTIONARY
  5
17
102
{ACAD_REACTORS
330
C
102
}
330
C
100
AcDbDictionary
  3
STANDARD
350
18
  0
DICTIONARY
  5
19
102
{ACAD_REACTORS
330
C
102
}
330
C
100
AcDbDictionary
  0
ACDBDICTIONARYWDFLT
  5
E
102
{ACAD_REACTORS
330
C
102
}
330
C
100
AcDbDictionary
281
     1
  3
Normal
350
F
100
AcDbDictionaryWithDefault
340
F
  0
DICTIONARY
  5
19A
102
{ACAD_REACTORS
330
C
102
}
330
C
100
AcDbDictionary
  3
CEPSNTYPE
350
1A4
  3
DIMSTYLEDATA
350
1A8
  3
FINGERPRINTGUID
350
1A5
  3
HYPERLINKBASE
350
19D
  3
INSUNITS
350
1A3
  3
LAYOUTDICT
350
19F
  3
LWETCUNION
350
1A2
  3
PLOTSETDICT
350
1A0
  3
PLOTSTYLNAMDICT
350
1A1
  3
PSVPSCALE
350
1A7
  3
PUCSBASE
350
1AB
  3
PUCSORGBACK
350
1B1
  3
PUCSORGBOTTOM
350
1AD
  3
PUCSORGFRONT
350
1B0
  3
PUCSORGLEFT
350
1AE
  3
PUCSORGRIGHT
350
1AF
  3
PUCSORGTOP
350
1AC
  3
PUCSORTHOREF
350
1A9
  3
PUCSORTHOVIEW
350
1AA
  3
STYLESHEET
350
19E
  3
TSTACKALIGN
350
19B
  3
TSTACKSIZE
350
19C
  3
UCSBASE
350
1B4
  3
UCSORGBACK
350
1BA
  3
UCSORGBOTTOM
350
1B6
  3
UCSORGFRONT
350
1B9
  3
UCSORGLEFT
350
1B7
  3
UCSORGRIGHT
350
1B8
  3
UCSORGTOP
350
1B5
  3
UCSORTHOREF
350
1B2
  3
UCSORTHOVIEW
350
1B3
  3
VERSIONGUID
350
1A6
  0
DICTIONARY
  5
194
102
{ACAD_REACTORS
330
C
102
}
330
C
100
AcDbDictionary
  3
DIMASSOC
350
195
  0
XRECORD
  5
1BC
102
{ACAD_REACTORS
330
15C
102
}
330
15C
100
AcDbXrecord
340
1F
  0
XRECORD
  5
1BB
102
{ACAD_REACTORS
330
15E
102
}
330
15E
100
AcDbXrecord
340
1B
  0
MLINESTYLE
  5
18
102
{ACAD_REACTORS
330
17
102
}
330
17
100
AcDbMlineStyle
  2
STANDARD
 70
     0
  3

 62
   256
 51
90.0
 52
90.0
 71
     2
 49
0.5
 62
   256
  6
BYLAYER
 49
-0.5
 62
   256
  6
BYLAYER
  0
ACDBPLACEHOLDER
  5
F
102
{ACAD_REACTORS
330
E
102
}
330
E
100
AcDbPlaceHolder
280
     0
  0
XRECORD
  5
1A4
102
{ACAD_REACTORS
330
19A
102
}
330
19A
100
AcDbXrecord
 90
        0
  0
XRECORD
  5
1A8
102
{ACAD_REACTORS
330
19A
102
}
330
19A
100
AcDbXrecord
1000
DSTYLE
1002
{
1070
   278
 70
    44
1002
}
  0
XRECORD
  5
1A5
102
{ACAD_REACTORS
330
19A
102
}
330
19A
100
AcDbXrecord
  1
{844A1DCD-A5EA-47DC-9B8C-BC5EECDED33B}
  0
XRECORD
  5
19D
102
{ACAD_REACTORS
330
19A
102
}
330
19A
100
AcDbXrecord
  1

  0
XRECORD
  5
1A3
102
{ACAD_REACTORS
330
19A
102
}
330
19A
100
AcDbXrecord
 90
        4
  0
XRECORD
  5
19F
102
{ACAD_REACTORS
330
19A
102
}
330
19A
100
AcDbXrecord
340
1A
  0
XRECORD
  5
1A2
102
{ACAD_REACTORS
330
19A
102
}
330
19A
100
AcDbXrecord
 90
    10269
  0
XRECORD
  5
1A0
102
{ACAD_REACTORS
330
19A
102
}
330
19A
100
AcDbXrecord
340
19
  0
XRECORD
  5
1A1
102
{ACAD_REACTORS
330
19A
102
}
330
19A
100
AcDbXrecord
340
E
  0
XRECORD
  5
1A7
102
{ACAD_REACTORS
330
19A
102
}
330
19A
100
AcDbXrecord
 40
0.0
  0
XRECORD
  5
1AB
102
{ACAD_REACTORS
330
19A
102
}
330
19A
100
AcDbXrecord
340
0
  0
XRECORD
  5
1B1
102
{ACAD_REACTORS
330
19A
102
}
330
19A
100
AcDbXrecord
 10
0.0
 20
0.0
 30
0.0
  0
XRECORD
  5
1AD
102
{ACAD_REACTORS
330
19A
102
}
330
19A
100
AcDbXrecord
 10
0.0
 20
0.0
 30
0.0
  0
XRECORD
  5
1B0
102
{ACAD_REACTORS
330
19A
102
}
330
19A
100
AcDbXrecord
 10
0.0
 20
0.0
 30
0.0
  0
XRECORD
  5
1AE
102
{ACAD_REACTORS
330
19A
102
}
330
19A
100
AcDbXrecord
 10
0.0
 20
0.0
 30
0.0
  0
XRECORD
  5
1AF
102
{ACAD_REACTORS
330
19A
102
}
330
19A
100
AcDbXrecord
 10
0.0
 20
0.0
 30
0.0
  0
XRECORD
  5
1AC
102
{ACAD_REACTORS
330
19A
102
}
330
19A
100
AcDbXrecord
 10
0.0
 20
0.0
 30
0.0
  0
XRECORD
  5
1A9
102
{ACAD_REACTORS
330
19A
102
}
330
19A
100
AcDbXrecord
340
0
  0
XRECORD
  5
1AA
102
{ACAD_REACTORS
330
19A
102
}
330
19A
100
AcDbXrecord
 70
     0
  0
XRECORD
  5
19E
102
{ACAD_REACTORS
330
19A
102
}
330
19A
100
AcDbXrecord
  1

  0
XRECORD
  5
19B
102
{ACAD_REACTORS
330
19A
102
}
330
19A
100
AcDbXrecord
 90
        1
  0
XRECORD
  5
19C
102
{ACAD_REACTORS
330
19A
102
}
330
19A
100
AcDbXrecord
 90
       70
  0
XRECORD
  5
1B4
102
{ACAD_REACTORS
330
19A
102
}
330
19A
100
AcDbXrecord
340
0
  0
XRECORD
  5
1BA
102
{ACAD_REACTORS
330
19A
102
}
330
19A
100
AcDbXrecord
 10
0.0
 20
0.0
 30
0.0
  0
XRECORD
  5
1B6
102
{ACAD_REACTORS
330
19A
102
}
330
19A
100
AcDbXrecord
 10
0.0
 20
0.0
 30
0.0
  0
XRECORD
  5
1B9
102
{ACAD_REACTORS
330
19A
102
}
330
19A
100
AcDbXrecord
 10
0.0
 20
0.0
 30
0.0
  0
XRECORD
  5
1B7
102
{ACAD_REACTORS
330
19A
102
}
330
19A
100
AcDbXrecord
 10
0.0
 20
0.0
 30
0.0
  0
XRECORD
  5
1B8
102
{ACAD_REACTORS
330
19A
102
}
330
19A
100
AcDbXrecord
 10
0.0
 20
0.0
 30
0.0
  0
XRECORD
  5
1B5
102
{ACAD_REACTORS
330
19A
102
}
330
19A
100
AcDbXrecord
 10
0.0
 20
0.0
 30
0.0
  0
XRECORD
  5
1B2
102
{ACAD_REACTORS
330
19A
102
}
330
19A
100
AcDbXrecord
340
0
  0
XRECORD
  5
1B3
102
{ACAD_REACTORS
330
19A
102
}
330
19A
100
AcDbXrecord
 70
     0
  0
XRECORD
  5
1A6
102
{ACAD_REACTORS
330
19A
102
}
330
19A
100
AcDbXrecord
  1
{DA9213D3-0A0F-43F0-B627-3DF805789D6C}
  0
DICTIONARYVAR
  5
195
102
{ACAD_REACTORS
330
194
102
}
330
194
100
DictionaryVariables
280
     0
  1
1
  0
ENDSEC
  0
EOF
