  0
SECTION
  2
HEADER
  9
$ACADVER
  1
AC1014
  9
$ACADMAINTVER
 70
     9
  9
$DWGCODEPAGE
  3
ANSI_1250
  9
$INSBASE
 10
0.0
 20
0.0
 30
0.0
  9
$EXTMIN
 10
2.695550609398118
 20
9.296768248193863
 30
-0.0015258207003583
  9
$EXTMAX
 10
14.80921330865148
 20
17.41017155350439
 30
0.0000000349246037
  9
$LIMMIN
 10
0.0
 20
0.0
  9
$LIMMAX
 10
0.0
 20
0.0
  9
$ORTHOMODE
 70
     0
  9
$REGENMODE
 70
     1
  9
$FILLMODE
 70
     1
  9
$QTEXTMODE
 70
     0
  9
$MIRRTEXT
 70
     1
  9
$DRAGMODE
 70
     2
  9
$LTSCALE
 40
1.0
  9
$OSMODE
 70
  1007
  9
$ATTMODE
 70
     1
  9
$TEXTSIZE
 40
2.5
  9
$TRACEWID
 40
1.0
  9
$TEXTSTYLE
  7
STANDARD
  9
$CLAYER
  8
0
  9
$CELTYPE
  6
BYLAYER
  9
$CECOLOR
 62
   256
  9
$CELTSCALE
 40
1.0
  9
$DELOBJ
 70
     1
  9
$DISPSILH
 70
     0
  9
$DIMSCALE
 40
1.0
  9
$DIMASZ
 40
0.3
  9
$DIMEXO
 40
0.01
  9
$DIMDLI
 40
3.75
  9
$DIMRND
 40
0.0
  9
$DIMDLE
 40
0.0
  9
$DIMEXE
 40
0.1
  9
$DIMTP
 40
0.0
  9
$DIMTM
 40
0.0
  9
$DIMTXT
 40
0.2822222222222222
  9
$DIMCEN
 40
2.5
  9
$DIMTSZ
 40
0.0
  9
$DIMTOL
 70
     0
  9
$DIMLIM
 70
     0
  9
$DIMTIH
 70
     1
  9
$DIMTOH
 70
     1
  9
$DIMSE1
 70
     0
  9
$DIMSE2
 70
     0
  9
$DIMTAD
 70
     1
  9
$DIMZIN
 70
     0
  9
$DIMBLK
  1

  9
$DIMASO
 70
     1
  9
$DIMSHO
 70
     1
  9
$DIMPOST
  1

  9
$DIMAPOST
  1

  9
$DIMALT
 70
     0
  9
$DIMALTD
 70
     3
  9
$DIMALTF
 40
0.3937007874015748
  9
$DIMLFAC
 40
15.0
  9
$DIMTOFL
 70
     1
  9
$DIMTVP
 40
0.0
  9
$DIMTIX
 70
     0
  9
$DIMSOXD
 70
     0
  9
$DIMSAH
 70
     0
  9
$DIMBLK1
  1

  9
$DIMBLK2
  1

  9
$DIMSTYLE
  2
ISO-25
  9
$DIMCLRD
 70
     0
  9
$DIMCLRE
 70
     0
  9
$DIMCLRT
 70
     0
  9
$DIMTFAC
 40
1.0
  9
$DIMGAP
 40
0.1524
  9
$DIMJUST
 70
     0
  9
$DIMSD1
 70
     0
  9
$DIMSD2
 70
     0
  9
$DIMTOLJ
 70
     0
  9
$DIMTZIN
 70
     0
  9
$DIMALTZ
 70
     0
  9
$DIMALTTZ
 70
     0
  9
$DIMFIT
 70
     3
  9
$DIMUPT
 70
     0
  9
$DIMUNIT
 70
     2
  9
$DIMDEC
 70
     2
  9
$DIMTDEC
 70
     2
  9
$DIMALTU
 70
     2
  9
$DIMALTTD
 70
     3
  9
$DIMTXSTY
  7
STANDARD
  9
$DIMAUNIT
 70
     0
  9
$LUNITS
 70
     2
  9
$LUPREC
 70
     2
  9
$SKETCHINC
 40
1.0
  9
$FILLETRAD
 40
10.0
  9
$AUNITS
 70
     0
  9
$AUPREC
 70
     0
  9
$MENU
  1
.
  9
$ELEVATION
 40
0.0
  9
$PELEVATION
 40
0.0
  9
$THICKNESS
 40
0.0
  9
$LIMCHECK
 70
     0
  9
$BLIPMODE
 70
     0
  9
$CHAMFERA
 40
10.0
  9
$CHAMFERB
 40
10.0
  9
$CHAMFERC
 40
20.0
  9
$CHAMFERD
 40
0.0
  9
$SKPOLY
 70
     0
  9
$TDCREATE
 40
2454418.392802002
  9
$TDUPDATE
 40
2454420.430383206
  9
$TDINDWG
 40
0.0004879282
  9
$TDUSRTIMER
 40
0.0004879282
  9
$USRTIMER
 70
     1
  9
$ANGBASE
 50
0.0
  9
$ANGDIR
 70
     0
  9
$PDMODE
 70
     0
  9
$PDSIZE
 40
-1.0
  9
$PLINEWID
 40
0.0
  9
$COORDS
 70
     1
  9
$SPLFRAME
 70
     0
  9
$SPLINETYPE
 70
     6
  9
$SPLINESEGS
 70
     8
  9
$ATTDIA
 70
     0
  9
$ATTREQ
 70
     1
  9
$HANDLING
 70
 22529
  9
$HANDSEED
  5
7D4
  9
$SURFTAB1
 70
     6
  9
$SURFTAB2
 70
     6
  9
$SURFTYPE
 70
     6
  9
$SURFU
 70
     6
  9
$SURFV
 70
     6
  9
$UCSNAME
  2

  9
$UCSORG
 10
0.0
 20
0.0
 30
0.0
  9
$UCSXDIR
 10
1.0
 20
0.0
 30
0.0
  9
$UCSYDIR
 10
0.0
 20
1.0
 30
0.0
  9
$PUCSNAME
  2

  9
$PUCSORG
 10
0.0
 20
0.0
 30
0.0
  9
$PUCSXDIR
 10
1.0
 20
0.0
 30
0.0
  9
$PUCSYDIR
 10
0.0
 20
1.0
 30
0.0
  9
$USERI1
 70
     0
  9
$USERI2
 70
     0
  9
$USERI3
 70
     0
  9
$USERI4
 70
     0
  9
$USERI5
 70
     0
  9
$USERR1
 40
0.0
  9
$USERR2
 40
0.0
  9
$USERR3
 40
0.0
  9
$USERR4
 40
0.0
  9
$USERR5
 40
0.0
  9
$WORLDVIEW
 70
     1
  9
$SHADEDGE
 70
     3
  9
$SHADEDIF
 70
    70
  9
$TILEMODE
 70
     1
  9
$MAXACTVP
 70
    64
  9
$PINSBASE
 10
0.0
 20
0.0
 30
0.0
  9
$PLIMCHECK
 70
     0
  9
$PEXTMIN
 10
1.000000000000000E+20
 20
1.000000000000000E+20
 30
1.000000000000000E+20
  9
$PEXTMAX
 10
-1.000000000000000E+20
 20
-1.000000000000000E+20
 30
-1.000000000000000E+20
  9
$PLIMMIN
 10
0.0
 20
0.0
  9
$PLIMMAX
 10
420.0
 20
297.0
  9
$UNITMODE
 70
     0
  9
$VISRETAIN
 70
     1
  9
$PLINEGEN
 70
     0
  9
$PSLTSCALE
 70
     1
  9
$TREEDEPTH
 70
  3020
  9
$PICKSTYLE
 70
     1
  9
$CMLSTYLE
  2
STANDARD
  9
$CMLJUST
 70
     0
  9
$CMLSCALE
 40
20.0
  9
$PROXYGRAPHICS
 70
     1
  9
$MEASUREMENT
 70
     1
  0
ENDSEC
  0
SECTION
  2
CLASSES
  0
CLASS
  1
ACDBDICTIONARYWDFLT
  2
AcDbDictionaryWithDefault
  3
AutoCAD 2000
 90
        0
280
     0
281
     0
  0
CLASS
  1
ACDBPLACEHOLDER
  2
AcDbPlaceHolder
  3
AutoCAD 2000
 90
        0
280
     0
281
     0
  0
CLASS
  1
LAYOUT
  2
AcDbLayout
  3
AutoCAD 2000
 90
        0
280
     0
281
     0
  0
CLASS
  1
DICTIONARYVAR
  2
AcDbDictionaryVar
  3
AutoCAD 2000
 90
        0
280
     0
281
     0
  0
CLASS
  1
LONG_TRANSACTION
  2
AcDbLongTransaction
  3
AutoCAD 2000
 90
        0
280
     0
281
     0
  0
CLASS
  1
LWPOLYLINE
  2
AcDbPolyline
  3
AutoCAD 2000
 90
        0
280
     0
281
     1
  0
CLASS
  1
HATCH
  2
AcDbHatch
  3
AutoCAD 2000
 90
        0
280
     0
281
     1
  0
CLASS
  1
XRECORD
  2
AcDbXrecord
  3
AutoCAD 2000
 90
        0
280
     0
281
     0
  0
ENDSEC
  0
SECTION
  2
TABLES
  0
TABLE
  2
VPORT
  5
8
330
0
100
AcDbSymbolTable
 70
     4
  0
VPORT
  5
7AC
330
8
100
AcDbSymbolTableRecord
100
AcDbViewportTableRecord
  2
*ACTIVE
 70
     0
 10
0.0
 20
0.0
 11
1.0
 21
1.0
 12
8.752381959024802
 22
13.35346990084912
 13
0.0
 23
0.0
 14
10.0
 24
10.0
 15
10.0
 25
10.0
 16
0.0
 26
0.0
 36
1.0
 17
0.0
 27
0.0
 37
0.0
 40
8.193338313244622
 41
1.981907894736842
 42
50.0
 43
0.0
 44
0.0
 50
0.0
 51
0.0
 71
     0
 72
  2000
 73
     1
 74
     3
 75
     0
 76
     0
 77
     0
 78
     0
  0
ENDTAB
  0
TABLE
  2
LTYPE
  5
5
330
0
100
AcDbSymbolTable
 70
     6
  0
LTYPE
  5
14
330
5
100
AcDbSymbolTableRecord
100
AcDbLinetypeTableRecord
  2
BYBLOCK
 70
     0
  3

 72
    65
 73
     0
 40
0.0
  0
LTYPE
  5
15
330
5
100
AcDbSymbolTableRecord
100
AcDbLinetypeTableRecord
  2
BYLAYER
 70
     0
  3

 72
    65
 73
     0
 40
0.0
  0
LTYPE
  5
16
330
5
100
AcDbSymbolTableRecord
100
AcDbLinetypeTableRecord
  2
CONTINUOUS
 70
     0
  3
Solid line
 72
    65
 73
     0
 40
0.0
  0
ENDTAB
  0
TABLE
  2
LAYER
  5
2
330
0
100
AcDbSymbolTable
 70
    17
  0
LAYER
  5
10
330
2
100
AcDbSymbolTableRecord
100
AcDbLayerTableRecord
  2
0
 70
     0
 62
     7
  6
CONTINUOUS
  0
ENDTAB
  0
TABLE
  2
STYLE
  5
3
330
0
100
AcDbSymbolTable
 70
     4
  0
STYLE
  5
11
330
3
100
AcDbSymbolTableRecord
100
AcDbTextStyleTableRecord
  2
STANDARD
 70
     0
 40
0.0
 41
1.0
 50
0.0
 71
     0
 42
2.5
  3
ARIAL.TTF
  4

1001
ACAD
1000
Arial
1071
       34
  0
ENDTAB
  0
TABLE
  2
VIEW
  5
6
330
0
100
AcDbSymbolTable
 70
     0
  0
ENDTAB
  0
TABLE
  2
UCS
  5
7
330
0
100
AcDbSymbolTable
 70
     0
  0
ENDTAB
  0
TABLE
  2
APPID
  5
9
330
0
100
AcDbSymbolTable
 70
     1
  0
APPID
  5
12
330
9
100
AcDbSymbolTableRecord
100
AcDbRegAppTableRecord
  2
ACAD
 70
     0
  0
ENDTAB
  0
TABLE
  2
DIMSTYLE
  5
A
330
0
100
AcDbSymbolTable
 70
     4
  0
DIMSTYLE
105
27
330
A
100
AcDbSymbolTableRecord
100
AcDbDimStyleTableRecord
  2
ISO-25
 70
     0
  3

  4

  5

  6

  7

 40
1.0
 41
2.5
 42
0.625
 43
3.75
 44
1.25
 45
0.0
 46
0.0
 47
0.0
 48
0.0
140
2.5
141
2.5
142
0.0
143
0.03937007874016
144
1.0
145
0.0
146
1.0
147
0.625
 71
     0
 72
     0
 73
     0
 74
     0
 75
     0
 76
     0
 77
     1
 78
     8
170
     0
171
     3
172
     1
173
     0
174
     0
175
     0
176
     0
177
     0
178
     0
270
     2
271
     2
272
     2
273
     2
274
     3
340
11
275
     0
280
     0
281
     0
282
     0
283
     0
284
     8
285
     0
286
     0
287
     3
288
     0
  0
ENDTAB
  0
TABLE
  2
BLOCK_RECORD
  5
1
330
0
100
AcDbSymbolTable
 70
    23
  0
BLOCK_RECORD
  5
1F
102
{ACAD_XDICTIONARY
360
7D0
102
}
330
1
100
AcDbSymbolTableRecord
100
AcDbBlockTableRecord
  2
*MODEL_SPACE
  0
BLOCK_RECORD
  5
1B
102
{ACAD_XDICTIONARY
360
7CE
102
}
330
1
100
AcDbSymbolTableRecord
100
AcDbBlockTableRecord
  2
*PAPER_SPACE
  0
ENDTAB
  0
ENDSEC
  0
SECTION
  2
BLOCKS
  0
BLOCK
  5
20
330
1F
100
AcDbEntity
  8
0
100
AcDbBlockBegin
  2
*MODEL_SPACE
 70
     0
 10
0.0
 20
0.0
 30
0.0
  3
*MODEL_SPACE
  1

  0
ENDBLK
  5
21
330
1F
100
AcDbEntity
  8
0
100
AcDbBlockEnd
  0
BLOCK
  5
1C
330
1B
100
AcDbEntity
 67
     1
  8
0
100
AcDbBlockBegin
  2
*PAPER_SPACE
 70
     0
 10
0.0
 20
0.0
 30
0.0
  3
*PAPER_SPACE
  1

  0
ENDBLK
  5
1D
330
1B
100
AcDbEntity
 67
     1
  8
0
100
AcDbBlockEnd
  0
ENDSEC
  0
SECTION
  2
ENTITIES
  0
LINE
  5
101
330
1F
100
AcDbEntity
  8
0
100
AcDbLine
 10
2.716856808136132
 20
17.11778218953125
 30
0.0
 11
2.716856808136132
 21
17.26778219549171
 31
0.0
  0
LINE
  5
102
330
1F
100
AcDbEntity
  8
0
100
AcDbLine
 10
14.666857332657
 20
9.317782475633546
 30
0.0
 11
14.5168568796617
 21
9.317782475633546
 31
0.0
  0
LINE
  5
103
330
1F
100
AcDbEntity
  8
0
100
AcDbLine
 10
2.716856808136132
 20
17.36778224913589
 30
0.0
 11
14.56685683197799
 21
17.36778224913589
 31
0.0
  0
LINE
  5
104
330
1F
100
AcDbEntity
  8
0
100
AcDbLine
 10
2.716856808136132
 20
17.26778219549171
 30
0.0
 11
2.716856808136132
 21
17.36778224913589
 31
0.0
  0
ARC
  5
105
330
1F
100
AcDbEntity
  8
0
100
AcDbCircle
 10
14.56685704655471
 20
17.16778223721497
 30
0.0
 40
0.1999999999999993
100
AcDbArc
 50
0.0
 51
90.0
  0
LINE
  5
106
330
1F
100
AcDbEntity
  8
0
100
AcDbLine
 10
14.76685723728957
 20
17.16778229085914
 30
0.0
 11
14.76685723728957
 21
9.317782475633546
 31
0.0
  0
LINE
  5
107
330
1F
100
AcDbEntity
  8
0
100
AcDbLine
 10
14.76685723728957
 20
9.317782475633546
 30
0.0
 11
14.666857332657
 21
9.317782475633546
 31
0.0
  0
LINE
  5
108
330
1F
100
AcDbEntity
  8
0
100
AcDbLine
 10
3.4524848169786
 20
9.891606523675843
 30
0.0
 11
3.386028022239831
 21
9.825149728937073
 31
0.0
  0
LWPOLYLINE
  5
109
330
1F
100
AcDbEntity
  8
0
100
AcDbPolyline
 90
       15
 70
   128
 43
0.0
 10
3.4524848169786
 20
9.891606523675843
 10
4.239875883529808
 20
9.899051143808289
 10
5.027290493915704
 20
9.905711366815491
 10
5.814726561973718
 20
9.911416127366944
 10
6.60218095846
 20
9.915996744317933
 10
7.389651299188759
 20
9.919281556291506
 10
8.177277468810704
 20
9.92106611935608
 10
8.964915224085476
 20
9.921296193284915
 10
9.752552942107346
 20
9.920030786676331
 10
10.54017907447638
 20
9.917328312082215
 10
11.32778188652816
 20
9.913247778100892
 10
11.99116250939193
 20
9.908841206712647
 10
12.65452793307128
 20
9.903697325868531
 10
13.31788560814681
 20
9.897921635789796
 10
13.98122927613082
 20
9.891606523675843
  0
LINE
  5
10A
330
1F
100
AcDbEntity
  8
0
100
AcDbLine
 10
14.04768607086959
 20
9.825149728937073
 30
0.0
 11
13.98122927613082
 21
9.891606523675843
 31
0.0
  0
LINE
  5
10B
330
1F
100
AcDbEntity
  8
0
100
AcDbLine
 10
14.04768607086959
 20
9.825149728937073
 30
0.0
 11
3.386028022239831
 21
9.825149728937073
 31
0.0
  0
LWPOLYLINE
  5
10C
330
1F
100
AcDbEntity
  8
0
100
AcDbPolyline
 90
       16
 70
   128
 43
0.0
 10
13.98122927613082
 20
9.891606523675843
 10
14.00026878781142
 20
9.892278864068909
 10
14.01919624275985
 20
9.894765569848939
 10
14.03770169682326
 20
9.899206115884705
 10
14.05574521488967
 20
9.905856802148743
 10
14.07288155026259
 20
9.914737298173829
 10
14.08861419625106
 20
9.925755812807008
 10
14.10091003842177
 20
9.937070562524722
 10
14.11179205841842
 20
9.949834897203372
 10
14.12104687161269
 20
9.963752581758425
 10
14.12810525364699
 20
9.977540328187867
 10
14.13374504513564
 20
9.992013528032227
 10
14.13797280258956
 20
10.00692601410858
 10
14.1408666080934
 20
10.02230818478577
 10
14.142474145363
 20
10.03790791241638
 10
14.14287945694747
 20
10.05356307236664
  0
LWPOLYLINE
  5
10D
330
1F
100
AcDbEntity
  8
0
100
AcDbPolyline
 90
       16
 70
   128
 43
0.0
 10
3.29083463616195
 20
10.05356307236664
 10
3.291490287254479
 20
10.03447706906311
 10
3.293964476059105
 20
10.01550133435242
 10
3.298397869537499
 20
9.99694640843384
 10
3.305049151847985
 20
9.978852226419373
 10
3.313938588569786
 20
9.961665823144837
 10
3.324976176689294
 20
9.945888473672791
 10
3.336299867103722
 20
9.933573558015748
 10
3.34907791085067
 20
9.922676040811465
 10
3.363012880752709
 20
9.913409902734681
 10
3.376799435089257
 20
9.906354500932618
 10
3.391270846794274
 20
9.900718285722657
 10
3.406182140777733
 20
9.896495296640321
 10
3.421454638908532
 20
9.893623544855042
 10
3.436941713760521
 20
9.892020775957032
 10
3.4524848169786
 20
9.891606523675843
  0
ARC
  5
10E
330
1F
100
AcDbEntity
  8
0
100
AcDbCircle
 10
-493.8452977277993
 20
16.09170944092294
 30
0.0
 40
497.1728002549678
100
AcDbArc
 50
359.3041276428334
 51
0.0523009286031496
  0
LWPOLYLINE
  5
10F
330
1F
100
AcDbEntity
  8
0
100
AcDbPolyline
 90
       15
 70
   128
 43
0.0
 10
3.491128296325829
 20
16.70531439690105
 10
3.471734137008813
 20
16.70471969155781
 10
3.452446073959496
 20
16.70227523056976
 10
3.433580011795189
 20
16.69783431200496
 10
3.415172309349206
 20
16.69112916199676
 10
3.397686094711449
 20
16.68213392703049
 10
3.381640524337914
 20
16.67093577889911
 10
3.369205207298425
 20
16.65950375704281
 10
3.358208746383813
 20
16.64659495560638
 10
3.348874062965539
 20
16.63251127211563
 10
3.341827601860192
 20
16.61866578368656
 10
3.336211652229455
 20
16.60413320271484
 10
3.33202263779464
 20
16.58916155902855
 10
3.328417748878625
 20
16.56749065129272
 10
3.327295393417504
 20
16.54554034678451
  0
LWPOLYLINE
  5
110
330
1F
100
AcDbEntity
  8
0
100
AcDbPolyline
 90
       19
 70
   128
 43
0.0
 10
13.94258579678359
 20
16.70531439690105
 10
12.19671717352691
 20
16.68007175533287
 10
11.32377436823668
 20
16.66764552800171
 10
10.45081427759948
 20
16.65565523414127
 10
10.15980473227324
 20
16.65174807517044
 10
9.868781999419358
 20
16.64796519188397
 10
9.577746526072647
 20
16.6445731660556
 10
9.286698498497631
 20
16.64183872847072
 10
8.995638400982048
 20
16.64002846090309
 10
8.704566460535776
 20
16.63940916864387
 10
8.414899152438071
 20
16.64013627080433
 10
8.125244439314034
 20
16.64201538173668
 10
7.835602299044755
 20
16.64478744475357
 10
7.545972526739267
 20
16.64819347767345
 10
7.256355196903374
 20
16.65197420029155
 10
6.966750235031274
 20
16.65587070493213
 10
6.098073930214074
 20
16.66781316606514
 10
5.229414612720635
 20
16.68018045930378
 10
3.491128296325829
 20
16.70531439690105
  0
LWPOLYLINE
  5
111
330
1F
100
AcDbEntity
  8
0
100
AcDbPolyline
 90
       16
 70
   128
 43
0.0
 10
14.10641869969192
 20
16.54554034678451
 10
14.10560211605849
 20
16.56431886462681
 10
14.10299083657088
 20
16.58297146765701
 10
14.09845432705703
 20
16.60119089393131
 10
14.09174940056624
 20
16.6189284166526
 10
14.08286950058761
 20
16.63576106636039
 10
14.07191297478499
 20
16.65121163336746
 10
14.06060299343886
 20
16.6633966854047
 10
14.0478696531755
 20
16.67418184785358
 10
14.03400561280074
 20
16.68336364535801
 10
14.02013859219375
 20
16.69044706134311
 10
14.00558611817183
 20
16.69610950259678
 10
13.99059435791793
 20
16.7003585687112
 10
13.97476098007979
 20
16.70332658199779
 10
13.95870110459151
 20
16.70494909493439
 10
13.94258579678359
 20
16.70531439690105
  0
ARC
  5
112
330
1F
100
AcDbEntity
  8
0
100
AcDbCircle
 10
507.3077715242826
 20
16.0694058464496
 30
0.0
 40
493.2015826536537
100
AcDbArc
 50
179.9446869139379
 51
180.6988845146271
  0
CIRCLE
  5
113
330
1F
100
AcDbEntity
  8
0
100
AcDbCircle
 10
8.716857046554711
 20
15.81778223721496
 30
0.0
 40
0.6000000000000015
  0
LINE
  5
114
330
1F
100
AcDbEntity
  8
0
100
AcDbLine
 10
2.816795916031029
 20
17.31778229681961
 30
0.0
 11
2.832499355743554
 21
17.30207885710709
 31
0.0
  0
ARC
  5
115
330
1F
100
AcDbEntity
  8
0
100
AcDbCircle
 10
2.832486429346388
 20
17.20203692987863
 30
0.0
 40
0.100041928063569
100
AcDbArc
 50
89.99259682396905
 51
134.9530658059804
  0
ARC
  5
116
330
1F
100
AcDbEntity
  8
0
100
AcDbCircle
 10
2.832606796390656
 20
17.20215076371575
 30
0.0
 40
0.1000465491483143
100
AcDbArc
 50
135.0479085308548
 51
180.0063079094116
  0
LINE
  5
117
330
1F
100
AcDbEntity
  8
0
100
AcDbLine
 10
2.732560247848656
 20
17.20213974921219
 30
0.0
 11
2.716856808136132
 21
17.21784318892471
 31
0.0
  0
ARC
  5
118
330
1F
100
AcDbEntity
  8
0
100
AcDbCircle
 10
2.816776663856303
 20
17.21786244109944
 30
0.0
 40
0.0999198575748887
100
AcDbArc
 50
89.98896046900117
 51
180.0110395310001
  0
LINE
  5
119
330
1F
100
AcDbEntity
  8
0
100
AcDbLine
 10
14.61691817707839
 20
9.317782475633546
 30
0.0
 11
14.60121473736587
 21
9.33348591534607
 31
0.0
  0
ARC
  5
11A
330
1F
100
AcDbEntity
  8
0
100
AcDbCircle
 10
14.60122850737625
 20
9.433526885426886
 30
0.0
 40
0.1000409710284932
100
AcDbArc
 50
269.9921135963293
 51
314.9529302971414
  0
ARC
  5
11B
330
1F
100
AcDbEntity
  8
0
100
AcDbCircle
 10
14.60110593031774
 20
9.433414126905283
 30
0.0
 40
0.1000479154732502
100
AcDbArc
 50
315.0482323205973
 51
0.0058988045805374
  0
LINE
  5
11C
330
1F
100
AcDbEntity
  8
0
100
AcDbLine
 10
14.70115384526076
 20
9.43342442719452
 30
0.0
 11
14.71685728497329
 21
9.417721583528443
 31
0.0
  0
ARC
  5
11D
330
1F
100
AcDbEntity
  8
0
100
AcDbCircle
 10
14.61693810683825
 20
9.417701653768581
 30
0.0
 40
0.0999191801226185
100
AcDbArc
 50
269.9885718524422
 51
0.0114281475585657
  0
LINE
  5
11E
330
1F
100
AcDbEntity
  8
0
100
AcDbLine
 10
2.716856808136132
 20
9.417721583528443
 30
0.0
 11
2.732560247848656
 21
9.43342442719452
 31
0.0
  0
ARC
  5
11F
330
1F
100
AcDbEntity
  8
0
100
AcDbCircle
 10
2.8326052440375
 20
9.433412919532731
 30
0.0
 40
0.1000449968506779
100
AcDbArc
 50
179.9934095609498
 51
224.9524593138744
  0
ARC
  5
120
330
1F
100
AcDbEntity
  8
0
100
AcDbCircle
 10
2.832486677671031
 20
9.433529525178089
 30
0.0
 40
0.1000436106353363
100
AcDbArc
 50
225.0476952725281
 51
270.0072608340034
  0
LINE
  5
121
330
1F
100
AcDbEntity
  8
0
100
AcDbLine
 10
2.832499355743554
 20
9.33348591534607
 30
0.0
 11
2.816795916031029
 21
9.317782475633546
 31
0.0
  0
ARC
  5
122
330
1F
100
AcDbEntity
  8
0
100
AcDbCircle
 10
2.816775986271168
 20
9.417701653768581
 30
0.0
 40
0.0999191801226185
100
AcDbArc
 50
179.9885718524414
 51
270.0114281475593
  0
ARC
  5
123
330
1F
100
AcDbEntity
  8
0
100
AcDbCircle
 10
14.05145262893916
 20
9.98096227559761
 30
0.0
 40
0.1581503151066986
100
AcDbArc
 50
315.5698102908132
 51
2.170914014795993
  0
LINE
  5
124
330
1F
100
AcDbEntity
  8
0
100
AcDbLine
 10
14.20948943562331
 20
16.64861123172752
 30
0.0
 11
14.20948943562331
 21
9.986953093690797
 31
0.0
  0
ARC
  5
125
330
1F
100
AcDbEntity
  8
0
100
AcDbCircle
 10
14.04924306875285
 20
16.6537479956516
 30
0.0
 40
0.1603286762834186
100
AcDbArc
 50
358.1639886549022
 51
44.09533623748164
  0
ARC
  5
126
330
1F
100
AcDbEntity
  8
0
100
AcDbCircle
 10
14.60110974818285
 20
17.20215177778684
 30
0.0
 40
0.1000440978010266
100
AcDbArc
 50
359.9931111721967
 51
44.95267238753704
  0
LINE
  5
127
330
1F
100
AcDbEntity
  8
0
100
AcDbLine
 10
14.70115384526076
 20
9.43342442719452
 30
0.0
 11
14.70115384526076
 21
17.20213974921219
 31
0.0
  0
LINE
  5
128
330
1F
100
AcDbEntity
  8
0
100
AcDbLine
 10
14.71685728497329
 20
17.21784318892471
 30
0.0
 11
14.70115384526076
 21
17.20213974921219
 31
0.0
  0
ARC
  5
129
330
1F
100
AcDbEntity
  8
0
100
AcDbCircle
 10
14.60122649370701
 20
17.2020341013206
 30
0.0
 40
0.1000447564772367
100
AcDbArc
 50
45.04760449613693
 51
90.00673287391654
  0
LINE
  5
12A
330
1F
100
AcDbEntity
  8
0
100
AcDbLine
 10
14.60121473736587
 20
17.30207885710709
 30
0.0
 11
14.61691817707839
 21
17.31778229681961
 31
0.0
  0
ARC
  5
12B
330
1F
100
AcDbEntity
  8
0
100
AcDbCircle
 10
14.61693742925312
 20
17.21786244109943
 30
0.0
 40
0.0999198575748913
100
AcDbArc
 50
359.9889604690034
 51
90.01103953099935
  0
ARC
  5
12C
330
1F
100
AcDbEntity
  8
0
100
AcDbCircle
 10
3.382260093820445
 20
16.65460243804762
 30
0.0
 40
0.1581489604472773
100
AcDbArc
 50
135.5696017367368
 51
182.1710733708767
  0
LINE
  5
12D
330
1F
100
AcDbEntity
  8
0
100
AcDbLine
 10
3.224224657486107
 20
9.986953093690797
 30
0.0
 11
3.224224657486107
 21
16.64861123172752
 31
0.0
  0
ARC
  5
12E
330
1F
100
AcDbEntity
  8
0
100
AcDbCircle
 10
3.384472148012335
 20
9.981816621564691
 30
0.0
 40
0.1603297900137583
100
AcDbArc
 50
178.164105744189
 51
224.0951699502034
  0
LINE
  5
12F
330
1F
100
AcDbEntity
  8
0
100
AcDbLine
 10
2.732560247848656
 20
17.20213974921219
 30
0.0
 11
2.732560247848656
 21
9.43342442719452
 31
0.0
  0
ARC
  5
130
330
1F
100
AcDbEntity
  8
0
100
AcDbCircle
 10
3.380037204146648
 20
9.983186535621229
 30
0.0
 40
0.1581503151067067
100
AcDbArc
 50
225.5698102908131
 51
272.1709140147952
  0
ARC
  5
131
330
1F
100
AcDbEntity
  8
0
100
AcDbCircle
 10
14.05282098144905
 20
9.985401260081575
 30
0.0
 40
0.1603337785396978
100
AcDbArc
 50
268.1647097403371
 51
314.0945659540591
  0
LINE
  5
132
330
1F
100
AcDbEntity
  8
0
100
AcDbLine
 10
2.832499355743554
 20
9.33348591534607
 30
0.0
 11
14.60121473736587
 21
9.33348591534607
 31
0.0
  0
LINE
  5
133
330
1F
100
AcDbEntity
  8
0
100
AcDbLine
 10
2.716856808136132
 20
9.417721583528443
 30
0.0
 11
2.716856808136132
 21
17.21784318892471
 31
0.0
  0
LINE
  5
134
330
1F
100
AcDbEntity
  8
0
100
AcDbLine
 10
14.71685728497329
 20
17.21784318892471
 30
0.0
 11
14.71685728497329
 21
9.417721583528443
 31
0.0
  0
LINE
  5
135
330
1F
100
AcDbEntity
  8
0
100
AcDbLine
 10
14.61691817707839
 20
9.317782475633546
 30
0.0
 11
2.816795916031029
 21
9.317782475633546
 31
0.0
  0
ARC
  5
136
330
1F
100
AcDbEntity
  8
0
100
AcDbCircle
 10
14.05367715681341
 20
16.65237911708083
 30
0.0
 40
0.1581490733745696
100
AcDbArc
 50
45.5695051732686
 51
92.17102817745548
  0
LINE
  5
137
330
1F
100
AcDbEntity
  8
0
100
AcDbLine
 10
3.386028022239831
 20
16.81041467098705
 30
0.0
 11
14.04768607086959
 21
16.81041467098705
 31
0.0
  0
ARC
  5
138
330
1F
100
AcDbEntity
  8
0
100
AcDbCircle
 10
3.380892655858326
 20
16.65016488993227
 30
0.0
 40
0.1603320439462381
100
AcDbArc
 50
88.16452691032102
 51
134.0949397389537
  0
LINE
  5
139
330
1F
100
AcDbEntity
  8
0
100
AcDbLine
 10
14.60121473736587
 20
17.30207885710709
 30
0.0
 11
2.832499355743554
 21
17.30207885710709
 31
0.0
  0
LINE
  5
13A
330
1F
100
AcDbEntity
  8
0
100
AcDbLine
 10
2.816795916031029
 20
17.31778229681961
 30
0.0
 11
14.61691817707839
 21
17.31778229681961
 31
0.0
  0
LINE
  5
13B
330
1F
100
AcDbEntity
  8
0
100
AcDbLine
 10
13.94258579678359
 20
16.70531439690105
 30
0.0
 11
14.04768607086959
 21
16.81041467098705
 31
0.0
  0
LINE
  5
13C
330
1F
100
AcDbEntity
  8
0
100
AcDbLine
 10
14.20948943562331
 20
16.64861123172752
 30
0.0
 11
14.10641869969192
 21
16.54554034678451
 31
0.0
  0
LINE
  5
13D
330
1F
100
AcDbEntity
  8
0
100
AcDbLine
 10
3.224224657486107
 20
9.986953093690797
 30
0.0
 11
3.29083463616195
 21
10.05356307236664
 31
0.0
  0
LINE
  5
13E
330
1F
100
AcDbEntity
  8
0
100
AcDbLine
 10
14.14287945694747
 20
10.05356307236664
 30
0.0
 11
14.20948943562331
 21
9.986953093690797
 31
0.0
  0
LINE
  5
13F
330
1F
100
AcDbEntity
  8
0
100
AcDbLine
 10
3.327295393417504
 20
16.54554034678451
 30
0.0
 11
3.224224657486107
 21
16.64861123172752
 31
0.0
  0
LINE
  5
140
330
1F
100
AcDbEntity
  8
0
100
AcDbLine
 10
3.386028022239831
 20
16.81041467098705
 30
0.0
 11
3.491128296325829
 21
16.70531439690105
 31
0.0
  0
CIRCLE
  5
141
330
1F
100
AcDbEntity
  8
0
100
AcDbCircle
 10
8.716857046554711
 20
15.81778223721496
 30
0.0
 40
0.4499999999999993
  0
LINE
  5
142
330
1F
100
AcDbEntity
  8
0
100
AcDbLine
 10
2.730219573448327
 20
17.26778219549171
 30
0.0
 11
2.716856808136132
 21
17.26778219549171
 31
0.0
  0
LINE
  5
143
330
1F
100
AcDbEntity
  8
0
100
AcDbLine
 10
14.666857332657
 20
9.317782475633546
 30
0.0
 11
14.666857332657
 21
9.331144644899294
 31
0.0
  0
LINE
  5
144
330
1F
100
AcDbEntity
  8
0
100
AcDbLine
 10
14.56685683197799
 20
17.31778229681961
 30
0.0
 11
14.56685683197799
 21
17.36778224913589
 31
0.0
  0
LINE
  5
145
330
1F
100
AcDbEntity
  8
0
100
AcDbLine
 10
14.71685728497329
 20
17.16778229085914
 30
0.0
 11
14.76685723728957
 21
17.16778229085914
 31
0.0
  0
HATCH
  5
5B2
330
1F
100
AcDbEntity
  8
0
  6
CONTINUOUS
 62
     7
100
AcDbHatch
 10
0.0
 20
0.0
 30
0.0
210
0.0
220
0.0
230
1.0
  2
ANSI32
 70
     0
 71
     0
 91
        1
 92
        0
 93
        4
 72
     1
 10
14.66685704655468
 20
2.921732396553721
 11
14.51685704655468
 21
2.921732396553721
 72
     1
 10
14.51685704655468
 20
2.921732396553721
 11
14.51685704655468
 21
2.891732396553721
 72
     1
 10
14.51685704655468
 20
2.891732396553721
 11
14.66685704655468
 21
2.891732396553721
 72
     1
 10
14.66685704655468
 20
2.891732396553721
 11
14.66685704655468
 21
2.921732396553721
 97
        0
 75
     0
 76
     1
 52
0.0
 41
0.1
 77
     0
 78
     2
 53
45.0
 43
0.0
 44
0.0
 45
-0.6735192090801866
 46
0.6735192090801866
 79
     0
 53
45.0
 43
0.449013
 44
0.0
 45
-0.6735192090801866
 46
0.6735192090801866
 79
     0
 98
        1
 10
0.0
 20
0.0
  0
HATCH
  5
5B4
330
1F
100
AcDbEntity
  8
0
  6
CONTINUOUS
 62
     7
100
AcDbHatch
 10
0.0
 20
0.0
 30
0.0
210
0.0
220
0.0
230
1.0
  2
ANSI32
 70
     0
 71
     0
 91
        1
 92
        0
 93
        4
 72
     1
 10
14.62499605828528
 20
4.048833927213289
 11
14.62499605828528
 21
4.228833927213289
 72
     1
 10
14.62499605828528
 20
4.228833927213289
 11
14.22499605828527
 21
4.228833927213289
 72
     1
 10
14.22499605828527
 20
4.228833927213289
 11
14.22499605828527
 21
4.048833927213289
 72
     1
 10
14.22499605828527
 20
4.048833927213289
 11
14.62499605828528
 21
4.048833927213289
 97
        0
 75
     0
 76
     1
 52
0.0
 41
0.1
 77
     0
 78
     2
 53
45.0
 43
0.0
 44
0.0
 45
-0.6735192090801866
 46
0.6735192090801866
 79
     0
 53
45.0
 43
0.449013
 44
0.0
 45
-0.6735192090801866
 46
0.6735192090801866
 79
     0
 98
        1
 10
0.0
 20
0.0
  0
ENDSEC
  0
SECTION
  2
OBJECTS
  0
DICTIONARY
  5
C
330
0
100
AcDbDictionary
  3
ACAD_GROUP
350
D
  3
ACAD_LAYOUT
350
1A
  3
ACAD_MLINESTYLE
350
17
  3
ACAD_PLOTSETTINGS
350
19
  3
ACAD_PLOTSTYLENAME
350
E
  3
ACDBHEADERROUNDTRIPXREC
350
7AD
  3
ACDBVARIABLEDICTIONARY
350
7AA
  0
DICTIONARY
  5
7D0
330
1F
100
AcDbDictionary
280
     1
  3
ACAD_LAYOUTSELFREF
360
7D1
  0
DICTIONARY
  5
7CE
330
1B
100
AcDbDictionary
280
     1
  3
ACAD_LAYOUTSELFREF
360
7CF
  0
DICTIONARY
  5
D
102
{ACAD_REACTORS
330
C
102
}
330
C
100
AcDbDictionary
  0
DICTIONARY
  5
1A
102
{ACAD_REACTORS
330
C
102
}
330
C
100
AcDbDictionary
  0
DICTIONARY
  5
17
102
{ACAD_REACTORS
330
C
102
}
330
C
100
AcDbDictionary
  3
STANDARD
350
18
  0
DICTIONARY
  5
19
102
{ACAD_REACTORS
330
C
102
}
330
C
100
AcDbDictionary
  0
ACDBDICTIONARYWDFLT
  5
E
102
{ACAD_REACTORS
330
C
102
}
330
C
100
AcDbDictionary
281
     1
  3
Normal
350
F
100
AcDbDictionaryWithDefault
340
F
  0
DICTIONARY
  5
7AD
102
{ACAD_REACTORS
330
C
102
}
330
C
100
AcDbDictionary
  3
CEPSNTYPE
350
7B7
  3
DIMSTYLEDATA
350
7BB
  3
FINGERPRINTGUID
350
7B8
  3
HYPERLINKBASE
350
7B0
  3
INSUNITS
350
7B6
  3
LAYOUTDICT
350
7B2
  3
LWETCUNION
350
7B5
  3
PLOTSETDICT
350
7B3
  3
PLOTSTYLNAMDICT
350
7B4
  3
PSVPSCALE
350
7BA
  3
PUCSBASE
350
7BE
  3
PUCSORGBACK
350
7C4
  3
PUCSORGBOTTOM
350
7C0
  3
PUCSORGFRONT
350
7C3
  3
PUCSORGLEFT
350
7C1
  3
PUCSORGRIGHT
350
7C2
  3
PUCSORGTOP
350
7BF
  3
PUCSORTHOREF
350
7BC
  3
PUCSORTHOVIEW
350
7BD
  3
STYLESHEET
350
7B1
  3
TSTACKALIGN
350
7AE
  3
TSTACKSIZE
350
7AF
  3
UCSBASE
350
7C7
  3
UCSORGBACK
350
7CD
  3
UCSORGBOTTOM
350
7C9
  3
UCSORGFRONT
350
7CC
  3
UCSORGLEFT
350
7CA
  3
UCSORGRIGHT
350
7CB
  3
UCSORGTOP
350
7C8
  3
UCSORTHOREF
350
7C5
  3
UCSORTHOVIEW
350
7C6
  3
VERSIONGUID
350
7B9
  0
DICTIONARY
  5
7AA
102
{ACAD_REACTORS
330
C
102
}
330
C
100
AcDbDictionary
  3
DIMASSOC
350
7AB
  0
XRECORD
  5
7D1
102
{ACAD_REACTORS
330
7D0
102
}
330
7D0
100
AcDbXrecord
340
1F
  0
XRECORD
  5
7CF
102
{ACAD_REACTORS
330
7CE
102
}
330
7CE
100
AcDbXrecord
340
1B
  0
MLINESTYLE
  5
18
102
{ACAD_REACTORS
330
17
102
}
330
17
100
AcDbMlineStyle
  2
STANDARD
 70
     0
  3

 62
   256
 51
90.0
 52
90.0
 71
     2
 49
0.5
 62
   256
  6
BYLAYER
 49
-0.5
 62
   256
  6
BYLAYER
  0
ACDBPLACEHOLDER
  5
F
102
{ACAD_REACTORS
330
E
102
}
330
E
100
AcDbPlaceHolder
280
     0
  0
XRECORD
  5
7B7
102
{ACAD_REACTORS
330
7AD
102
}
330
7AD
100
AcDbXrecord
 90
        0
  0
XRECORD
  5
7BB
102
{ACAD_REACTORS
330
7AD
102
}
330
7AD
100
AcDbXrecord
1000
DSTYLE
1002
{
1070
   278
 70
    44
1002
}
  0
XRECORD
  5
7B8
102
{ACAD_REACTORS
330
7AD
102
}
330
7AD
100
AcDbXrecord
  1
{C623BFD2-466F-4B38-BBAB-95DAFF0750AA}
  0
XRECORD
  5
7B0
102
{ACAD_REACTORS
330
7AD
102
}
330
7AD
100
AcDbXrecord
  1

  0
XRECORD
  5
7B6
102
{ACAD_REACTORS
330
7AD
102
}
330
7AD
100
AcDbXrecord
 90
        4
  0
XRECORD
  5
7B2
102
{ACAD_REACTORS
330
7AD
102
}
330
7AD
100
AcDbXrecord
340
1A
  0
XRECORD
  5
7B5
102
{ACAD_REACTORS
330
7AD
102
}
330
7AD
100
AcDbXrecord
 90
    10781
  0
XRECORD
  5
7B3
102
{ACAD_REACTORS
330
7AD
102
}
330
7AD
100
AcDbXrecord
340
19
  0
XRECORD
  5
7B4
102
{ACAD_REACTORS
330
7AD
102
}
330
7AD
100
AcDbXrecord
340
E
  0
XRECORD
  5
7BA
102
{ACAD_REACTORS
330
7AD
102
}
330
7AD
100
AcDbXrecord
 40
0.0
  0
XRECORD
  5
7BE
102
{ACAD_REACTORS
330
7AD
102
}
330
7AD
100
AcDbXrecord
340
0
  0
XRECORD
  5
7C4
102
{ACAD_REACTORS
330
7AD
102
}
330
7AD
100
AcDbXrecord
 10
0.0
 20
0.0
 30
0.0
  0
XRECORD
  5
7C0
102
{ACAD_REACTORS
330
7AD
102
}
330
7AD
100
AcDbXrecord
 10
0.0
 20
0.0
 30
0.0
  0
XRECORD
  5
7C3
102
{ACAD_REACTORS
330
7AD
102
}
330
7AD
100
AcDbXrecord
 10
0.0
 20
0.0
 30
0.0
  0
XRECORD
  5
7C1
102
{ACAD_REACTORS
330
7AD
102
}
330
7AD
100
AcDbXrecord
 10
0.0
 20
0.0
 30
0.0
  0
XRECORD
  5
7C2
102
{ACAD_REACTORS
330
7AD
102
}
330
7AD
100
AcDbXrecord
 10
0.0
 20
0.0
 30
0.0
  0
XRECORD
  5
7BF
102
{ACAD_REACTORS
330
7AD
102
}
330
7AD
100
AcDbXrecord
 10
0.0
 20
0.0
 30
0.0
  0
XRECORD
  5
7BC
102
{ACAD_REACTORS
330
7AD
102
}
330
7AD
100
AcDbXrecord
340
0
  0
XRECORD
  5
7BD
102
{ACAD_REACTORS
330
7AD
102
}
330
7AD
100
AcDbXrecord
 70
     0
  0
XRECORD
  5
7B1
102
{ACAD_REACTORS
330
7AD
102
}
330
7AD
100
AcDbXrecord
  1

  0
XRECORD
  5
7AE
102
{ACAD_REACTORS
330
7AD
102
}
330
7AD
100
AcDbXrecord
 90
        1
  0
XRECORD
  5
7AF
102
{ACAD_REACTORS
330
7AD
102
}
330
7AD
100
AcDbXrecord
 90
       70
  0
XRECORD
  5
7C7
102
{ACAD_REACTORS
330
7AD
102
}
330
7AD
100
AcDbXrecord
340
0
  0
XRECORD
  5
7CD
102
{ACAD_REACTORS
330
7AD
102
}
330
7AD
100
AcDbXrecord
 10
0.0
 20
0.0
 30
0.0
  0
XRECORD
  5
7C9
102
{ACAD_REACTORS
330
7AD
102
}
330
7AD
100
AcDbXrecord
 10
0.0
 20
0.0
 30
0.0
  0
XRECORD
  5
7CC
102
{ACAD_REACTORS
330
7AD
102
}
330
7AD
100
AcDbXrecord
 10
0.0
 20
0.0
 30
0.0
  0
XRECORD
  5
7CA
102
{ACAD_REACTORS
330
7AD
102
}
330
7AD
100
AcDbXrecord
 10
0.0
 20
0.0
 30
0.0
  0
XRECORD
  5
7CB
102
{ACAD_REACTORS
330
7AD
102
}
330
7AD
100
AcDbXrecord
 10
0.0
 20
0.0
 30
0.0
  0
XRECORD
  5
7C8
102
{ACAD_REACTORS
330
7AD
102
}
330
7AD
100
AcDbXrecord
 10
0.0
 20
0.0
 30
0.0
  0
XRECORD
  5
7C5
102
{ACAD_REACTORS
330
7AD
102
}
330
7AD
100
AcDbXrecord
340
0
  0
XRECORD
  5
7C6
102
{ACAD_REACTORS
330
7AD
102
}
330
7AD
100
AcDbXrecord
 70
     0
  0
XRECORD
  5
7B9
102
{ACAD_REACTORS
330
7AD
102
}
330
7AD
100
AcDbXrecord
  1
{4FF43584-B8CB-4847-BA86-1FEC6502F001}
  0
DICTIONARYVAR
  5
7AB
102
{ACAD_REACTORS
330
7AA
102
}
330
7AA
100
DictionaryVariables
280
     0
  1
1
  0
ENDSEC
  0
EOF
