  0
SECTION
  2
HEADER
  9
$ACADVER
  1
AC1014
  9
$ACADMAINTVER
 70
     9
  9
$DWGCODEPAGE
  3
ANSI_1250
  9
$INSBASE
 10
0.0
 20
0.0
 30
0.0
  9
$EXTMIN
 10
3.092088390621462
 20
8.651092588262507
 30
-0.0015258207003583
  9
$EXTMAX
 10
13.20493474233074
 20
16.76449589357303
 30
0.0000000349246037
  9
$LIMMIN
 10
0.0
 20
0.0
  9
$LIMMAX
 10
0.0
 20
0.0
  9
$ORTHOMODE
 70
     0
  9
$REGENMODE
 70
     1
  9
$FILLMODE
 70
     1
  9
$QTEXTMODE
 70
     0
  9
$MIRRTEXT
 70
     1
  9
$DRAGMODE
 70
     2
  9
$LTSCALE
 40
1.0
  9
$OSMODE
 70
  1007
  9
$ATTMODE
 70
     1
  9
$TEXTSIZE
 40
2.5
  9
$TRACEWID
 40
1.0
  9
$TEXTSTYLE
  7
STANDARD
  9
$CLAYER
  8
0
  9
$CELTYPE
  6
BYLAYER
  9
$CECOLOR
 62
   256
  9
$CELTSCALE
 40
1.0
  9
$DELOBJ
 70
     1
  9
$DISPSILH
 70
     0
  9
$DIMSCALE
 40
1.0
  9
$DIMASZ
 40
0.3
  9
$DIMEXO
 40
0.01
  9
$DIMDLI
 40
3.75
  9
$DIMRND
 40
0.0
  9
$DIMDLE
 40
0.0
  9
$DIMEXE
 40
0.1
  9
$DIMTP
 40
0.0
  9
$DIMTM
 40
0.0
  9
$DIMTXT
 40
0.2822222222222222
  9
$DIMCEN
 40
2.5
  9
$DIMTSZ
 40
0.0
  9
$DIMTOL
 70
     0
  9
$DIMLIM
 70
     0
  9
$DIMTIH
 70
     1
  9
$DIMTOH
 70
     1
  9
$DIMSE1
 70
     0
  9
$DIMSE2
 70
     0
  9
$DIMTAD
 70
     1
  9
$DIMZIN
 70
     0
  9
$DIMBLK
  1

  9
$DIMASO
 70
     1
  9
$DIMSHO
 70
     1
  9
$DIMPOST
  1

  9
$DIMAPOST
  1

  9
$DIMALT
 70
     0
  9
$DIMALTD
 70
     3
  9
$DIMALTF
 40
0.3937007874015748
  9
$DIMLFAC
 40
15.0
  9
$DIMTOFL
 70
     1
  9
$DIMTVP
 40
0.0
  9
$DIMTIX
 70
     0
  9
$DIMSOXD
 70
     0
  9
$DIMSAH
 70
     0
  9
$DIMBLK1
  1

  9
$DIMBLK2
  1

  9
$DIMSTYLE
  2
ISO-25
  9
$DIMCLRD
 70
     0
  9
$DIMCLRE
 70
     0
  9
$DIMCLRT
 70
     0
  9
$DIMTFAC
 40
1.0
  9
$DIMGAP
 40
0.1524
  9
$DIMJUST
 70
     0
  9
$DIMSD1
 70
     0
  9
$DIMSD2
 70
     0
  9
$DIMTOLJ
 70
     0
  9
$DIMTZIN
 70
     0
  9
$DIMALTZ
 70
     0
  9
$DIMALTTZ
 70
     0
  9
$DIMFIT
 70
     3
  9
$DIMUPT
 70
     0
  9
$DIMUNIT
 70
     2
  9
$DIMDEC
 70
     2
  9
$DIMTDEC
 70
     2
  9
$DIMALTU
 70
     2
  9
$DIMALTTD
 70
     3
  9
$DIMTXSTY
  7
STANDARD
  9
$DIMAUNIT
 70
     0
  9
$LUNITS
 70
     2
  9
$LUPREC
 70
     2
  9
$SKETCHINC
 40
1.0
  9
$FILLETRAD
 40
10.0
  9
$AUNITS
 70
     0
  9
$AUPREC
 70
     0
  9
$MENU
  1
.
  9
$ELEVATION
 40
0.0
  9
$PELEVATION
 40
0.0
  9
$THICKNESS
 40
0.0
  9
$LIMCHECK
 70
     0
  9
$BLIPMODE
 70
     0
  9
$CHAMFERA
 40
10.0
  9
$CHAMFERB
 40
10.0
  9
$CHAMFERC
 40
20.0
  9
$CHAMFERD
 40
0.0
  9
$SKPOLY
 70
     0
  9
$TDCREATE
 40
2454418.391197372
  9
$TDUPDATE
 40
2454420.428894305
  9
$TDINDWG
 40
0.0011711574
  9
$TDUSRTIMER
 40
0.0011711574
  9
$USRTIMER
 70
     1
  9
$ANGBASE
 50
0.0
  9
$ANGDIR
 70
     0
  9
$PDMODE
 70
     0
  9
$PDSIZE
 40
-1.0
  9
$PLINEWID
 40
0.0
  9
$COORDS
 70
     1
  9
$SPLFRAME
 70
     0
  9
$SPLINETYPE
 70
     6
  9
$SPLINESEGS
 70
     8
  9
$ATTDIA
 70
     0
  9
$ATTREQ
 70
     1
  9
$HANDLING
 70
 22529
  9
$HANDSEED
  5
6EA
  9
$SURFTAB1
 70
     6
  9
$SURFTAB2
 70
     6
  9
$SURFTYPE
 70
     6
  9
$SURFU
 70
     6
  9
$SURFV
 70
     6
  9
$UCSNAME
  2

  9
$UCSORG
 10
0.0
 20
0.0
 30
0.0
  9
$UCSXDIR
 10
1.0
 20
0.0
 30
0.0
  9
$UCSYDIR
 10
0.0
 20
1.0
 30
0.0
  9
$PUCSNAME
  2

  9
$PUCSORG
 10
0.0
 20
0.0
 30
0.0
  9
$PUCSXDIR
 10
1.0
 20
0.0
 30
0.0
  9
$PUCSYDIR
 10
0.0
 20
1.0
 30
0.0
  9
$USERI1
 70
     0
  9
$USERI2
 70
     0
  9
$USERI3
 70
     0
  9
$USERI4
 70
     0
  9
$USERI5
 70
     0
  9
$USERR1
 40
0.0
  9
$USERR2
 40
0.0
  9
$USERR3
 40
0.0
  9
$USERR4
 40
0.0
  9
$USERR5
 40
0.0
  9
$WORLDVIEW
 70
     1
  9
$SHADEDGE
 70
     3
  9
$SHADEDIF
 70
    70
  9
$TILEMODE
 70
     1
  9
$MAXACTVP
 70
    64
  9
$PINSBASE
 10
0.0
 20
0.0
 30
0.0
  9
$PLIMCHECK
 70
     0
  9
$PEXTMIN
 10
1.000000000000000E+20
 20
1.000000000000000E+20
 30
1.000000000000000E+20
  9
$PEXTMAX
 10
-1.000000000000000E+20
 20
-1.000000000000000E+20
 30
-1.000000000000000E+20
  9
$PLIMMIN
 10
0.0
 20
0.0
  9
$PLIMMAX
 10
420.0
 20
297.0
  9
$UNITMODE
 70
     0
  9
$VISRETAIN
 70
     1
  9
$PLINEGEN
 70
     0
  9
$PSLTSCALE
 70
     1
  9
$TREEDEPTH
 70
  3020
  9
$PICKSTYLE
 70
     1
  9
$CMLSTYLE
  2
STANDARD
  9
$CMLJUST
 70
     0
  9
$CMLSCALE
 40
20.0
  9
$PROXYGRAPHICS
 70
     1
  9
$MEASUREMENT
 70
     1
  0
ENDSEC
  0
SECTION
  2
CLASSES
  0
CLASS
  1
ACDBDICTIONARYWDFLT
  2
AcDbDictionaryWithDefault
  3
AutoCAD 2000
 90
        0
280
     0
281
     0
  0
CLASS
  1
ACDBPLACEHOLDER
  2
AcDbPlaceHolder
  3
AutoCAD 2000
 90
        0
280
     0
281
     0
  0
CLASS
  1
LAYOUT
  2
AcDbLayout
  3
AutoCAD 2000
 90
        0
280
     0
281
     0
  0
CLASS
  1
DICTIONARYVAR
  2
AcDbDictionaryVar
  3
AutoCAD 2000
 90
        0
280
     0
281
     0
  0
CLASS
  1
LONG_TRANSACTION
  2
AcDbLongTransaction
  3
AutoCAD 2000
 90
        0
280
     0
281
     0
  0
CLASS
  1
LWPOLYLINE
  2
AcDbPolyline
  3
AutoCAD 2000
 90
        0
280
     0
281
     1
  0
CLASS
  1
HATCH
  2
AcDbHatch
  3
AutoCAD 2000
 90
        0
280
     0
281
     1
  0
CLASS
  1
XRECORD
  2
AcDbXrecord
  3
AutoCAD 2000
 90
        0
280
     0
281
     0
  0
ENDSEC
  0
SECTION
  2
TABLES
  0
TABLE
  2
VPORT
  5
8
330
0
100
AcDbSymbolTable
 70
     4
  0
VPORT
  5
6C2
330
8
100
AcDbSymbolTableRecord
100
AcDbViewportTableRecord
  2
*ACTIVE
 70
     0
 10
0.0
 20
0.0
 11
1.0
 21
1.0
 12
8.148511566476102
 22
12.70779424091777
 13
0.0
 23
0.0
 14
10.0
 24
10.0
 15
10.0
 25
10.0
 16
0.0
 26
0.0
 36
1.0
 17
0.0
 27
0.0
 37
0.0
 40
8.193338313244622
 41
1.981907894736842
 42
50.0
 43
0.0
 44
0.0
 50
0.0
 51
0.0
 71
     0
 72
  2000
 73
     1
 74
     3
 75
     0
 76
     0
 77
     0
 78
     0
  0
ENDTAB
  0
TABLE
  2
LTYPE
  5
5
330
0
100
AcDbSymbolTable
 70
     6
  0
LTYPE
  5
14
330
5
100
AcDbSymbolTableRecord
100
AcDbLinetypeTableRecord
  2
BYBLOCK
 70
     0
  3

 72
    65
 73
     0
 40
0.0
  0
LTYPE
  5
15
330
5
100
AcDbSymbolTableRecord
100
AcDbLinetypeTableRecord
  2
BYLAYER
 70
     0
  3

 72
    65
 73
     0
 40
0.0
  0
LTYPE
  5
16
330
5
100
AcDbSymbolTableRecord
100
AcDbLinetypeTableRecord
  2
CONTINUOUS
 70
     0
  3
Solid line
 72
    65
 73
     0
 40
0.0
  0
ENDTAB
  0
TABLE
  2
LAYER
  5
2
330
0
100
AcDbSymbolTable
 70
    17
  0
LAYER
  5
10
330
2
100
AcDbSymbolTableRecord
100
AcDbLayerTableRecord
  2
0
 70
     0
 62
     7
  6
CONTINUOUS
  0
ENDTAB
  0
TABLE
  2
STYLE
  5
3
330
0
100
AcDbSymbolTable
 70
     4
  0
STYLE
  5
11
330
3
100
AcDbSymbolTableRecord
100
AcDbTextStyleTableRecord
  2
STANDARD
 70
     0
 40
0.0
 41
1.0
 50
0.0
 71
     0
 42
2.5
  3
ARIAL.TTF
  4

1001
ACAD
1000
Arial
1071
       34
  0
ENDTAB
  0
TABLE
  2
VIEW
  5
6
330
0
100
AcDbSymbolTable
 70
     0
  0
ENDTAB
  0
TABLE
  2
UCS
  5
7
330
0
100
AcDbSymbolTable
 70
     0
  0
ENDTAB
  0
TABLE
  2
APPID
  5
9
330
0
100
AcDbSymbolTable
 70
     1
  0
APPID
  5
12
330
9
100
AcDbSymbolTableRecord
100
AcDbRegAppTableRecord
  2
ACAD
 70
     0
  0
ENDTAB
  0
TABLE
  2
DIMSTYLE
  5
A
330
0
100
AcDbSymbolTable
 70
     4
  0
DIMSTYLE
105
27
330
A
100
AcDbSymbolTableRecord
100
AcDbDimStyleTableRecord
  2
ISO-25
 70
     0
  3

  4

  5

  6

  7

 40
1.0
 41
2.5
 42
0.625
 43
3.75
 44
1.25
 45
0.0
 46
0.0
 47
0.0
 48
0.0
140
2.5
141
2.5
142
0.0
143
0.03937007874016
144
1.0
145
0.0
146
1.0
147
0.625
 71
     0
 72
     0
 73
     0
 74
     0
 75
     0
 76
     0
 77
     1
 78
     8
170
     0
171
     3
172
     1
173
     0
174
     0
175
     0
176
     0
177
     0
178
     0
270
     2
271
     2
272
     2
273
     2
274
     3
340
11
275
     0
280
     0
281
     0
282
     0
283
     0
284
     8
285
     0
286
     0
287
     3
288
     0
  0
ENDTAB
  0
TABLE
  2
BLOCK_RECORD
  5
1
330
0
100
AcDbSymbolTable
 70
    23
  0
BLOCK_RECORD
  5
1F
102
{ACAD_XDICTIONARY
360
6E6
102
}
330
1
100
AcDbSymbolTableRecord
100
AcDbBlockTableRecord
  2
*MODEL_SPACE
  0
BLOCK_RECORD
  5
1B
102
{ACAD_XDICTIONARY
360
6E4
102
}
330
1
100
AcDbSymbolTableRecord
100
AcDbBlockTableRecord
  2
*PAPER_SPACE
  0
ENDTAB
  0
ENDSEC
  0
SECTION
  2
BLOCKS
  0
BLOCK
  5
20
330
1F
100
AcDbEntity
  8
0
100
AcDbBlockBegin
  2
*MODEL_SPACE
 70
     0
 10
0.0
 20
0.0
 30
0.0
  3
*MODEL_SPACE
  1

  0
ENDBLK
  5
21
330
1F
100
AcDbEntity
  8
0
100
AcDbBlockEnd
  0
BLOCK
  5
1C
330
1B
100
AcDbEntity
 67
     1
  8
0
100
AcDbBlockBegin
  2
*PAPER_SPACE
 70
     0
 10
0.0
 20
0.0
 30
0.0
  3
*PAPER_SPACE
  1

  0
ENDBLK
  5
1D
330
1B
100
AcDbEntity
 67
     1
  8
0
100
AcDbBlockEnd
  0
ENDSEC
  0
SECTION
  2
ENTITIES
  0
LINE
  5
101
330
1F
100
AcDbEntity
  8
0
100
AcDbLine
 10
3.112909678133653
 20
16.62290061654434
 30
0.0
 11
3.112909678133653
 21
16.47290061058388
 31
0.0
  0
LINE
  5
102
330
1F
100
AcDbEntity
  8
0
100
AcDbLine
 10
12.91290957084529
 20
8.672900896686176
 30
0.0
 11
13.06290972581737
 21
8.672900896686176
 31
0.0
  0
LINE
  5
103
330
1F
100
AcDbEntity
  8
0
100
AcDbLine
 10
3.112909678133653
 20
16.72290067018852
 30
0.0
 11
12.9629098211848
 21
16.72290067018852
 31
0.0
  0
LINE
  5
104
330
1F
100
AcDbEntity
  8
0
100
AcDbLine
 10
3.112909678133653
 20
16.62290061654434
 30
0.0
 11
3.112909678133653
 21
16.72290067018852
 31
0.0
  0
ARC
  5
105
330
1F
100
AcDbEntity
  8
0
100
AcDbCircle
 10
12.96290967813364
 20
16.52290065826756
 30
0.0
 40
0.2000000000000011
100
AcDbArc
 50
359.9999999999997
 51
89.99999999999898
  0
LINE
  5
106
330
1F
100
AcDbEntity
  8
0
100
AcDbLine
 10
13.16290963044993
 20
16.52290071191177
 30
0.0
 11
13.16290963044993
 21
8.672900896686176
 31
0.0
  0
LINE
  5
107
330
1F
100
AcDbEntity
  8
0
100
AcDbLine
 10
13.16290963044993
 20
8.672900896686176
 30
0.0
 11
13.06290972581737
 21
8.672900896686176
 31
0.0
  0
LINE
  5
108
330
1F
100
AcDbEntity
  8
0
100
AcDbLine
 10
3.112909678133653
 20
8.772840004581073
 30
0.0
 11
3.112909678133653
 21
16.57296160997734
 31
0.0
  0
LINE
  5
109
330
1F
100
AcDbEntity
  8
0
100
AcDbLine
 10
3.128613117846178
 20
16.55725817026482
 30
0.0
 11
3.128613117846178
 21
8.78854284824715
 31
0.0
  0
ARC
  5
10A
330
1F
100
AcDbEntity
  8
0
100
AcDbCircle
 10
3.228539630945011
 20
16.55715382896948
 30
0.0
 40
0.1000434499830346
100
AcDbArc
 50
89.9927868475116
 51
134.9527051531769
  0
ARC
  5
10B
330
1F
100
AcDbEntity
  8
0
100
AcDbCircle
 10
3.228658519080249
 20
16.55726995783436
 30
0.0
 40
0.1000454019284922
100
AcDbArc
 50
135.0478782147923
 51
180.0067507149198
  0
ARC
  5
10C
330
1F
100
AcDbEntity
  8
0
100
AcDbCircle
 10
3.212829082129585
 20
16.57298131387631
 30
0.0
 40
0.0999194059387166
100
AcDbArc
 50
89.9887013914129
 51
180.0112986085894
  0
ARC
  5
10D
330
1F
100
AcDbEntity
  8
0
100
AcDbCircle
 10
3.779303430795604
 20
16.009337674357
 30
0.0
 40
0.1591250533923236
100
AcDbArc
 50
135.7207352678899
 51
182.0196852330319
  0
LINE
  5
10E
330
1F
100
AcDbEntity
  8
0
100
AcDbLine
 10
3.620277229460405
 20
9.342071514743427
 30
0.0
 11
3.620277229460405
 21
16.00372965278015
 31
0.0
  0
ARC
  5
10F
330
1F
100
AcDbEntity
  8
0
100
AcDbCircle
 10
3.77930519304251
 20
9.336464032362171
 30
0.0
 40
0.1591267955428237
100
AcDbArc
 50
177.9805311534484
 51
224.2789991473961
  0
ARC
  5
110
330
1F
100
AcDbEntity
  8
0
100
AcDbCircle
 10
3.228657106241698
 20
8.788530625235345
 30
0.0
 40
0.100043989142202
100
AcDbArc
 50
179.992999809413
 51
224.9524565753473
  0
ARC
  5
111
330
1F
100
AcDbEntity
  8
0
100
AcDbCircle
 10
3.776472754270354
 20
9.339295207068628
 30
0.0
 40
0.1591259022033138
100
AcDbArc
 50
225.7210168948613
 51
272.0196090146495
  0
LINE
  5
112
330
1F
100
AcDbEntity
  8
0
100
AcDbLine
 10
12.44373876205318
 20
9.180268149989704
 30
0.0
 11
3.782080594214128
 21
9.180268149989704
 31
0.0
  0
ARC
  5
113
330
1F
100
AcDbEntity
  8
0
100
AcDbCircle
 10
12.44934660199695
 20
9.339295207068621
 30
0.0
 40
0.1591259022033067
100
AcDbArc
 50
267.980390985351
 51
314.2789831051409
  0
ARC
  5
114
330
1F
100
AcDbEntity
  8
0
100
AcDbCircle
 10
12.99728056889301
 20
8.78864682855869
 30
0.0
 40
0.1000424930625554
100
AcDbArc
 50
269.9923036533904
 51
314.9525696126715
  0
LINE
  5
115
330
1F
100
AcDbEntity
  8
0
100
AcDbLine
 10
3.228552225741075
 20
8.6886043363987
 30
0.0
 11
12.99726713052623
 21
8.6886043363987
 31
0.0
  0
ARC
  5
116
330
1F
100
AcDbEntity
  8
0
100
AcDbCircle
 10
3.228539665659816
 20
8.788648951816002
 30
0.0
 40
0.100044616205728
100
AcDbArc
 50
225.0479335467862
 51
270.0071931871574
  0
LINE
  5
117
330
1F
100
AcDbEntity
  8
0
100
AcDbLine
 10
13.01297057023875
 20
8.672900896686176
 30
0.0
 11
3.21284878602855
 21
8.672900896686176
 31
0.0
  0
ARC
  5
118
330
1F
100
AcDbEntity
  8
0
100
AcDbCircle
 10
3.212828404558786
 20
8.77281962311131
 30
0.0
 40
0.099918728503845
100
AcDbArc
 50
179.9883127795629
 51
270.0116872204384
  0
ARC
  5
119
330
1F
100
AcDbEntity
  8
0
100
AcDbCircle
 10
12.99715947077781
 20
8.788531774887935
 30
0.0
 40
0.100046768256123
100
AcDbArc
 50
315.0482020136055
 51
0.0063416016366692
  0
ARC
  5
11A
330
1F
100
AcDbEntity
  8
0
100
AcDbCircle
 10
13.01299095170852
 20
8.77281962311131
 30
0.0
 40
0.099918728503845
100
AcDbArc
 50
269.9883127795627
 51
0.0116872204370895
  0
LINE
  5
11B
330
1F
100
AcDbEntity
  8
0
100
AcDbLine
 10
3.21284878602855
 20
16.67290071787224
 30
0.0
 11
13.01297057023875
 21
16.67290071787224
 31
0.0
  0
LINE
  5
11C
330
1F
100
AcDbEntity
  8
0
100
AcDbLine
 10
12.99726713052623
 20
16.65719727815971
 30
0.0
 11
3.228552225741075
 21
16.65719727815971
 31
0.0
  0
ARC
  5
11D
330
1F
100
AcDbEntity
  8
0
100
AcDbCircle
 10
12.4493467168989
 20
16.00650689688134
 30
0.0
 40
0.1591250448675201
100
AcDbArc
 50
45.72077365564502
 51
92.01966129862261
  0
LINE
  5
11E
330
1F
100
AcDbEntity
  8
0
100
AcDbLine
 10
3.782080594214128
 20
16.16553309203968
 30
0.0
 11
12.44373876205318
 21
16.16553309203968
 31
0.0
  0
ARC
  5
11F
330
1F
100
AcDbEntity
  8
0
100
AcDbCircle
 10
3.776472639368404
 20
16.00650689688133
 30
0.0
 40
0.1591250448675343
100
AcDbArc
 50
87.98033870137899
 51
134.2792263443528
  0
ARC
  5
120
330
1F
100
AcDbEntity
  8
0
100
AcDbCircle
 10
12.99727876892847
 20
16.55715151692053
 30
0.0
 40
0.1000457619161392
100
AcDbArc
 50
45.04784273615843
 51
90.00666526315233
  0
ARC
  5
121
330
1F
100
AcDbEntity
  8
0
100
AcDbCircle
 10
12.4465141632248
 20
9.336464032362169
 30
0.0
 40
0.1591267955428154
100
AcDbArc
 50
315.7210008526035
 51
2.01946884655228
  0
LINE
  5
122
330
1F
100
AcDbEntity
  8
0
100
AcDbLine
 10
12.6055421268069
 20
16.00372965278015
 30
0.0
 11
12.6055421268069
 21
9.342071514743427
 31
0.0
  0
ARC
  5
123
330
1F
100
AcDbEntity
  8
0
100
AcDbCircle
 10
12.44651592547172
 20
16.00933767435701
 30
0.0
 40
0.1591250533923048
100
AcDbArc
 50
357.9803147669668
 51
44.27926473211309
  0
ARC
  5
124
330
1F
100
AcDbEntity
  8
0
100
AcDbCircle
 10
12.99716314916746
 20
16.55727091419697
 30
0.0
 40
0.1000430900653563
100
AcDbArc
 50
359.9927014096786
 51
44.95266966060731
  0
LINE
  5
125
330
1F
100
AcDbEntity
  8
0
100
AcDbLine
 10
13.09720623842113
 20
8.78854284824715
 30
0.0
 11
13.09720623842113
 21
16.55725817026482
 31
0.0
  0
ARC
  5
126
330
1F
100
AcDbEntity
  8
0
100
AcDbCircle
 10
13.01299027413772
 20
16.57298131387631
 30
0.0
 40
0.0999194059387174
100
AcDbArc
 50
359.9887013914121
 51
90.01129860858659
  0
LINE
  5
127
330
1F
100
AcDbEntity
  8
0
100
AcDbLine
 10
13.11290967813365
 20
16.57296160997734
 30
0.0
 11
13.11290967813365
 21
8.772840004581073
 31
0.0
  0
ARC
  5
128
330
1F
100
AcDbEntity
  8
0
100
AcDbCircle
 10
3.848621113990841
 20
9.408171128266124
 30
0.0
 40
0.1523305413140379
100
AcDbArc
 50
176.1382666920014
 51
273.5066181009762
  0
ARC
  5
129
330
1F
100
AcDbEntity
  8
0
100
AcDbCircle
 10
12.37720074885116
 20
9.40816863717905
 30
0.0
 40
0.1523282082257634
100
AcDbArc
 50
266.492383547471
 51
3.862731659552733
  0
ARC
  5
12A
330
1F
100
AcDbEntity
  8
0
100
AcDbCircle
 10
8.112909678133654
 20
-442.3836539093085
 30
0.0
 40
451.6598226411159
100
AcDbArc
 50
89.46022315965933
 51
90.53977684034068
  0
ARC
  5
12B
330
1F
100
AcDbEntity
  8
0
100
AcDbCircle
 10
3.890653178220614
 20
15.89344147212725
 30
0.0
 40
0.1526903552855948
100
AcDbArc
 50
85.77726784794698
 51
182.8476862531408
  0
LWPOLYLINE
  5
12C
330
1F
100
AcDbEntity
  8
0
100
AcDbPolyline
 90
       17
 70
   128
 43
0.0
 10
12.3239229952418
 20
16.04571732522831
 10
10.91630775085322
 20
16.02555337192402
 10
10.21249014488093
 20
16.0157075786768
 10
9.508653167399096
 20
16.00635732354508
 10
9.227088723095583
 20
16.00282314063892
 10
8.945508036526367
 20
15.9995826596199
 10
8.663913082095312
 20
15.99692622961388
 10
8.382305945964979
 20
15.99514434875832
 10
8.100688688686567
 20
15.9945275896965
 10
7.820743635060714
 20
15.99524724127636
 10
7.540809582682775
 20
15.99709349514828
 10
7.260887954147982
 20
15.99978330375538
 10
6.980980295451806
 20
16.00303384305821
 10
6.701087984951661
 20
16.0065622890173
 10
6.001462373646424
 20
16.01587156595573
 10
5.301855388792681
 20
16.02566162886009
 10
3.901896361025499
 20
16.04571732522831
  0
LWPOLYLINE
  5
12D
330
1F
100
AcDbEntity
  8
0
100
AcDbPolyline
 90
       11
 70
   128
 43
0.0
 10
3.738151374968217
 20
15.88585565628395
 10
3.738945010813401
 20
15.34832914190278
 10
3.738762322577165
 20
14.81079856695519
 10
3.737631324442552
 20
14.27327106537209
 10
3.735580030592607
 20
13.73575384559021
 10
3.731535855444596
 20
13.01900024356232
 10
3.726235512407945
 20
12.30226854624138
 10
3.719917420061753
 20
11.58556113781319
 10
3.71460306993358
 20
11.04376445354805
 10
3.70890933624141
 20
10.5019787961422
 10
3.696636441858934
 20
9.418430429118732
  0
LWPOLYLINE
  5
12E
330
1F
100
AcDbEntity
  8
0
100
AcDbPolyline
 90
       16
 70
   128
 43
0.0
 10
12.48766798129909
 20
15.88585565628395
 10
12.48685914626948
 20
15.90464684011326
 10
12.4842544232928
 20
15.92331277968273
 10
12.47972268215053
 20
15.94154621304855
 10
12.47302133193843
 20
15.95929871143684
 10
12.46414172998302
 20
15.97614641131745
 10
12.45318252197139
 20
15.99161091091023
 10
12.44187283864848
 20
16.00380125285969
 10
12.42913860431544
 20
16.01459088565693
 10
12.4152721797549
 20
16.02377588691101
 10
12.40141052356593
 20
16.03085721673355
 10
12.38686371198527
 20
16.03651779534206
 10
12.37187761417262
 20
16.04076514782295
 10
12.35606152168147
 20
16.04372988285408
 10
12.34002012363307
 20
16.04535127820358
 10
12.3239229952418
 20
16.04571732522831
  0
LWPOLYLINE
  5
12F
330
1F
100
AcDbEntity
  8
0
100
AcDbPolyline
 90
       10
 70
   128
 43
0.0
 10
12.52918291440837
 20
9.418430429118732
 10
12.51990366330973
 20
10.22672484459267
 10
12.51126486411922
 20
11.03504101576195
 10
12.50350463739268
 20
11.84338132681236
 10
12.49686080566279
 20
12.65174875797615
 10
12.49258029809825
 20
13.29854170622215
 10
12.48941886773936
 20
13.94535879434929
 10
12.4874784385287
 20
14.59219018759117
 10
12.48686093440883
 20
15.23902584629045
 10
12.48766798129909
 20
15.88585565628395
  0
CIRCLE
  5
130
330
1F
100
AcDbEntity
  8
0
100
AcDbCircle
 10
8.112909678133654
 20
15.17290065826759
 30
0.0
 40
0.5999999999999997
  0
CIRCLE
  5
131
330
1F
100
AcDbEntity
  8
0
100
AcDbCircle
 10
8.112909678133654
 20
15.17290065826759
 30
0.0
 40
0.4499999999999993
  0
LINE
  5
132
330
1F
100
AcDbEntity
  8
0
100
AcDbLine
 10
3.126272145422624
 20
16.62290061654434
 30
0.0
 11
3.112909678133653
 21
16.62290061654434
 31
0.0
  0
LINE
  5
133
330
1F
100
AcDbEntity
  8
0
100
AcDbLine
 10
13.06290972581737
 20
8.672900896686176
 30
0.0
 11
13.06290972581737
 21
8.686263065951923
 31
0.0
  0
LINE
  5
134
330
1F
100
AcDbEntity
  8
0
100
AcDbLine
 10
12.9629098211848
 20
16.72290067018852
 30
0.0
 11
12.9629098211848
 21
16.67290071787224
 31
0.0
  0
LINE
  5
135
330
1F
100
AcDbEntity
  8
0
100
AcDbLine
 10
13.16290963044993
 20
16.52290071191177
 30
0.0
 11
13.11290967813365
 21
16.52290071191177
 31
0.0
  0
HATCH
  5
55A
330
1F
100
AcDbEntity
  8
0
  6
CONTINUOUS
 62
     7
100
AcDbHatch
 10
0.0
 20
0.0
 30
0.0
210
0.0
220
0.0
230
1.0
  2
ANSI32
 70
     0
 71
     0
 91
        1
 92
        0
 93
        4
 72
     1
 10
12.91290967813376
 20
2.899899584996653
 11
13.06290967813376
 21
2.899899584996652
 72
     1
 10
13.06290967813376
 20
2.899899584996652
 11
13.06290967813376
 21
2.929899584996652
 72
     1
 10
13.06290967813376
 20
2.929899584996652
 11
12.91290967813376
 21
2.929899584996652
 72
     1
 10
12.91290967813376
 20
2.929899584996652
 11
12.91290967813376
 21
2.899899584996653
 97
        0
 75
     0
 76
     1
 52
0.0
 41
0.1
 77
     0
 78
     2
 53
45.0
 43
0.0
 44
0.0
 45
-0.6735192090801866
 46
0.6735192090801866
 79
     0
 53
45.0
 43
0.449013
 44
0.0
 45
-0.6735192090801866
 46
0.6735192090801866
 79
     0
 98
        1
 10
0.0
 20
0.0
  0
HATCH
  5
55C
330
1F
100
AcDbEntity
  8
0
  6
CONTINUOUS
 62
     7
100
AcDbHatch
 10
0.0
 20
0.0
 30
0.0
210
0.0
220
0.0
230
1.0
  2
ANSI32
 70
     0
 71
     0
 91
        1
 92
        0
 93
        4
 72
     1
 10
12.91290967813376
 20
3.755899584996653
 11
13.06290967813376
 21
3.755899584996653
 72
     1
 10
13.06290967813376
 20
3.755899584996653
 11
13.06290967813376
 21
3.785899584996652
 72
     1
 10
13.06290967813376
 20
3.785899584996652
 11
12.91290967813376
 21
3.785899584996652
 72
     1
 10
12.91290967813376
 20
3.785899584996652
 11
12.91290967813376
 21
3.755899584996653
 97
        0
 75
     0
 76
     1
 52
0.0
 41
0.1
 77
     0
 78
     2
 53
45.0
 43
0.0
 44
0.0
 45
-0.6735192090801866
 46
0.6735192090801866
 79
     0
 53
45.0
 43
0.449013
 44
0.0
 45
-0.6735192090801866
 46
0.6735192090801866
 79
     0
 98
        1
 10
0.0
 20
0.0
  0
ENDSEC
  0
SECTION
  2
OBJECTS
  0
DICTIONARY
  5
C
330
0
100
AcDbDictionary
  3
ACAD_GROUP
350
D
  3
ACAD_LAYOUT
350
1A
  3
ACAD_MLINESTYLE
350
17
  3
ACAD_PLOTSETTINGS
350
19
  3
ACAD_PLOTSTYLENAME
350
E
  3
ACDBHEADERROUNDTRIPXREC
350
6C3
  3
ACDBVARIABLEDICTIONARY
350
6C0
  0
DICTIONARY
  5
6E6
330
1F
100
AcDbDictionary
280
     1
  3
ACAD_LAYOUTSELFREF
360
6E7
  0
DICTIONARY
  5
6E4
330
1B
100
AcDbDictionary
280
     1
  3
ACAD_LAYOUTSELFREF
360
6E5
  0
DICTIONARY
  5
D
102
{ACAD_REACTORS
330
C
102
}
330
C
100
AcDbDictionary
  0
DICTIONARY
  5
1A
102
{ACAD_REACTORS
330
C
102
}
330
C
100
AcDbDictionary
  0
DICTIONARY
  5
17
102
{ACAD_REACTORS
330
C
102
}
330
C
100
AcDbDictionary
  3
STANDARD
350
18
  0
DICTIONARY
  5
19
102
{ACAD_REACTORS
330
C
102
}
330
C
100
AcDbDictionary
  0
ACDBDICTIONARYWDFLT
  5
E
102
{ACAD_REACTORS
330
C
102
}
330
C
100
AcDbDictionary
281
     1
  3
Normal
350
F
100
AcDbDictionaryWithDefault
340
F
  0
DICTIONARY
  5
6C3
102
{ACAD_REACTORS
330
C
102
}
330
C
100
AcDbDictionary
  3
CEPSNTYPE
350
6CD
  3
DIMSTYLEDATA
350
6D1
  3
FINGERPRINTGUID
350
6CE
  3
HYPERLINKBASE
350
6C6
  3
INSUNITS
350
6CC
  3
LAYOUTDICT
350
6C8
  3
LWETCUNION
350
6CB
  3
PLOTSETDICT
350
6C9
  3
PLOTSTYLNAMDICT
350
6CA
  3
PSVPSCALE
350
6D0
  3
PUCSBASE
350
6D4
  3
PUCSORGBACK
350
6DA
  3
PUCSORGBOTTOM
350
6D6
  3
PUCSORGFRONT
350
6D9
  3
PUCSORGLEFT
350
6D7
  3
PUCSORGRIGHT
350
6D8
  3
PUCSORGTOP
350
6D5
  3
PUCSORTHOREF
350
6D2
  3
PUCSORTHOVIEW
350
6D3
  3
STYLESHEET
350
6C7
  3
TSTACKALIGN
350
6C4
  3
TSTACKSIZE
350
6C5
  3
UCSBASE
350
6DD
  3
UCSORGBACK
350
6E3
  3
UCSORGBOTTOM
350
6DF
  3
UCSORGFRONT
350
6E2
  3
UCSORGLEFT
350
6E0
  3
UCSORGRIGHT
350
6E1
  3
UCSORGTOP
350
6DE
  3
UCSORTHOREF
350
6DB
  3
UCSORTHOVIEW
350
6DC
  3
VERSIONGUID
350
6CF
  0
DICTIONARY
  5
6C0
102
{ACAD_REACTORS
330
C
102
}
330
C
100
AcDbDictionary
  3
DIMASSOC
350
6C1
  0
XRECORD
  5
6E7
102
{ACAD_REACTORS
330
6E6
102
}
330
6E6
100
AcDbXrecord
340
1F
  0
XRECORD
  5
6E5
102
{ACAD_REACTORS
330
6E4
102
}
330
6E4
100
AcDbXrecord
340
1B
  0
MLINESTYLE
  5
18
102
{ACAD_REACTORS
330
17
102
}
330
17
100
AcDbMlineStyle
  2
STANDARD
 70
     0
  3

 62
   256
 51
90.0
 52
90.0
 71
     2
 49
0.5
 62
   256
  6
BYLAYER
 49
-0.5
 62
   256
  6
BYLAYER
  0
ACDBPLACEHOLDER
  5
F
102
{ACAD_REACTORS
330
E
102
}
330
E
100
AcDbPlaceHolder
280
     0
  0
XRECORD
  5
6CD
102
{ACAD_REACTORS
330
6C3
102
}
330
6C3
100
AcDbXrecord
 90
        0
  0
XRECORD
  5
6D1
102
{ACAD_REACTORS
330
6C3
102
}
330
6C3
100
AcDbXrecord
1000
DSTYLE
1002
{
1070
   278
 70
    44
1002
}
  0
XRECORD
  5
6CE
102
{ACAD_REACTORS
330
6C3
102
}
330
6C3
100
AcDbXrecord
  1
{CDFC470E-3B3E-4657-8B23-D5BBC94AAB0D}
  0
XRECORD
  5
6C6
102
{ACAD_REACTORS
330
6C3
102
}
330
6C3
100
AcDbXrecord
  1

  0
XRECORD
  5
6CC
102
{ACAD_REACTORS
330
6C3
102
}
330
6C3
100
AcDbXrecord
 90
        4
  0
XRECORD
  5
6C8
102
{ACAD_REACTORS
330
6C3
102
}
330
6C3
100
AcDbXrecord
340
1A
  0
XRECORD
  5
6CB
102
{ACAD_REACTORS
330
6C3
102
}
330
6C3
100
AcDbXrecord
 90
    10781
  0
XRECORD
  5
6C9
102
{ACAD_REACTORS
330
6C3
102
}
330
6C3
100
AcDbXrecord
340
19
  0
XRECORD
  5
6CA
102
{ACAD_REACTORS
330
6C3
102
}
330
6C3
100
AcDbXrecord
340
E
  0
XRECORD
  5
6D0
102
{ACAD_REACTORS
330
6C3
102
}
330
6C3
100
AcDbXrecord
 40
0.0
  0
XRECORD
  5
6D4
102
{ACAD_REACTORS
330
6C3
102
}
330
6C3
100
AcDbXrecord
340
0
  0
XRECORD
  5
6DA
102
{ACAD_REACTORS
330
6C3
102
}
330
6C3
100
AcDbXrecord
 10
0.0
 20
0.0
 30
0.0
  0
XRECORD
  5
6D6
102
{ACAD_REACTORS
330
6C3
102
}
330
6C3
100
AcDbXrecord
 10
0.0
 20
0.0
 30
0.0
  0
XRECORD
  5
6D9
102
{ACAD_REACTORS
330
6C3
102
}
330
6C3
100
AcDbXrecord
 10
0.0
 20
0.0
 30
0.0
  0
XRECORD
  5
6D7
102
{ACAD_REACTORS
330
6C3
102
}
330
6C3
100
AcDbXrecord
 10
0.0
 20
0.0
 30
0.0
  0
XRECORD
  5
6D8
102
{ACAD_REACTORS
330
6C3
102
}
330
6C3
100
AcDbXrecord
 10
0.0
 20
0.0
 30
0.0
  0
XRECORD
  5
6D5
102
{ACAD_REACTORS
330
6C3
102
}
330
6C3
100
AcDbXrecord
 10
0.0
 20
0.0
 30
0.0
  0
XRECORD
  5
6D2
102
{ACAD_REACTORS
330
6C3
102
}
330
6C3
100
AcDbXrecord
340
0
  0
XRECORD
  5
6D3
102
{ACAD_REACTORS
330
6C3
102
}
330
6C3
100
AcDbXrecord
 70
     0
  0
XRECORD
  5
6C7
102
{ACAD_REACTORS
330
6C3
102
}
330
6C3
100
AcDbXrecord
  1

  0
XRECORD
  5
6C4
102
{ACAD_REACTORS
330
6C3
102
}
330
6C3
100
AcDbXrecord
 90
        1
  0
XRECORD
  5
6C5
102
{ACAD_REACTORS
330
6C3
102
}
330
6C3
100
AcDbXrecord
 90
       70
  0
XRECORD
  5
6DD
102
{ACAD_REACTORS
330
6C3
102
}
330
6C3
100
AcDbXrecord
340
0
  0
XRECORD
  5
6E3
102
{ACAD_REACTORS
330
6C3
102
}
330
6C3
100
AcDbXrecord
 10
0.0
 20
0.0
 30
0.0
  0
XRECORD
  5
6DF
102
{ACAD_REACTORS
330
6C3
102
}
330
6C3
100
AcDbXrecord
 10
0.0
 20
0.0
 30
0.0
  0
XRECORD
  5
6E2
102
{ACAD_REACTORS
330
6C3
102
}
330
6C3
100
AcDbXrecord
 10
0.0
 20
0.0
 30
0.0
  0
XRECORD
  5
6E0
102
{ACAD_REACTORS
330
6C3
102
}
330
6C3
100
AcDbXrecord
 10
0.0
 20
0.0
 30
0.0
  0
XRECORD
  5
6E1
102
{ACAD_REACTORS
330
6C3
102
}
330
6C3
100
AcDbXrecord
 10
0.0
 20
0.0
 30
0.0
  0
XRECORD
  5
6DE
102
{ACAD_REACTORS
330
6C3
102
}
330
6C3
100
AcDbXrecord
 10
0.0
 20
0.0
 30
0.0
  0
XRECORD
  5
6DB
102
{ACAD_REACTORS
330
6C3
102
}
330
6C3
100
AcDbXrecord
340
0
  0
XRECORD
  5
6DC
102
{ACAD_REACTORS
330
6C3
102
}
330
6C3
100
AcDbXrecord
 70
     0
  0
XRECORD
  5
6CF
102
{ACAD_REACTORS
330
6C3
102
}
330
6C3
100
AcDbXrecord
  1
{2B85A41C-C141-4EF8-AB2E-DC0559516431}
  0
DICTIONARYVAR
  5
6C1
102
{ACAD_REACTORS
330
6C0
102
}
330
6C0
100
DictionaryVariables
280
     0
  1
1
  0
ENDSEC
  0
EOF
