  0
SECTION
  2
HEADER
  9
$ACADVER
  1
AC1014
  9
$ACADMAINTVER
 70
     9
  9
$DWGCODEPAGE
  3
ANSI_1250
  9
$INSBASE
 10
0.0
 20
0.0
 30
0.0
  9
$EXTMIN
 10
-1131.04990990634
 20
-548.1826986938856
 30
0.0
  9
$EXTMAX
 10
778.0657091833972
 20
1476.581167792028
 30
0.0
  9
$LIMMIN
 10
0.0
 20
0.0
  9
$LIMMAX
 10
420.0
 20
297.0
  9
$ORTHOMODE
 70
     1
  9
$REGENMODE
 70
     1
  9
$FILLMODE
 70
     1
  9
$QTEXTMODE
 70
     0
  9
$MIRRTEXT
 70
     0
  9
$DRAGMODE
 70
     2
  9
$LTSCALE
 40
1.0
  9
$OSMODE
 70
  3007
  9
$ATTMODE
 70
     1
  9
$TEXTSIZE
 40
2.5
  9
$TRACEWID
 40
1.0
  9
$TEXTSTYLE
  7
ISO35
  9
$CLAYER
  8
PEN50
  9
$CELTYPE
  6
BYLAYER
  9
$CECOLOR
 62
   256
  9
$CELTSCALE
 40
1.0
  9
$DELOBJ
 70
     1
  9
$DISPSILH
 70
     0
  9
$DIMSCALE
 40
10.0
  9
$DIMASZ
 40
3.5
  9
$DIMEXO
 40
0.875
  9
$DIMDLI
 40
5.25
  9
$DIMRND
 40
0.0
  9
$DIMDLE
 40
0.0
  9
$DIMEXE
 40
1.75
  9
$DIMTP
 40
0.0
  9
$DIMTM
 40
0.0
  9
$DIMTXT
 40
3.5
  9
$DIMCEN
 40
4.0
  9
$DIMTSZ
 40
0.0
  9
$DIMTOL
 70
     0
  9
$DIMLIM
 70
     0
  9
$DIMTIH
 70
     0
  9
$DIMTOH
 70
     0
  9
$DIMSE1
 70
     0
  9
$DIMSE2
 70
     0
  9
$DIMTAD
 70
     1
  9
$DIMZIN
 70
     8
  9
$DIMBLK
  1

  9
$DIMASO
 70
     1
  9
$DIMSHO
 70
     1
  9
$DIMPOST
  1

  9
$DIMAPOST
  1

  9
$DIMALT
 70
     0
  9
$DIMALTD
 70
     4
  9
$DIMALTF
 40
0.0394
  9
$DIMLFAC
 40
1.0
  9
$DIMTOFL
 70
     1
  9
$DIMTVP
 40
0.0
  9
$DIMTIX
 70
     0
  9
$DIMSOXD
 70
     0
  9
$DIMSAH
 70
     0
  9
$DIMBLK1
  1

  9
$DIMBLK2
  1

  9
$DIMSTYLE
  2
ISO-35
  9
$DIMCLRD
 70
   256
  9
$DIMCLRE
 70
   256
  9
$DIMCLRT
 70
     2
  9
$DIMTFAC
 40
0.7
  9
$DIMGAP
 40
2.0
  9
$DIMJUST
 70
     0
  9
$DIMSD1
 70
     0
  9
$DIMSD2
 70
     0
  9
$DIMTOLJ
 70
     1
  9
$DIMTZIN
 70
     0
  9
$DIMALTZ
 70
     0
  9
$DIMALTTZ
 70
     0
  9
$DIMFIT
 70
     3
  9
$DIMUPT
 70
     0
  9
$DIMUNIT
 70
     2
  9
$DIMDEC
 70
     2
  9
$DIMTDEC
 70
     2
  9
$DIMALTU
 70
     8
  9
$DIMALTTD
 70
     4
  9
$DIMTXSTY
  7
ISO35
  9
$DIMAUNIT
 70
     0
  9
$LUNITS
 70
     2
  9
$LUPREC
 70
     2
  9
$SKETCHINC
 40
1.0
  9
$FILLETRAD
 40
10.0
  9
$AUNITS
 70
     0
  9
$AUPREC
 70
     0
  9
$MENU
  1
.
  9
$ELEVATION
 40
0.0
  9
$PELEVATION
 40
0.0
  9
$THICKNESS
 40
0.0
  9
$LIMCHECK
 70
     0
  9
$BLIPMODE
 70
     0
  9
$CHAMFERA
 40
10.0
  9
$CHAMFERB
 40
10.0
  9
$CHAMFERC
 40
20.0
  9
$CHAMFERD
 40
0.0
  9
$SKPOLY
 70
     1
  9
$TDCREATE
 40
2451793.554313148
  9
$TDUPDATE
 40
2453966.364064664
  9
$TDINDWG
 40
0.2873874537
  9
$TDUSRTIMER
 40
0.2873872801
  9
$USRTIMER
 70
     1
  9
$ANGBASE
 50
0.0
  9
$ANGDIR
 70
     0
  9
$PDMODE
 70
     0
  9
$PDSIZE
 40
0.0
  9
$PLINEWID
 40
0.0
  9
$COORDS
 70
     2
  9
$SPLFRAME
 70
     0
  9
$SPLINETYPE
 70
     6
  9
$SPLINESEGS
 70
     8
  9
$ATTDIA
 70
     0
  9
$ATTREQ
 70
     1
  9
$HANDLING
 70
 22529
  9
$HANDSEED
  5
1E87
  9
$SURFTAB1
 70
     6
  9
$SURFTAB2
 70
     6
  9
$SURFTYPE
 70
     6
  9
$SURFU
 70
     6
  9
$SURFV
 70
     6
  9
$UCSNAME
  2

  9
$UCSORG
 10
0.0
 20
0.0
 30
0.0
  9
$UCSXDIR
 10
1.0
 20
0.0
 30
0.0
  9
$UCSYDIR
 10
0.0
 20
1.0
 30
0.0
  9
$PUCSNAME
  2

  9
$PUCSORG
 10
0.0
 20
0.0
 30
0.0
  9
$PUCSXDIR
 10
1.0
 20
0.0
 30
0.0
  9
$PUCSYDIR
 10
0.0
 20
1.0
 30
0.0
  9
$USERI1
 70
     0
  9
$USERI2
 70
     0
  9
$USERI3
 70
     0
  9
$USERI4
 70
     0
  9
$USERI5
 70
     0
  9
$USERR1
 40
0.0
  9
$USERR2
 40
0.0
  9
$USERR3
 40
0.0
  9
$USERR4
 40
0.0
  9
$USERR5
 40
0.0
  9
$WORLDVIEW
 70
     1
  9
$SHADEDGE
 70
     3
  9
$SHADEDIF
 70
    70
  9
$TILEMODE
 70
     1
  9
$MAXACTVP
 70
    48
  9
$PINSBASE
 10
0.0
 20
0.0
 30
0.0
  9
$PLIMCHECK
 70
     0
  9
$PEXTMIN
 10
15.90231149298952
 20
10.0
 30
0.0
  9
$PEXTMAX
 10
414.1284904558581
 20
287.0
 30
0.0
  9
$PLIMMIN
 10
8.836118431432232
 20
2.999864866225538
  9
$PLIMMAX
 10
421.2239266883927
 20
294.5812687398632
  9
$UNITMODE
 70
     0
  9
$VISRETAIN
 70
     1
  9
$PLINEGEN
 70
     0
  9
$PSLTSCALE
 70
     0
  9
$TREEDEPTH
 70
  3020
  9
$PICKSTYLE
 70
     1
  9
$CMLSTYLE
  2
STANDARD
  9
$CMLJUST
 70
     0
  9
$CMLSCALE
 40
1.0
  9
$PROXYGRAPHICS
 70
     1
  9
$MEASUREMENT
 70
     1
  0
ENDSEC
  0
SECTION
  2
CLASSES
  0
CLASS
  1
DICTIONARYVAR
  2
AcDbDictionaryVar
  3
AutoCAD 2000
 90
        0
280
     0
281
     0
  0
CLASS
  1
LWPOLYLINE
  2
AcDbPolyline
  3
AutoCAD 2000
 90
        0
280
     0
281
     1
  0
CLASS
  1
HATCH
  2
AcDbHatch
  3
AutoCAD 2000
 90
        0
280
     0
281
     1
  0
CLASS
  1
XRECORD
  2
AcDbXrecord
  3
AutoCAD 2000
 90
        0
280
     0
281
     0
  0
CLASS
  1
ACDBDICTIONARYWDFLT
  2
AcDbDictionaryWithDefault
  3
AutoCAD 2000
 90
        0
280
     0
281
     0
  0
CLASS
  1
ACDBPLACEHOLDER
  2
AcDbPlaceHolder
  3
AutoCAD 2000
 90
        0
280
     0
281
     0
  0
CLASS
  1
LAYOUT
  2
AcDbLayout
  3
AutoCAD 2000
 90
        0
280
     0
281
     0
  0
CLASS
  1
LONG_TRANSACTION
  2
AcDbLongTransaction
  3
AutoCAD 2000
 90
        0
280
     0
281
     0
  0
CLASS
  1
LWPOLYLINE
  2
AcDbPolyline
  3
AutoCAD 2000
 90
        0
280
     0
281
     1
  0
CLASS
  1
HATCH
  2
AcDbHatch
  3
AutoCAD 2000
 90
        0
280
     0
281
     1
  0
CLASS
  1
XRECORD
  2
AcDbXrecord
  3
AutoCAD 2000
 90
        0
280
     0
281
     0
  0
CLASS
  1
LONG_TRANSACTION
  2
AcDbLongTransaction
  3
AutoCAD 2000
 90
        0
280
     0
281
     0
  0
CLASS
  1
LWPOLYLINE
  2
AcDbPolyline
  3
AutoCAD 2000
 90
        0
280
     0
281
     1
  0
CLASS
  1
HATCH
  2
AcDbHatch
  3
AutoCAD 2000
 90
        0
280
     0
281
     1
  0
CLASS
  1
XRECORD
  2
AcDbXrecord
  3
AutoCAD 2000
 90
        0
280
     0
281
     0
  0
CLASS
  1
LONG_TRANSACTION
  2
AcDbLongTransaction
  3
AutoCAD 2000
 90
        0
280
     0
281
     0
  0
CLASS
  1
LWPOLYLINE
  2
AcDbPolyline
  3
AutoCAD 2000
 90
        0
280
     0
281
     1
  0
CLASS
  1
HATCH
  2
AcDbHatch
  3
AutoCAD 2000
 90
        0
280
     0
281
     1
  0
CLASS
  1
XRECORD
  2
AcDbXrecord
  3
AutoCAD 2000
 90
        0
280
     0
281
     0
  0
CLASS
  1
LONG_TRANSACTION
  2
AcDbLongTransaction
  3
AutoCAD 2000
 90
        0
280
     0
281
     0
  0
CLASS
  1
LWPOLYLINE
  2
AcDbPolyline
  3
AutoCAD 2000
 90
        0
280
     0
281
     1
  0
CLASS
  1
HATCH
  2
AcDbHatch
  3
AutoCAD 2000
 90
        0
280
     0
281
     1
  0
CLASS
  1
XRECORD
  2
AcDbXrecord
  3
AutoCAD 2000
 90
        0
280
     0
281
     0
  0
CLASS
  1
LONG_TRANSACTION
  2
AcDbLongTransaction
  3
AutoCAD 2000
 90
        0
280
     0
281
     0
  0
CLASS
  1
LWPOLYLINE
  2
AcDbPolyline
  3
AutoCAD 2000
 90
        0
280
     0
281
     1
  0
CLASS
  1
HATCH
  2
AcDbHatch
  3
AutoCAD 2000
 90
        0
280
     0
281
     1
  0
CLASS
  1
XRECORD
  2
AcDbXrecord
  3
AutoCAD 2000
 90
        0
280
     0
281
     0
  0
CLASS
  1
LONG_TRANSACTION
  2
AcDbLongTransaction
  3
AutoCAD 2000
 90
        0
280
     0
281
     0
  0
CLASS
  1
LWPOLYLINE
  2
AcDbPolyline
  3
AutoCAD 2000
 90
        0
280
     0
281
     1
  0
CLASS
  1
HATCH
  2
AcDbHatch
  3
AutoCAD 2000
 90
        0
280
     0
281
     1
  0
CLASS
  1
XRECORD
  2
AcDbXrecord
  3
AutoCAD 2000
 90
        0
280
     0
281
     0
  0
CLASS
  1
LONG_TRANSACTION
  2
AcDbLongTransaction
  3
AutoCAD 2000
 90
        0
280
     0
281
     0
  0
CLASS
  1
LWPOLYLINE
  2
AcDbPolyline
  3
AutoCAD 2000
 90
        0
280
     0
281
     1
  0
CLASS
  1
HATCH
  2
AcDbHatch
  3
AutoCAD 2000
 90
        0
280
     0
281
     1
  0
CLASS
  1
XRECORD
  2
AcDbXrecord
  3
AutoCAD 2000
 90
        0
280
     0
281
     0
  0
CLASS
  1
LONG_TRANSACTION
  2
AcDbLongTransaction
  3
AutoCAD 2000
 90
        0
280
     0
281
     0
  0
CLASS
  1
LWPOLYLINE
  2
AcDbPolyline
  3
AutoCAD 2000
 90
        0
280
     0
281
     1
  0
CLASS
  1
HATCH
  2
AcDbHatch
  3
AutoCAD 2000
 90
        0
280
     0
281
     1
  0
CLASS
  1
XRECORD
  2
AcDbXrecord
  3
AutoCAD 2000
 90
        0
280
     0
281
     0
  0
CLASS
  1
LONG_TRANSACTION
  2
AcDbLongTransaction
  3
AutoCAD 2000
 90
        0
280
     0
281
     0
  0
CLASS
  1
LWPOLYLINE
  2
AcDbPolyline
  3
AutoCAD 2000
 90
        0
280
     0
281
     1
  0
CLASS
  1
HATCH
  2
AcDbHatch
  3
AutoCAD 2000
 90
        0
280
     0
281
     1
  0
CLASS
  1
XRECORD
  2
AcDbXrecord
  3
AutoCAD 2000
 90
        0
280
     0
281
     0
  0
ENDSEC
  0
SECTION
  2
TABLES
  0
TABLE
  2
VPORT
  5
8
330
0
100
AcDbSymbolTable
 70
     2
  0
VPORT
  5
1E64
330
8
100
AcDbSymbolTableRecord
100
AcDbViewportTableRecord
  2
*ACTIVE
 70
     0
 10
0.0
 20
0.0
 11
1.0
 21
1.0
 12
-176.5574534804795
 22
464.1817578992514
 13
0.0
 23
0.0
 14
1.0
 24
1.0
 15
10.0
 25
10.0
 16
0.0
 26
0.0
 36
1.0
 17
0.0
 27
0.0
 37
0.0
 40
2043.868643428061
 41
1.674961119751166
 42
50.0
 43
0.0
 44
0.0
 50
0.0
 51
0.0
 71
     0
 72
   100
 73
     1
 74
     1
 75
     0
 76
     0
 77
     0
 78
     0
  0
ENDTAB
  0
TABLE
  2
LTYPE
  5
5
330
0
100
AcDbSymbolTable
 70
     1
  0
LTYPE
  5
14
330
5
100
AcDbSymbolTableRecord
100
AcDbLinetypeTableRecord
  2
BYBLOCK
 70
     0
  3

 72
    65
 73
     0
 40
0.0
  0
LTYPE
  5
15
330
5
100
AcDbSymbolTableRecord
100
AcDbLinetypeTableRecord
  2
BYLAYER
 70
     0
  3

 72
    65
 73
     0
 40
0.0
  0
LTYPE
  5
16
330
5
100
AcDbSymbolTableRecord
100
AcDbLinetypeTableRecord
  2
CONTINUOUS
 70
     0
  3
Solid line
 72
    65
 73
     0
 40
0.0
  0
ENDTAB
  0
TABLE
  2
LAYER
  5
2
102
{ACAD_XDICTIONARY
360
1913
102
}
330
0
100
AcDbSymbolTable
 70
     4
  0
LAYER
  5
F
330
2
100
AcDbSymbolTableRecord
100
AcDbLayerTableRecord
  2
0
 70
     0
 62
     7
  6
CONTINUOUS
  0
LAYER
  5
7D
330
2
100
AcDbSymbolTableRecord
100
AcDbLayerTableRecord
  2
PEN50
 70
     0
 62
     7
  6
CONTINUOUS
  0
LAYER
  5
C3
330
2
100
AcDbSymbolTableRecord
100
AcDbLayerTableRecord
  2
KADER
 70
     0
 62
     5
  6
CONTINUOUS
  0
LAYER
  5
CB
330
2
100
AcDbSymbolTableRecord
100
AcDbLayerTableRecord
  2
VIEWPORT
 70
     0
 62
     7
  6
CONTINUOUS
  0
ENDTAB
  0
TABLE
  2
STYLE
  5
3
330
0
100
AcDbSymbolTable
 70
     2
  0
STYLE
  5
10
330
3
100
AcDbSymbolTableRecord
100
AcDbTextStyleTableRecord
  2
STANDARD
 70
     0
 40
3.5
 41
1.0
 50
0.0
 71
     0
 42
2.5
  3
isocp.shx
  4

  0
STYLE
  5
E7
330
3
100
AcDbSymbolTableRecord
100
AcDbTextStyleTableRecord
  2
ISO35
 70
     0
 40
35.0
 41
0.85
 50
0.0
 71
     0
 42
2.5
  3
romans.shx
  4

  0
ENDTAB
  0
TABLE
  2
VIEW
  5
6
330
0
100
AcDbSymbolTable
 70
     0
  0
ENDTAB
  0
TABLE
  2
UCS
  5
7
330
0
100
AcDbSymbolTable
 70
     0
  0
ENDTAB
  0
TABLE
  2
APPID
  5
9
330
0
100
AcDbSymbolTable
 70
     2
  0
APPID
  5
11
330
9
100
AcDbSymbolTableRecord
100
AcDbRegAppTableRecord
  2
ACAD
 70
     0
  0
APPID
  5
186A
330
9
100
AcDbSymbolTableRecord
100
AcDbRegAppTableRecord
  2
CONTENTBLOCKICON
 70
     0
  0
ENDTAB
  0
TABLE
  2
DIMSTYLE
  5
A
330
0
100
AcDbSymbolTable
 70
     1
  0
DIMSTYLE
105
25
330
A
100
AcDbSymbolTableRecord
100
AcDbDimStyleTableRecord
  2
ISO-35
 70
     0
  3

  4

  5

  6

  7

 40
10.0
 41
3.5
 42
0.875
 43
5.25
 44
1.75
 45
0.0
 46
0.0
 47
0.0
 48
0.0
140
3.5
141
4.0
142
0.0
143
0.0394
144
1.0
145
0.0
146
0.7
147
2.0
 71
     0
 72
     0
 73
     0
 74
     0
 75
     0
 76
     0
 77
     1
 78
     8
170
     0
171
     4
172
     1
173
     0
174
     0
175
     0
176
   256
177
   256
178
     2
270
     2
271
     2
272
     2
273
     8
274
     4
340
E7
275
     0
280
     0
281
     0
282
     0
283
     1
284
     0
285
     0
286
     0
287
     3
288
     0
  0
ENDTAB
  0
TABLE
  2
BLOCK_RECORD
  5
1
330
0
100
AcDbSymbolTable
 70
     0
  0
BLOCK_RECORD
  5
1A
102
{ACAD_XDICTIONARY
360
1850
102
}
330
1
100
AcDbSymbolTableRecord
100
AcDbBlockTableRecord
  2
*MODEL_SPACE
  0
BLOCK_RECORD
  5
17
102
{ACAD_XDICTIONARY
360
184E
102
}
330
1
100
AcDbSymbolTableRecord
100
AcDbBlockTableRecord
  2
*PAPER_SPACE
  0
ENDTAB
  0
ENDSEC
  0
SECTION
  2
BLOCKS
  0
BLOCK
  5
1B
330
1A
100
AcDbEntity
  8
0
100
AcDbBlockBegin
  2
*MODEL_SPACE
 70
     0
 10
0.0
 20
0.0
 30
0.0
  3
*MODEL_SPACE
  1

  0
ENDBLK
  5
1C
330
1A
100
AcDbEntity
  8
0
100
AcDbBlockEnd
  0
BLOCK
  5
18
330
17
100
AcDbEntity
 67
     1
  8
0
100
AcDbBlockBegin
  2
*PAPER_SPACE
 70
     0
 10
0.0
 20
0.0
 30
0.0
  3
*PAPER_SPACE
  1

  0
ENDBLK
  5
19
330
17
100
AcDbEntity
 67
     1
  8
0
100
AcDbBlockEnd
  0
ENDSEC
  0
SECTION
  2
ENTITIES
  0
ARC
  5
304
330
1A
100
AcDbEntity
  8
0
100
AcDbCircle
 10
-564.8766627550274
 20
1161.641207733793
 30
0.0
 40
100.0
100
AcDbArc
 50
89.99999999999998
 51
180.0
  0
ARC
  5
305
330
1A
100
AcDbEntity
  8
0
100
AcDbCircle
 10
-784.0899681793766
 20
1095.38751551789
 30
0.0
 40
240.0
100
AcDbArc
 50
73.98431455541035
 51
258.3847965255096
  0
LINE
  5
307
330
1A
100
AcDbEntity
  8
0
100
AcDbLine
 10
-1129.089968179378
 20
1435.38751551789
 30
0.0
 11
770.9100318206192
 21
1435.38751551789
 31
0.0
  0
LINE
  5
308
330
1A
100
AcDbEntity
  8
0
100
AcDbLine
 10
-445.5706824038176
 20
1355.38751551789
 30
0.0
 11
-784.0899681793788
 21
1355.38751551789
 31
0.0
  0
LINE
  5
309
330
1A
100
AcDbEntity
  8
0
100
AcDbLine
 10
-1129.089968179378
 20
235.3875155178905
 30
0.0
 11
770.9100318206192
 21
235.3875155178899
 31
0.0
  0
ARC
  5
30A
330
1A
100
AcDbEntity
  8
0
100
AcDbCircle
 10
-569.1666020547955
 20
634.9008812116517
 30
0.0
 40
240.0131784741005
100
AcDbArc
 50
149.3588618906654
 51
291.9262237923131
  0
ARC
  5
30B
330
1A
100
AcDbEntity
  8
0
100
AcDbCircle
 10
-689.0899681793771
 20
590.3875155178902
 30
0.0
 40
300.0
100
AcDbArc
 50
136.8037307424442
 51
297.7457227015253
  0
ELLIPSE
  5
30E
330
1A
100
AcDbEntity
  8
0
100
AcDbEllipse
 10
-851.3726329085644
 20
403.3386123331403
 30
0.0
 11
-30.21034155130064
 21
26.2170796114624
 31
0.0
210
0.0
220
0.0
230
1.0
 40
0.4949823048635576
 41
0.0
 42
6.283185307179584
  0
LINE
  5
30F
330
1A
100
AcDbEntity
  8
0
100
AcDbLine
 10
-1129.089968179378
 20
1435.38751551789
 30
0.0
 11
-1129.089968179378
 21
235.3875155178905
 31
0.0
  0
ARC
  5
312
330
1A
100
AcDbEntity
  8
0
100
AcDbCircle
 10
-784.0899681793766
 20
1095.38751551789
 30
0.0
 40
260.0
100
AcDbArc
 50
89.99999999999998
 51
238.893678022084
  0
ARC
  5
313
330
1A
100
AcDbEntity
  8
0
100
AcDbCircle
 10
-1306.194410507701
 20
1223.777903930477
 30
0.0
 40
614.6765774002552
100
AcDbArc
 50
325.1513996977935
 51
7.217711383225151
  0
ARC
  5
314
330
1A
100
AcDbEntity
  8
0
100
AcDbCircle
 10
-726.150862541838
 20
1297.236617665808
 30
0.0
 40
30.0
100
AcDbArc
 50
7.217711383225151
 51
73.98431455541035
  0
ARC
  5
318
330
1A
100
AcDbEntity
  8
0
100
AcDbCircle
 10
-944.2445879335746
 20
829.9623890294791
 30
0.0
 40
50.0
100
AcDbArc
 50
316.8037307424443
 51
58.89367802208404
  0
ARC
  5
31B
330
1A
100
AcDbEntity
  8
0
100
AcDbCircle
 10
-1458.378095695395
 20
1161.641207733793
 30
0.0
 40
793.50143294037
100
AcDbArc
 50
329.3588618906653
 51
0.0
  0
ARC
  5
31C
330
1A
100
AcDbEntity
  8
0
100
AcDbCircle
 10
-826.3709156355568
 20
889.687925138598
 30
0.0
 40
30.0
100
AcDbArc
 50
258.3847965255096
 51
325.1513996977935
  0
ELLIPSE
  5
31D
330
1A
100
AcDbEntity
  8
0
100
AcDbEllipse
 10
-847.9737272266412
 20
472.6123668090203
 30
0.0
 11
-22.4264952987353
 21
33.12177997354313
 31
0.0
210
0.0
220
0.0
230
1.0
 40
0.4949823048635576
 41
0.0
 42
6.283185307179584
  0
ELLIPSE
  5
31E
330
1A
100
AcDbEntity
  8
0
100
AcDbEllipse
 10
-832.0008687225561
 20
544.2253056894287
 30
0.0
 11
-13.07242885557759
 21
37.80359247235454
 31
0.0
210
0.0
220
0.0
230
1.0
 40
0.4949823048635576
 41
0.0
 42
6.283185307179584
  0
ELLIPSE
  5
320
330
1A
100
AcDbEntity
  8
0
100
AcDbEllipse
 10
-886.8625839520312
 20
591.4009220639366
 30
0.0
 11
-1.257010954058274
 21
39.98024416460431
 31
0.0
210
0.0
220
0.0
230
0.9999999999999998
 40
0.4949823048635576
 41
0.0
 42
6.283185307179584
  0
ELLIPSE
  5
321
330
1A
100
AcDbEntity
  8
0
100
AcDbEllipse
 10
-932.8342286666153
 20
640.7241417274373
 30
0.0
 11
7.047073615406738
 21
39.37434130825604
 31
0.0
210
0.0
220
0.0
230
0.9999999999999998
 40
0.4949823048635576
 41
0.0
 42
6.283185307179584
  0
ELLIPSE
  5
322
330
1A
100
AcDbEntity
  8
0
100
AcDbEllipse
 10
-925.3212714889055
 20
512.0305643564781
 30
0.0
 11
-13.07242885557759
 21
37.80359247235454
 31
0.0
210
0.0
220
0.0
230
1.0
 40
0.4949823048635576
 41
0.0
 42
6.283185307179584
  0
ARC
  5
324
330
1A
100
AcDbEntity
  8
0
100
AcDbCircle
 10
124.274394066474
 20
359.7083860882738
 30
0.0
 40
54.76800272437389
100
AcDbArc
 50
47.23617510103609
 51
74.02600376426305
  0
ARC
  5
325
330
1A
100
AcDbEntity
  8
0
100
AcDbCircle
 10
66.98663197234235
 20
395.8937576330181
 30
0.0
 40
18.44904684162146
100
AcDbArc
 50
113.1303947241885
 51
263.4050023543557
  0
ARC
  5
326
330
1A
100
AcDbEntity
  8
0
100
AcDbCircle
 10
113.4705759849196
 20
372.3178411331027
 30
0.0
 40
42.27614033926161
100
AcDbArc
 50
83.48699651924581
 51
114.4951163732035
  0
ARC
  5
327
330
1A
100
AcDbEntity
  8
0
100
AcDbCircle
 10
107.915222415668
 20
396.9518272886443
 30
0.0
 40
15.05533030824611
100
AcDbArc
 50
76.85612821778597
 51
228.5093704457608
  0
ARC
  5
328
330
1A
100
AcDbEntity
  8
0
100
AcDbCircle
 10
103.9868230335837
 20
319.3275521541518
 30
0.0
 40
96.06077935955269
100
AcDbArc
 50
81.4515133441697
 51
115.8441360639111
  0
ARC
  5
32A
330
1A
100
AcDbEntity
  8
0
100
AcDbCircle
 10
425.910031820621
 20
575.3875155178902
 30
0.0
 40
240.0
100
AcDbArc
 50
253.9843145554103
 51
78.38479652550964
  0
ARC
  5
32B
330
1A
100
AcDbEntity
  8
0
100
AcDbCircle
 10
948.0144741489503
 20
446.9971271053033
 30
0.0
 40
614.6765774002591
100
AcDbArc
 50
145.1513996977935
 51
187.2177113832249
  0
ARC
  5
32C
330
1A
100
AcDbEntity
  8
0
100
AcDbCircle
 10
-106.0856794059993
 20
-558.8620621788995
 30
0.0
 40
972.725421400006
100
AcDbArc
 50
81.55301110443295
 51
89.83468054552542
  0
ARC
  5
32D
330
1A
100
AcDbEntity
  8
0
100
AcDbCircle
 10
-272.9249338948266
 20
395.8937576330198
 30
0.0
 40
18.44904684162146
100
AcDbArc
 50
276.594997645644
 51
66.86960527581135
  0
ARC
  5
32E
330
1A
100
AcDbEntity
  8
0
100
AcDbCircle
 10
-99.85262252010056
 20
-558.8620621789141
 30
0.0
 40
972.725421400006
100
AcDbArc
 50
90.16531945421403
 51
98.44698889530928
  0
ARC
  5
32F
330
1A
100
AcDbEntity
  8
0
100
AcDbCircle
 10
-313.8535243381519
 20
396.9518272886471
 30
0.0
 40
15.05533030824611
100
AcDbArc
 50
311.490629554239
 51
103.143871782214
  0
ARC
  5
330
330
1A
100
AcDbEntity
  8
0
100
AcDbCircle
 10
-319.4088779074036
 20
372.3178411331053
 30
0.0
 40
42.27614033926161
100
AcDbArc
 50
65.50488362679631
 51
96.51300348075412
  0
ARC
  5
331
330
1A
100
AcDbEntity
  8
0
100
AcDbCircle
 10
-326.7110277103311
 20
351.011380925267
 30
0.0
 40
64.10023626164634
100
AcDbArc
 50
106.8437712507344
 51
131.7529446551011
  0
ARC
  5
332
330
1A
100
AcDbEntity
  8
0
100
AcDbCircle
 10
-309.9251249560683
 20
319.3275521541544
 30
0.0
 40
96.06077935955269
100
AcDbArc
 50
64.15586393608868
 51
98.54848665583029
  0
LINE
  5
334
330
1A
100
AcDbEntity
  8
0
100
AcDbLine
 10
770.9100317843621
 20
-73.20815468636101
 30
0.0
 11
770.9100318206192
 21
-113.2273990067518
 31
0.0
  0
ARC
  5
335
330
1A
100
AcDbEntity
  8
0
100
AcDbCircle
 10
425.910031820621
 20
575.3875155178902
 30
0.0
 40
260.0
100
AcDbArc
 50
244.386297976389
 51
58.89367802208404
  0
ARC
  5
338
330
1A
100
AcDbEntity
  8
0
100
AcDbCircle
 10
586.0646515748149
 20
840.8126420063052
 30
0.0
 40
50.0
100
AcDbArc
 50
136.8037307424442
 51
238.893678022084
  0
ELLIPSE
  5
339
330
1A
100
AcDbEntity
  8
0
100
AcDbEllipse
 10
536.6567238870604
 20
1196.929150164234
 30
0.0
 11
-18.93020593385444
 21
35.23701609532027
 31
0.0
210
0.0
220
0.0
230
1.0
 40
0.4949823048635576
 41
0.0
 42
6.283185307179584
  0
ARC
  5
33A
330
1A
100
AcDbEntity
  8
0
100
AcDbCircle
 10
330.9100318206212
 20
1080.38751551789
 30
0.0
 40
300.0
100
AcDbArc
 50
316.8037307424443
 51
101.7230461176452
  0
ELLIPSE
  5
33B
330
1A
100
AcDbEntity
  8
0
100
AcDbEllipse
 10
361.8432315622578
 20
1244.66082826773
 30
0.0
 11
-29.49014796584609
 21
27.02464010773321
 31
0.0
210
0.0
220
0.0
230
1.0
 40
0.4949823048635576
 41
0.0
 42
6.283185307179584
  0
ARC
  5
33D
330
1A
100
AcDbEntity
  8
0
100
AcDbCircle
 10
123.5833562135421
 20
974.3850927297971
 30
0.0
 40
287.256115003997
100
AcDbArc
 50
333.7664943885464
 51
89.99999999999998
  0
ELLIPSE
  5
33F
330
1A
100
AcDbEntity
  8
0
100
AcDbEllipse
 10
456.2217220432948
 20
1224.59631087746
 30
0.0
 11
-24.31966525482623
 21
31.75773735474864
 31
0.0
210
0.0
220
0.0
230
1.0
 40
0.4949823048635576
 41
0.0
 42
6.283185307179584
  0
LINE
  5
340
330
1A
100
AcDbEntity
  8
0
100
AcDbLine
 10
123.5833562135405
 20
1261.641207733795
 30
0.0
 11
-564.8766627550291
 21
1261.641207733795
 31
0.0
  0
LINE
  5
342
330
1A
100
AcDbEntity
  8
0
100
AcDbLine
 10
-445.5706824038176
 20
1355.38751551789
 30
0.0
 11
87.39074604505843
 21
1355.38751551789
 31
0.0
  0
ARC
  5
348
330
1A
100
AcDbEntity
  8
0
100
AcDbCircle
 10
87.39074604506049
 20
2253.920366410639
 30
0.0
 40
898.5328508927487
100
AcDbArc
 50
270.0
 51
281.7230461176453
  0
LINE
  5
349
330
1A
100
AcDbEntity
  8
0
100
AcDbLine
 10
-101.9797630649964
 20
485.3875155178903
 30
0.0
 11
220.1969922815631
 21
485.3875155178903
 31
0.0
  0
ARC
  5
34A
330
1A
100
AcDbEntity
  8
0
100
AcDbCircle
 10
-102.1425460581651
 20
-614.7854188088347
 30
0.0
 40
1055.153088547694
100
AcDbArc
 50
76.76965528420854
 51
90.04488540819449
  0
ARC
  5
34B
330
1A
100
AcDbEntity
  8
0
100
AcDbCircle
 10
-105.5772481728345
 20
-666.959958911264
 30
0.0
 40
1100.168905862747
100
AcDbArc
 50
80.29294458739444
 51
89.86853216519389
  0
ARC
  5
351
330
1A
100
AcDbEntity
  8
0
100
AcDbCircle
 10
-101.9797630649948
 20
-525.7276325836937
 30
0.0
 40
1011.115148101584
100
AcDbArc
 50
89.99999999999998
 51
111.9262237923132
  0
ARC
  5
352
330
1A
100
AcDbEntity
  8
0
100
AcDbCircle
 10
-297.2571385475717
 20
320.8304618433785
 30
0.0
 40
97.29671522451424
100
AcDbArc
 50
71.06056347614355
 51
106.0787099034894
  0
ARC
  5
353
330
1A
100
AcDbEntity
  8
0
100
AcDbCircle
 10
-103.7957558681815
 20
-614.7854188088313
 30
0.0
 40
1055.153088547694
100
AcDbArc
 50
89.9551145915449
 51
103.2303447162238
  0
CIRCLE
  5
357
330
1A
100
AcDbEntity
  8
0
100
AcDbCircle
 10
-102.0897630649944
 20
595.3875155178902
 30
0.0
 40
26.0
  0
CIRCLE
  5
358
330
1A
100
AcDbEntity
  8
0
100
AcDbCircle
 10
-102.0897630649944
 20
595.3875155178902
 30
0.0
 40
37.5
  0
ARC
  5
35A
330
1A
100
AcDbEntity
  8
0
100
AcDbCircle
 10
-100.361053753743
 20
-666.9599589112747
 30
0.0
 40
1100.168905862747
100
AcDbArc
 50
90.13146783454557
 51
99.7070554125028
  0
ARC
  5
35B
330
1A
100
AcDbEntity
  8
0
100
AcDbCircle
 10
-103.0376005470834
 20
-577.1222836221441
 30
0.0
 40
990.9797827367407
100
AcDbArc
 50
89.99105495453523
 51
89.99999999999998
  0
ARC
  5
35C
330
1A
100
AcDbEntity
  8
0
100
AcDbCircle
 10
-87.86218093413141
 20
-857.8627634978547
 30
0.0
 40
1271.808954706581
100
AcDbArc
 50
90.6697178649785
 51
90.68367825738135
  0
ARC
  5
35D
330
1A
100
AcDbEntity
  8
0
100
AcDbCircle
 10
-102.9691509612421
 20
-577.1222836221441
 30
0.0
 40
990.9797827367407
100
AcDbArc
 50
89.99999999999998
 51
90.00894504546478
  0
ARC
  5
35E
330
1A
100
AcDbEntity
  8
0
100
AcDbCircle
 10
-100.4295033354916
 20
-666.959958911264
 30
0.0
 40
1100.168905862747
100
AcDbArc
 50
90.13146783480609
 51
90.13582741881231
  0
ARC
  5
35F
330
1A
100
AcDbEntity
  8
0
100
AcDbCircle
 10
912.9652098925426
 20
585.3875155178903
 30
0.0
 40
592.7682176109771
100
AcDbArc
 50
153.7664943885464
 51
180.0
  0
ELLIPSE
  5
365
330
1A
100
AcDbEntity
  8
0
100
AcDbEllipse
 10
480.736942655194
 20
1022.957345812709
 30
0.0
 11
-7.323724052572343
 21
39.32382313562317
 31
0.0
210
0.0
220
0.0
230
0.9999999999999998
 40
0.4949823048635576
 41
0.0
 42
6.283185307179584
  0
ELLIPSE
  5
366
330
1A
100
AcDbEntity
  8
0
100
AcDbEllipse
 10
440.4345586107675
 20
1144.909294584844
 30
0.0
 11
-18.93020593385444
 21
35.23701609532027
 31
0.0
210
0.0
220
0.0
230
1.0
 40
0.4949823048635576
 41
0.0
 42
6.283185307179584
  0
ELLIPSE
  5
367
330
1A
100
AcDbEntity
  8
0
100
AcDbEllipse
 10
514.9056673915322
 20
1114.227861770095
 30
0.0
 11
-13.83240114878435
 21
37.53218190378903
 31
0.0
210
0.0
220
0.0
230
1.0
 40
0.4949823048635576
 41
0.0
 42
6.283185307179584
  0
ARC
  5
36A
330
1A
100
AcDbEntity
  8
0
100
AcDbCircle
 10
220.1969922815651
 20
585.3875155178903
 30
0.0
 40
100.0
100
AcDbArc
 50
270.0
 51
0.0
  0
ARC
  5
36E
330
1A
100
AcDbEntity
  8
0
100
AcDbCircle
 10
91.31883662508696
 20
320.8304618433758
 30
0.0
 40
97.29671522451424
100
AcDbArc
 50
73.92129009651035
 51
108.9394365238564
  0
ARC
  5
370
330
1A
100
AcDbEntity
  8
0
100
AcDbCircle
 10
468.190979276799
 20
781.0871058971825
 30
0.0
 40
30.0
100
AcDbArc
 50
78.38479652550964
 51
145.1513996977935
  0
LINE
  5
372
330
1A
100
AcDbEntity
  8
0
100
AcDbLine
 10
770.91003182037
 20
466.1720311770912
 30
0.0
 11
770.9100318206192
 21
466.1720311777387
 31
0.0
  0
SPLINE
  5
375
330
1A
100
AcDbEntity
  8
0
100
AcDbSpline
210
0.0
220
0.0
230
1.0
 70
     8
 71
     3
 72
    26
 73
    22
 74
     0
 42
0.0000000001
 43
0.0000000001
 40
4.930295628590105
 40
4.930295628590105
 40
4.930295628590105
 40
4.930295628590105
 40
5.041102782759332
 40
5.041102782759332
 40
5.187112518883425
 40
5.187112518883425
 40
5.333122255007516
 40
5.333122255007516
 40
5.479131991131611
 40
5.479131991131611
 40
5.593914060998308
 40
5.593914060998308
 40
5.708696130865007
 40
5.708696130865007
 40
5.803570522435776
 40
5.803570522435776
 40
5.898444914006549
 40
5.898444914006549
 40
5.993965655353185
 40
5.993965655353185
 40
6.056516652166043
 40
6.056516652166043
 40
6.056516652166043
 40
6.056516652166043
 10
-55.92342937077956
 20
278.2205045128303
 30
0.0
 10
-48.88841553855627
 20
279.3818585036224
 30
0.0
 10
-41.95802005291624
 20
280.7325702146754
 30
0.0
 10
-26.24646936903991
 20
284.2803738715646
 30
0.0
 10
-17.5759256807946
 20
286.6095977792783
 30
0.0
 10
-0.9642917741657583
 20
291.8294622749627
 30
0.0
 10
6.977646408336568
 20
294.7197436727865
 30
0.0
 10
21.94325999879402
 20
300.9777219928364
 30
0.0
 10
28.96730916270729
 20
304.3448325994686
 30
0.0
 10
40.54232674334929
 20
310.6890230958496
 30
0.0
 10
45.30148050364044
 20
313.5946827287861
 30
0.0
 10
54.07792985462851
 20
319.5689154885785
 30
0.0
 10
58.09593159298078
 20
322.6372911903435
 30
0.0
 10
64.70946219974888
 20
328.3206281681686
 30
0.0
 10
67.43175696054681
 20
330.9219024772636
 30
0.0
 10
72.31621573148633
 20
336.1338812014545
 30
0.0
 10
74.48001238198044
 20
338.7458564419966
 30
0.0
 10
78.26044826932542
 20
343.9465344296285
 30
0.0
 10
79.87449101536815
 20
346.5365530184679
 30
0.0
 10
82.09536470863662
 20
350.7555919746636
 30
0.0
 10
82.85758986184005
 20
352.4076033667396
 30
0.0
 10
83.50896401671972
 20
354.0399563212583
 30
0.0
  0
ELLIPSE
  5
376
330
1A
100
AcDbEntity
  8
0
100
AcDbEllipse
 10
-102.9691509612443
 20
360.8936617479439
 30
0.0
 11
203.6176109771407
 21
10.82562264662269
 31
0.0
210
0.0
220
0.0
230
1.0
 40
0.4988566899251944
 41
4.685872764545681
 42
6.422043076706357
  0
ARC
  5
377
330
1A
100
AcDbEntity
  8
0
100
AcDbCircle
 10
-277.2256999274985
 20
358.9147402269681
 30
0.0
 40
13.1578947368421
100
AcDbArc
 50
144.9095741359115
 51
201.7571594576824
  0
ARC
  5
378
330
1A
100
AcDbEntity
  8
0
100
AcDbCircle
 10
-265.7325169288428
 20
350.8400647294038
 30
0.0
 40
27.20402017525254
100
AcDbArc
 50
100.7485690954126
 51
144.9095741359115
  0
ARC
  5
379
330
1A
100
AcDbEntity
  8
0
100
AcDbCircle
 10
-263.6036214269537
 20
346.0667077016978
 30
0.0
 40
38.33055769121921
100
AcDbArc
 50
99.11119574248079
 51
157.5789307116333
  0
SPLINE
  5
37A
330
1A
100
AcDbEntity
  8
0
100
AcDbSpline
210
0.0
220
0.0
230
1.0
 70
     8
 71
     3
 72
    26
 73
    22
 74
     0
 42
0.0000000001
 43
0.0000000001
 40
4.933037218902049
 40
4.933037218902049
 40
4.933037218902049
 40
4.933037218902049
 40
5.041828873086988
 40
5.041828873086988
 40
5.187496819175505
 40
5.187496819175505
 40
5.333164765264025
 40
5.333164765264025
 40
5.478832711352541
 40
5.478832711352541
 40
5.593551325866993
 40
5.593551325866993
 40
5.708269940381446
 40
5.708269940381446
 40
5.803317347647331
 40
5.803317347647331
 40
5.898364754913218
 40
5.898364754913218
 40
5.99390523552917
 40
5.99390523552917
 40
6.056484746673039
 40
6.056484746673039
 40
6.056484746673039
 40
6.056484746673039
 10
-150.5368545405833
 20
278.3070501170204
 30
0.0
 10
-157.4387925117916
 20
279.4564763935122
 30
0.0
 10
-164.2387689157003
 20
280.7882168249143
 30
0.0
 10
-179.8015680670199
 20
284.3088621292881
 30
0.0
 10
-188.4493013944734
 20
286.6348505310961
 30
0.0
 10
-205.0182362781083
 20
291.8454375011541
 30
0.0
 10
-212.9402658747133
 20
294.7296631336738
 30
0.0
 10
-227.8703157126879
 20
300.9732686236146
 30
0.0
 10
-234.8787109827699
 20
304.3320591044393
 30
0.0
 10
-246.4396988356055
 20
310.6650488895238
 30
0.0
 10
-251.1982627650954
 20
313.5685314330576
 30
0.0
 10
-259.9745231236851
 20
319.5384322246072
 30
0.0
 10
-263.9929544683277
 20
322.6046756239038
 30
0.0
 10
-270.6153029853488
 20
328.2903940699898
 30
0.0
 10
-273.3445605007559
 20
330.8963193210284
 30
0.0
 10
-278.2409012339393
 20
336.1177397071642
 30
0.0
 10
-280.4096300146155
 20
338.734526954493
 30
0.0
 10
-284.194842614927
 20
343.9405398754643
 30
0.0
 10
-285.8096248606698
 20
346.5311371287551
 30
0.0
 10
-288.0317454343078
 20
350.7515484985315
 30
0.0
 10
-288.7944846076966
 20
352.4043401008475
 30
0.0
 10
-289.4462689038819
 20
354.037457397434
 30
0.0
  0
ELLIPSE
  5
37B
330
1A
100
AcDbEntity
  8
0
100
AcDbEllipse
 10
-102.969150960791
 20
360.8936617479439
 30
0.0
 11
203.6176109773065
 21
-10.82562264769617
 31
0.0
210
0.0
220
0.0
230
-1.0
 40
0.4988566899246334
 41
1.544280110955519
 42
3.280450423105906
  0
ARC
  5
37C
330
1A
100
AcDbEntity
  8
0
100
AcDbCircle
 10
-77.05442659715005
 20
-581.9659621436831
 30
0.0
 40
1022.499590290441
100
AcDbArc
 50
106.833404251451
 51
117.5147353055328
  0
ARC
  5
37D
330
1A
100
AcDbEntity
  8
0
100
AcDbCircle
 10
-100.361053753743
 20
-666.9599589112747
 30
0.0
 40
1100.168905862747
100
AcDbArc
 50
101.3712887380457
 51
104.0691160781164
  0
ARC
  5
37E
330
1A
100
AcDbEntity
  8
0
100
AcDbCircle
 10
-376.0558576300104
 20
406.2918727305113
 30
0.0
 40
10.0
100
AcDbArc
 50
286.8334042514518
 51
311.7529446551016
  0
SPLINE
  5
37F
330
1A
100
AcDbEntity
  8
0
100
AcDbSpline
210
0.0
220
0.0
230
1.0
 70
     8
 71
     3
 72
    12
 73
     8
 74
     0
 42
0.0000000001
 43
0.0000000001
 40
3.023317205497767
 40
3.023317205497767
 40
3.023317205497767
 40
3.023317205497767
 40
3.098175989791274
 40
3.098175989791274
 40
3.214143092364055
 40
3.214143092364055
 40
3.280450423105906
 40
3.280450423105906
 40
3.280450423105906
 40
3.280450423105906
 10
-299.0415384738146
 20
360.8927028593297
 30
0.0
 10
-299.4480426215641
 20
363.1168766846121
 30
0.0
 10
-299.6868652257085
 20
365.3299160804981
 30
0.0
 10
-299.8764221579313
 20
370.9440397035478
 30
0.0
 10
-299.597420654878
 20
374.3315182467012
 30
0.0
 10
-298.5352955390416
 20
379.6313353079522
 30
0.0
 10
-298.0188499482324
 20
381.5541728283788
 30
0.0
 10
-297.3699720333606
 20
383.471880545966
 30
0.0
  0
ARC
  5
380
330
1A
100
AcDbEntity
  8
0
100
AcDbCircle
 10
-312.097303914993
 20
395.0710681620621
 30
0.0
 40
18.74661189935766
100
AcDbArc
 50
321.7761732805456
 51
56.9757985573843
  0
ARC
  5
384
330
1A
100
AcDbEntity
  8
0
100
AcDbCircle
 10
-149.6102550207729
 20
300.0365500369051
 30
0.0
 40
28.9080625530544
100
AcDbArc
 50
267.5582458119624
 51
331.6635972050143
  0
ARC
  5
385
330
1A
100
AcDbEntity
  8
0
100
AcDbCircle
 10
-149.6102550207729
 20
300.0365500369051
 30
0.0
 40
21.74924719245237
100
AcDbArc
 50
267.5582458119624
 51
331.6635972050143
  0
SPLINE
  5
386
330
1A
100
AcDbEntity
  8
0
100
AcDbSpline
210
0.0
220
0.0
230
1.0
 70
     8
 71
     3
 72
    10
 73
     6
 74
     0
 42
0.0000000001
 43
0.0000000001
 40
4.685620220790943
 40
4.685620220790943
 40
4.685620220790943
 40
4.685620220790943
 40
4.773835115110999
 40
4.773835115110999
 40
4.926760257063393
 40
4.926760257063393
 40
4.926760257063393
 40
4.926760257063393
 10
-102.6765252261907
 20
266.3204903812982
 30
0.0
 10
-108.5639855062995
 20
266.5579851265411
 30
0.0
 10
-114.4517225820885
 20
266.9253090965303
 30
0.0
 10
-130.4818240663305
 20
268.2801981077764
 30
0.0
 10
-140.5767306574982
 20
269.525857619328
 30
0.0
 10
-150.4783174568269
 20
271.1415236797893
 30
0.0
  0
ARC
  5
387
330
1A
100
AcDbEntity
  8
0
100
AcDbCircle
 10
-240.8076153622289
 20
390.2962640340191
 30
0.0
 40
13.1578947368421
100
AcDbArc
 50
98.44698889530928
 51
140.6846610662796
  0
ARC
  5
388
330
1A
100
AcDbEntity
  8
0
100
AcDbCircle
 10
-274.1702460064093
 20
395.2412633396761
 30
0.0
 40
12.18759378846789
100
AcDbArc
 50
291.6525418790158
 51
59.85565235400837
  0
ARC
  5
389
330
1A
100
AcDbEntity
  8
0
100
AcDbCircle
 10
-223.385323067006
 20
376.0284924303622
 30
0.0
 40
35.67689949625204
100
AcDbArc
 50
140.6846610662796
 51
151.8281274607114
  0
ARC
  5
38A
330
1A
100
AcDbEntity
  8
0
100
AcDbCircle
 10
-102.969150961242
 20
360.8936617479428
 30
0.0
 40
34.73684210526315
100
AcDbArc
 50
270.0
 51
89.99999999999998
  0
ARC
  5
38B
330
1A
100
AcDbEntity
  8
0
100
AcDbCircle
 10
-102.969150961242
 20
360.8936617479428
 30
0.0
 40
40.0
100
AcDbArc
 50
270.0
 51
89.99999999999998
  0
ARC
  5
38C
330
1A
100
AcDbEntity
  8
0
100
AcDbCircle
 10
-102.9691509607932
 20
360.8936617479428
 30
0.0
 40
40.0
100
AcDbArc
 50
89.99999999973942
 51
269.9999999997394
  0
ARC
  5
38D
330
1A
100
AcDbEntity
  8
0
100
AcDbCircle
 10
-102.9691509607932
 20
360.8936617479428
 30
0.0
 40
34.73684210526315
100
AcDbArc
 50
89.99999999973942
 51
269.9999999997394
  0
SPLINE
  5
38E
330
1A
100
AcDbEntity
  8
0
100
AcDbSpline
210
0.0
220
0.0
230
1.0
 70
     8
 71
     3
 72
    10
 73
     6
 74
     0
 42
0.0000000001
 43
0.0000000001
 40
4.685620220790943
 40
4.685620220790943
 40
4.685620220790943
 40
4.685620220790943
 40
4.773835115111025
 40
4.773835115111025
 40
4.924233543683558
 40
4.924233543683558
 40
4.924233543683558
 40
4.924233543683558
 10
-103.261776696263
 20
266.3204903813002
 30
0.0
 10
-97.37431641615149
 20
266.5579851265174
 30
0.0
 10
-91.48657934035872
 20
266.9253090964791
 30
0.0
 10
-75.62444445562914
 20
268.2660013104505
 30
0.0
 10
-65.69517785360496
 20
269.4848001659202
 30
0.0
 10
-55.9509406432785
 20
271.0617420108765
 30
0.0
  0
ARC
  5
38F
330
1A
100
AcDbEntity
  8
0
100
AcDbCircle
 10
-55.83751780463581
 20
300.8110346389248
 30
0.0
 40
29.74950884652673
100
AcDbArc
 50
209.1969830384006
 51
269.7821057588114
  0
ARC
  5
390
330
1A
100
AcDbEntity
  8
0
100
AcDbCircle
 10
-55.83751780463581
 20
300.8110346389248
 30
0.0
 40
22.59069348592469
100
AcDbArc
 50
209.1969830384006
 51
269.7821057588114
  0
ARC
  5
391
330
1A
100
AcDbEntity
  8
0
100
AcDbCircle
 10
-106.5100589963974
 20
271.8612139001669
 30
0.0
 40
35.77018075817764
100
AcDbArc
 50
30.08267460565317
 51
84.42912965093986
  0
SPLINE
  5
392
330
1A
100
AcDbEntity
  8
0
100
AcDbSpline
210
0.0
220
0.0
230
1.0
 70
     8
 71
     3
 72
     8
 73
     4
 74
     0
 42
0.0000000001
 43
0.0000000001
 40
4.693871540600068
 40
4.693871540600068
 40
4.693871540600068
 40
4.693871540600068
 40
4.694243141775818
 40
4.694243141775818
 40
4.694243141775818
 40
4.694243141775818
 10
-103.0376005470833
 20
298.5060195763461
 30
0.0
 10
-103.0147840015179
 20
298.5070340680231
 30
0.0
 10
-102.9919674721035
 20
298.5080506774065
 30
0.0
 10
-102.9691509607937
 20
298.5090694043792
 30
0.0
  0
ARC
  5
393
330
1A
100
AcDbEntity
  8
0
100
AcDbCircle
 10
-106.5100589963974
 20
271.8612139001669
 30
0.0
 40
28.61136539757561
100
AcDbArc
 50
30.08267460565317
 51
84.42912965093986
  0
ARC
  5
394
330
1A
100
AcDbEntity
  8
0
100
AcDbCircle
 10
-99.46445016939378
 20
271.8711789373464
 30
0.0
 40
28.61136539757561
100
AcDbArc
 50
95.73294411910389
 51
150.0793991643659
  0
ARC
  5
395
330
1A
100
AcDbEntity
  8
0
100
AcDbCircle
 10
-99.46445016939378
 20
271.8711789373464
 30
0.0
 40
35.77018075817764
100
AcDbArc
 50
95.73294411910389
 51
150.0793991643659
  0
ARC
  5
396
330
1A
100
AcDbEntity
  8
0
100
AcDbCircle
 10
-123.3216059312369
 20
-577.7516671204613
 30
0.0
 40
1017.258023517718
100
AcDbArc
 50
64.56909705166745
 51
73.5107612383114
  0
ARC
  5
397
330
1A
100
AcDbEntity
  8
0
100
AcDbCircle
 10
-105.5772481728345
 20
-666.959958911264
 30
0.0
 40
1100.168905862747
100
AcDbArc
 50
75.98440953900331
 51
78.62871126169878
  0
ARC
  5
398
330
1A
100
AcDbEntity
  8
0
100
AcDbCircle
 10
57.6653195044696
 20
346.066707701696
 30
0.0
 40
38.33055769121921
100
AcDbArc
 50
22.42106928836664
 51
80.88880425751922
  0
ARC
  5
399
330
1A
100
AcDbEntity
  8
0
100
AcDbCircle
 10
68.23194408392556
 20
395.2412633396742
 30
0.0
 40
12.18759378846789
100
AcDbArc
 50
120.1443476459916
 51
248.3474581209839
  0
ARC
  5
39A
330
1A
100
AcDbEntity
  8
0
100
AcDbCircle
 10
17.44702114452184
 20
376.0284924303604
 30
0.0
 40
35.67689949625204
100
AcDbArc
 50
28.17187253928858
 51
39.3153389337203
  0
ARC
  5
39B
330
1A
100
AcDbEntity
  8
0
100
AcDbCircle
 10
34.86931343974537
 20
390.2962640340183
 30
0.0
 40
13.1578947368421
100
AcDbArc
 50
39.3153389337203
 51
81.55301110469068
  0
SPLINE
  5
39C
330
1A
100
AcDbEntity
  8
0
100
AcDbSpline
210
0.0
220
0.0
230
1.0
 70
     8
 71
     3
 72
    12
 73
     8
 74
     0
 42
0.0000000001
 43
0.0000000001
 40
3.023317205497767
 40
3.023317205497767
 40
3.023317205497767
 40
3.023317205497767
 40
3.098175989791274
 40
3.098175989791274
 40
3.214143092364055
 40
3.214143092364055
 40
3.280450423105906
 40
3.280450423105906
 40
3.280450423105906
 40
3.280450423105906
 10
93.10323655133057
 20
360.892702859327
 30
0.0
 10
93.50974069907982
 20
363.1168766846093
 30
0.0
 10
93.74856330322421
 20
365.3299160804952
 30
0.0
 10
93.93812023544711
 20
370.9440397035458
 30
0.0
 10
93.65911873239388
 20
374.3315182466993
 30
0.0
 10
92.59699361655799
 20
379.6313353079503
 30
0.0
 10
92.08054802574819
 20
381.554172828376
 30
0.0
 10
91.43167011087696
 20
383.4718805459633
 30
0.0
  0
ARC
  5
39D
330
1A
100
AcDbEntity
  8
0
100
AcDbCircle
 10
71.28739800501444
 20
358.9147402269663
 30
0.0
 40
13.1578947368421
100
AcDbArc
 50
338.2428405423175
 51
35.09042586408845
  0
ARC
  5
39E
330
1A
100
AcDbEntity
  8
0
100
AcDbCircle
 10
106.1590019925092
 20
395.0710681620594
 30
0.0
 40
18.74661189935766
100
AcDbArc
 50
123.0242014426154
 51
218.2238267194543
  0
ARC
  5
39F
330
1A
100
AcDbEntity
  8
0
100
AcDbCircle
 10
59.79421500635861
 20
350.840064729402
 30
0.0
 40
27.20402017525254
100
AcDbArc
 50
35.09042586408845
 51
79.25143090453591
  0
ARC
  5
3A0
330
1A
100
AcDbEntity
  8
0
100
AcDbCircle
 10
168.250437220516
 20
407.2583787845751
 30
0.0
 40
10.0
100
AcDbArc
 50
227.2361751010374
 51
253.5107612383109
  0
ARC
  5
3A2
330
1A
100
AcDbEntity
  8
0
100
AcDbCircle
 10
367.970926183082
 20
373.5384133699697
 30
0.0
 40
30.0
100
AcDbArc
 50
187.2177113832249
 51
253.9843145554103
  0
LINE
  5
4A9
330
1A
100
AcDbEntity
  8
0
100
AcDbLine
 10
-113.5446897466642
 20
-530.1826986938853
 30
0.0
 11
-757.765719659591
 21
-530.1826986938856
 31
0.0
  0
ARC
  5
4AD
330
1A
100
AcDbEntity
  8
0
100
AcDbCircle
 10
-757.765719659591
 20
-480.1826986938856
 30
0.0
 40
50.0
100
AcDbArc
 50
210.1830247983793
 51
270.0
  0
LINE
  5
4B0
330
1A
100
AcDbEntity
  8
0
100
AcDbLine
 10
-1118.986519647606
 20
-63.21640924526239
 30
0.0
 11
760.8164043894612
 21
-63.20815420634403
 31
0.0
  0
LINE
  5
4B2
330
1A
100
AcDbEntity
  8
0
100
AcDbLine
 10
-1129.089968179378
 20
-113.2273990067518
 30
0.0
 11
-1128.985198675249
 21
-73.19895587635528
 31
0.0
  0
ARC
  5
4B5
330
1A
100
AcDbEntity
  8
0
100
AcDbCircle
 10
-1118.985213897699
 20
-73.21640433730205
 30
0.0
 40
10.0
100
AcDbArc
 50
90.06375217056918
 51
179.8999999999999
  0
LINE
  5
4B7
330
1A
100
AcDbEntity
  8
0
100
AcDbLine
 10
-905.7158873929374
 20
-231.3748885819598
 30
0.0
 11
-981.4744513896958
 21
-229.0056000722775
 31
0.0
  0
LINE
  5
4B9
330
1A
100
AcDbEntity
  8
0
100
AcDbLine
 10
-1030.479746044989
 20
-184.1515993921307
 30
0.0
 11
-1036.776945981517
 21
-113.2273990067518
 31
0.0
  0
ARC
  5
4BA
330
1A
100
AcDbEntity
  8
0
100
AcDbCircle
 10
-980.7447133994191
 20
-179.0109255312259
 30
0.0
 40
50.00000000000111
100
AcDbArc
 50
185.9012061890173
 51
269.163752170569
  0
LINE
  5
4C3
330
1A
100
AcDbEntity
  8
0
100
AcDbLine
 10
318.0749967198587
 20
-487.3550663563146
 30
0.0
 11
349.7098865814173
 21
-254.1027283281788
 31
0.0
  0
LINE
  5
4C5
330
1A
100
AcDbEntity
  8
0
100
AcDbLine
 10
-113.5446897466642
 20
-530.1826986938853
 30
0.0
 11
411.7224673485496
 21
-530.1826986938856
 31
0.0
  0
ARC
  5
4C6
330
1A
100
AcDbEntity
  8
0
100
AcDbCircle
 10
268.5920992489655
 20
-480.1826986938856
 30
0.0
 40
50.0
100
AcDbArc
 50
270.0
 51
351.7526208211591
  0
LINE
  5
4CB
330
1A
100
AcDbEntity
  8
0
100
AcDbLine
 10
374.5227855829343
 20
-232.6890142624121
 30
0.0
 11
624.3023272092885
 21
-229.003989459044
 31
0.0
  0
ARC
  5
4CC
330
1A
100
AcDbEntity
  8
0
100
AcDbCircle
 10
374.4513353168676
 20
-257.6889121593978
 30
0.0
 40
25.00000000000462
100
AcDbArc
 50
89.83624782944351
 51
171.7526208211503
  0
LINE
  5
4CF
330
1A
100
AcDbEntity
  8
0
100
AcDbLine
 10
673.3076218645829
 20
-184.1499887788968
 30
0.0
 11
679.6046553261552
 21
-113.2273990067518
 31
0.0
  0
ARC
  5
4D1
330
1A
100
AcDbEntity
  8
0
100
AcDbCircle
 10
623.5725892190125
 20
-179.0093149179924
 30
0.0
 40
50.00000000000111
100
AcDbArc
 50
270.836247829431
 51
354.0987938109826
  0
ARC
  5
4DA
330
1A
100
AcDbEntity
  8
0
100
AcDbCircle
 10
760.9023306668047
 20
-73.21551722010145
 30
0.0
 40
10.00773190159768
100
AcDbArc
 50
0.1421126442849319
 51
90.49194698466086
  0
LINE
  5
4FE
330
1A
100
AcDbEntity
  8
0
100
AcDbLine
 10
-1129.089968179378
 20
-113.2273990067518
 30
0.0
 11
770.9100318206192
 21
-113.2273990067518
 31
0.0
  0
LINE
  5
501
330
1A
100
AcDbEntity
  8
0
100
AcDbLine
 10
538.4289790418866
 20
-230.6007901608019
 30
0.0
 11
455.2440468267928
 21
-504.7971684163676
 31
0.0
  0
LINE
  5
504
330
1A
100
AcDbEntity
  8
0
100
AcDbLine
 10
-957.5442818954213
 20
-113.2273990067518
 30
0.0
 11
-800.9869094260077
 21
-505.3208918504226
 31
0.0
  0
ARC
  5
509
330
1A
100
AcDbEntity
  8
0
100
AcDbCircle
 10
411.7224673485496
 20
-480.1826986938856
 30
0.0
 40
50.0
100
AcDbArc
 50
270.0
 51
330.5088317806172
  0
LINE
  5
50F
330
1A
100
AcDbEntity
  8
0
100
AcDbLine
 10
770.9100318206192
 20
1435.38751551789
 30
0.0
 11
770.9100318206192
 21
235.3875155178899
 31
0.0
  0
ARC
  5
511
330
1A
100
AcDbEntity
  8
0
100
AcDbCircle
 10
-1118.985213906116
 20
-73.21640916001434
 30
0.0
 40
10.0
100
AcDbArc
 50
90.00748134767091
 51
179.8999999999998
  0
LINE
  5
89C
330
1A
100
AcDbEntity
  8
0
100
AcDbLine
 10
-757.765719659591
 20
-530.1826986938856
 30
0.0
 11
-757.765719659591
 21
-548.1826986938856
 31
0.0
  0
LINE
  5
89D
330
1A
100
AcDbEntity
  8
0
100
AcDbLine
 10
411.7224673485496
 20
-530.1826986938856
 30
0.0
 11
411.7224673485496
 21
-548.1826986938848
 31
0.0
  0
LINE
  5
89E
330
1A
100
AcDbEntity
  8
0
100
AcDbLine
 10
268.5920992489655
 20
-530.1826986938856
 30
0.0
 11
268.5920992489655
 21
-548.1826986938848
 31
0.0
  0
LINE
  5
89F
330
1A
100
AcDbEntity
  8
0
100
AcDbLine
 10
411.7224673485496
 20
-548.1826986938848
 30
0.0
 11
-757.765719659591
 21
-548.1826986938856
 31
0.0
  0
LINE
  5
1CA7
330
1A
100
AcDbEntity
  8
0
100
AcDbLine
 10
-560.4166020547952
 20
394.8877027375509
 30
0.0
 11
-541.4249753410951
 21
394.8877027375509
 31
0.0
  0
LINE
  5
1CA8
330
1A
100
AcDbEntity
  8
0
100
AcDbLine
 10
-556.1266627550272
 20
1261.641207733795
 30
0.0
 11
-541.4249753410948
 21
1261.641207733795
 31
0.0
  0
LINE
  5
1CAE
330
1A
100
AcDbEntity
  8
0
100
AcDbLine
 10
-93.33976306499456
 20
1355.38751551789
 30
0.0
 11
61.81350816684611
 21
1355.38751551789
 31
0.0
  0
LINE
  5
1CDA
330
1A
100
AcDbEntity
  8
0
100
AcDbLine
 10
417.1600318206207
 20
235.3875155178902
 30
0.0
 11
182.7702272092565
 21
235.3875155178903
 31
0.0
  0
LINE
  5
1CE8
330
1A
100
AcDbEntity
  8
0
100
AcDbLine
 10
-1129.089968179378
 20
1104.13751551789
 30
0.0
 11
-1129.089968179378
 21
1239.05515082867
 31
0.0
  0
LINE
  5
1CF0
330
1A
100
AcDbEntity
  8
0
100
AcDbLine
 10
-1129.089968179378
 20
826.6375155178902
 30
0.0
 11
-1129.089968179378
 21
781.4857731177144
 31
0.0
  0
LINE
  5
1DE2
330
1A
100
AcDbEntity
  8
0
100
AcDbLine
 10
770.9100318206195
 20
1071.63751551789
 30
0.0
 11
770.9100318206195
 21
820.9145882615146
 31
0.0
  0
VIEWPORT
  5
22
330
17
100
AcDbEntity
 67
     1
  8
0
100
AcDbViewport
 10
215.0142921736139
 20
148.5013708377417
 30
0.0
 40
468.2968407963881
 41
279.5866932516968
 68
     1
 69
     1
1001
ACAD
1000
MVIEW
1002
{
1070
    16
1010
0.0
1020
0.0
1030
0.0
1010
0.0
1020
0.0
1030
1.0
1040
0.0
1040
279.5866932516968
1040
215.0142921736139
1040
148.5013708377417
1040
50.0
1040
0.0
1040
0.0
1070
     0
1070
   100
1070
     1
1070
     1
1070
     0
1070
     0
1070
     0
1070
     0
1040
0.0
1040
0.0
1040
0.0
1040
1.0
1040
1.0
1040
10.0
1040
10.0
1070
     0
1002
{
1002
}
1002
}
  0
VIEWPORT
  5
DC
330
17
100
AcDbEntity
 67
     1
  8
VIEWPORT
100
AcDbViewport
 10
215.0154009744238
 20
148.5
 30
0.0
 40
398.2261789628686
 41
277.0
 68
     2
 69
     2
1001
ACAD
1000
MVIEW
1002
{
1070
    16
1010
0.0
1020
0.0
1030
0.0
1010
0.0
1020
0.0
1030
1.0
1040
0.0
1040
2770.000007201427
1040
484.8649304236167
1040
368.839764560761
1040
50.0
1040
0.0
1040
0.0
1070
     0
1070
   100
1070
     1
1070
     1
1070
     0
1070
     0
1070
     0
1070
     0
1040
0.0
1040
0.0
1040
0.0
1040
1.0
1040
1.0
1040
10.0
1040
10.0
1070
     0
1002
{
1002
}
1002
}
  0
LWPOLYLINE
  5
DD
330
17
100
AcDbEntity
 67
     1
  8
KADER
100
AcDbPolyline
 90
        4
 70
     1
 43
0.0
 10
15.9023114929896
 20
10.0
 10
414.1284904558581
 20
10.0
 10
414.1284904558581
 20
287.0
 10
15.9023114929896
 20
287.0
  0
ENDSEC
  0
SECTION
  2
OBJECTS
  0
DICTIONARY
  5
C
330
0
100
AcDbDictionary
  3
ACAD_GROUP
350
D
  3
ACAD_LAYOUT
350
DCE
  3
ACAD_MLINESTYLE
350
E
  3
ACAD_PLOTSETTINGS
350
DCF
  3
ACAD_PLOTSTYLENAME
350
DCC
  3
ACDBHEADERROUNDTRIPXREC
350
1E65
  3
ACDBVARIABLEDICTIONARY
350
5D
  0
DICTIONARY
  5
1913
330
2
100
AcDbDictionary
280
     1
  3
ACAD_LAYERFILTERS
360
19FC
  3
ACAD_LAYERSTATES
360
1914
  0
DICTIONARY
  5
1850
330
1A
100
AcDbDictionary
280
     1
  3
ACAD_LAYOUTSELFREF
360
1E86
  0
DICTIONARY
  5
184E
330
17
100
AcDbDictionary
280
     1
  3
ACAD_LAYOUTSELFREF
360
1E85
  0
DICTIONARY
  5
D
102
{ACAD_REACTORS
330
C
102
}
330
C
100
AcDbDictionary
  0
DICTIONARY
  5
DCE
102
{ACAD_REACTORS
330
C
102
}
330
C
100
AcDbDictionary
  0
DICTIONARY
  5
E
102
{ACAD_REACTORS
330
C
102
}
330
C
100
AcDbDictionary
  3
STANDARD
350
13
  0
DICTIONARY
  5
DCF
102
{ACAD_REACTORS
330
C
102
}
330
C
100
AcDbDictionary
  0
ACDBDICTIONARYWDFLT
  5
DCC
102
{ACAD_REACTORS
330
C
102
}
330
C
100
AcDbDictionary
281
     1
  3
Normal
350
DCD
100
AcDbDictionaryWithDefault
340
DCD
  0
DICTIONARY
  5
1E65
102
{ACAD_REACTORS
330
C
102
}
330
C
100
AcDbDictionary
  3
CEPSNTYPE
350
1E6F
  3
FINGERPRINTGUID
350
1E70
  3
HYPERLINKBASE
350
1E68
  3
INSUNITS
350
1E6E
  3
LAYOUTDICT
350
1E6A
  3
LWETCUNION
350
1E6D
  3
PLOTSETDICT
350
1E6B
  3
PLOTSTYLNAMDICT
350
1E6C
  3
PSVPSCALE
350
1E72
  3
PUCSBASE
350
1E75
  3
PUCSORGBACK
350
1E7B
  3
PUCSORGBOTTOM
350
1E77
  3
PUCSORGFRONT
350
1E7A
  3
PUCSORGLEFT
350
1E78
  3
PUCSORGRIGHT
350
1E79
  3
PUCSORGTOP
350
1E76
  3
PUCSORTHOREF
350
1E73
  3
PUCSORTHOVIEW
350
1E74
  3
STYLESHEET
350
1E69
  3
TSTACKALIGN
350
1E66
  3
TSTACKSIZE
350
1E67
  3
UCSBASE
350
1E7E
  3
UCSORGBACK
350
1E84
  3
UCSORGBOTTOM
350
1E80
  3
UCSORGFRONT
350
1E83
  3
UCSORGLEFT
350
1E81
  3
UCSORGRIGHT
350
1E82
  3
UCSORGTOP
350
1E7F
  3
UCSORTHOREF
350
1E7C
  3
UCSORTHOVIEW
350
1E7D
  3
VERSIONGUID
350
1E71
  0
DICTIONARY
  5
5D
102
{ACAD_REACTORS
330
C
102
}
330
C
100
AcDbDictionary
  3
DIMADEC
350
5E
  3
DIMASSOC
350
186D
  0
DICTIONARY
  5
19FC
102
{ACAD_REACTORS
330
1913
102
}
330
1913
100
AcDbDictionary
280
     1
  0
DICTIONARY
  5
1914
102
{ACAD_REACTORS
330
1913
102
}
330
1913
100
AcDbDictionary
  0
XRECORD
  5
1E86
102
{ACAD_REACTORS
330
1850
102
}
330
1850
100
AcDbXrecord
340
1A
  0
XRECORD
  5
1E85
102
{ACAD_REACTORS
330
184E
102
}
330
184E
100
AcDbXrecord
340
17
  0
MLINESTYLE
  5
13
102
{ACAD_REACTORS
330
E
102
}
330
E
100
AcDbMlineStyle
  2
STANDARD
 70
     0
  3

 62
     0
 51
90.0
 52
90.0
 71
     2
 49
0.5
 62
   256
  6
BYLAYER
 49
-0.5
 62
   256
  6
BYLAYER
  0
ACDBPLACEHOLDER
  5
DCD
102
{ACAD_REACTORS
330
DCC
102
}
330
DCC
100
AcDbPlaceHolder
280
     0
  0
XRECORD
  5
1E6F
102
{ACAD_REACTORS
330
1E65
102
}
330
1E65
100
AcDbXrecord
 90
        0
  0
XRECORD
  5
1E70
102
{ACAD_REACTORS
330
1E65
102
}
330
1E65
100
AcDbXrecord
  1
{F8DED80A-C333-4045-A84E-44B065A6129E}
  0
XRECORD
  5
1E68
102
{ACAD_REACTORS
330
1E65
102
}
330
1E65
100
AcDbXrecord
  1

  0
XRECORD
  5
1E6E
102
{ACAD_REACTORS
330
1E65
102
}
330
1E65
100
AcDbXrecord
 90
        0
  0
XRECORD
  5
1E6A
102
{ACAD_REACTORS
330
1E65
102
}
330
1E65
100
AcDbXrecord
340
DCE
  0
XRECORD
  5
1E6D
102
{ACAD_REACTORS
330
1E65
102
}
330
1E65
100
AcDbXrecord
 90
    10781
  0
XRECORD
  5
1E6B
102
{ACAD_REACTORS
330
1E65
102
}
330
1E65
100
AcDbXrecord
340
DCF
  0
XRECORD
  5
1E6C
102
{ACAD_REACTORS
330
1E65
102
}
330
1E65
100
AcDbXrecord
340
DCC
  0
XRECORD
  5
1E72
102
{ACAD_REACTORS
330
1E65
102
}
330
1E65
100
AcDbXrecord
 40
0.0
  0
XRECORD
  5
1E75
102
{ACAD_REACTORS
330
1E65
102
}
330
1E65
100
AcDbXrecord
340
0
  0
XRECORD
  5
1E7B
102
{ACAD_REACTORS
330
1E65
102
}
330
1E65
100
AcDbXrecord
 10
0.0
 20
0.0
 30
0.0
  0
XRECORD
  5
1E77
102
{ACAD_REACTORS
330
1E65
102
}
330
1E65
100
AcDbXrecord
 10
0.0
 20
0.0
 30
0.0
  0
XRECORD
  5
1E7A
102
{ACAD_REACTORS
330
1E65
102
}
330
1E65
100
AcDbXrecord
 10
0.0
 20
0.0
 30
0.0
  0
XRECORD
  5
1E78
102
{ACAD_REACTORS
330
1E65
102
}
330
1E65
100
AcDbXrecord
 10
0.0
 20
0.0
 30
0.0
  0
XRECORD
  5
1E79
102
{ACAD_REACTORS
330
1E65
102
}
330
1E65
100
AcDbXrecord
 10
0.0
 20
0.0
 30
0.0
  0
XRECORD
  5
1E76
102
{ACAD_REACTORS
330
1E65
102
}
330
1E65
100
AcDbXrecord
 10
0.0
 20
0.0
 30
0.0
  0
XRECORD
  5
1E73
102
{ACAD_REACTORS
330
1E65
102
}
330
1E65
100
AcDbXrecord
340
0
  0
XRECORD
  5
1E74
102
{ACAD_REACTORS
330
1E65
102
}
330
1E65
100
AcDbXrecord
 70
     0
  0
XRECORD
  5
1E69
102
{ACAD_REACTORS
330
1E65
102
}
330
1E65
100
AcDbXrecord
  1

  0
XRECORD
  5
1E66
102
{ACAD_REACTORS
330
1E65
102
}
330
1E65
100
AcDbXrecord
 90
        1
  0
XRECORD
  5
1E67
102
{ACAD_REACTORS
330
1E65
102
}
330
1E65
100
AcDbXrecord
 90
       70
  0
XRECORD
  5
1E7E
102
{ACAD_REACTORS
330
1E65
102
}
330
1E65
100
AcDbXrecord
340
0
  0
XRECORD
  5
1E84
102
{ACAD_REACTORS
330
1E65
102
}
330
1E65
100
AcDbXrecord
 10
0.0
 20
0.0
 30
0.0
  0
XRECORD
  5
1E80
102
{ACAD_REACTORS
330
1E65
102
}
330
1E65
100
AcDbXrecord
 10
0.0
 20
0.0
 30
0.0
  0
XRECORD
  5
1E83
102
{ACAD_REACTORS
330
1E65
102
}
330
1E65
100
AcDbXrecord
 10
0.0
 20
0.0
 30
0.0
  0
XRECORD
  5
1E81
102
{ACAD_REACTORS
330
1E65
102
}
330
1E65
100
AcDbXrecord
 10
0.0
 20
0.0
 30
0.0
  0
XRECORD
  5
1E82
102
{ACAD_REACTORS
330
1E65
102
}
330
1E65
100
AcDbXrecord
 10
0.0
 20
0.0
 30
0.0
  0
XRECORD
  5
1E7F
102
{ACAD_REACTORS
330
1E65
102
}
330
1E65
100
AcDbXrecord
 10
0.0
 20
0.0
 30
0.0
  0
XRECORD
  5
1E7C
102
{ACAD_REACTORS
330
1E65
102
}
330
1E65
100
AcDbXrecord
340
0
  0
XRECORD
  5
1E7D
102
{ACAD_REACTORS
330
1E65
102
}
330
1E65
100
AcDbXrecord
 70
     0
  0
XRECORD
  5
1E71
102
{ACAD_REACTORS
330
1E65
102
}
330
1E65
100
AcDbXrecord
  1
{A92D5530-9413-4507-9971-86AB99A41E49}
  0
DICTIONARYVAR
  5
5E
102
{ACAD_REACTORS
330
5D
102
}
330
5D
100
DictionaryVariables
280
     0
  1
0
  0
DICTIONARYVAR
  5
186D
102
{ACAD_REACTORS
330
5D
102
}
330
5D
100
DictionaryVariables
280
     0
  1
1
  0
ENDSEC
  0
EOF
