  0
SECTION
  2
HEADER
  9
$ACADVER
  1
AC1014
  9
$ACADMAINTVER
 70
     9
  9
$DWGCODEPAGE
  3
ANSI_1250
  9
$INSBASE
 10
0.0
 20
0.0
 30
0.0
  9
$EXTMIN
 10
2.636931193972536
 20
1.508717312797366
 30
0.0
  9
$EXTMAX
 10
14.63693119397253
 20
19.59614280027735
 30
0.0
  9
$LIMMIN
 10
0.0
 20
0.0
  9
$LIMMAX
 10
0.0
 20
0.0
  9
$ORTHOMODE
 70
     0
  9
$REGENMODE
 70
     1
  9
$FILLMODE
 70
     1
  9
$QTEXTMODE
 70
     0
  9
$MIRRTEXT
 70
     1
  9
$DRAGMODE
 70
     2
  9
$LTSCALE
 40
1.0
  9
$OSMODE
 70
  3007
  9
$ATTMODE
 70
     1
  9
$TEXTSIZE
 40
2.5
  9
$TRACEWID
 40
1.0
  9
$TEXTSTYLE
  7
STANDARD
  9
$CLAYER
  8
0
  9
$CELTYPE
  6
BYLAYER
  9
$CECOLOR
 62
   256
  9
$CELTSCALE
 40
1.0
  9
$DELOBJ
 70
     1
  9
$DISPSILH
 70
     0
  9
$DIMSCALE
 40
1.0
  9
$DIMASZ
 40
0.3
  9
$DIMEXO
 40
0.1
  9
$DIMDLI
 40
3.75
  9
$DIMRND
 40
0.0
  9
$DIMDLE
 40
0.0
  9
$DIMEXE
 40
0.1
  9
$DIMTP
 40
0.0
  9
$DIMTM
 40
0.0
  9
$DIMTXT
 40
0.2822222222222222
  9
$DIMCEN
 40
2.5
  9
$DIMTSZ
 40
0.0
  9
$DIMTOL
 70
     0
  9
$DIMLIM
 70
     0
  9
$DIMTIH
 70
     1
  9
$DIMTOH
 70
     1
  9
$DIMSE1
 70
     0
  9
$DIMSE2
 70
     0
  9
$DIMTAD
 70
     1
  9
$DIMZIN
 70
     0
  9
$DIMBLK
  1

  9
$DIMASO
 70
     1
  9
$DIMSHO
 70
     1
  9
$DIMPOST
  1

  9
$DIMAPOST
  1

  9
$DIMALT
 70
     0
  9
$DIMALTD
 70
     3
  9
$DIMALTF
 40
0.3937007874015748
  9
$DIMLFAC
 40
15.0
  9
$DIMTOFL
 70
     1
  9
$DIMTVP
 40
0.0
  9
$DIMTIX
 70
     0
  9
$DIMSOXD
 70
     0
  9
$DIMSAH
 70
     0
  9
$DIMBLK1
  1

  9
$DIMBLK2
  1

  9
$DIMSTYLE
  2
ISO-25
  9
$DIMCLRD
 70
     0
  9
$DIMCLRE
 70
     0
  9
$DIMCLRT
 70
     0
  9
$DIMTFAC
 40
1.0
  9
$DIMGAP
 40
0.1524
  9
$DIMJUST
 70
     0
  9
$DIMSD1
 70
     0
  9
$DIMSD2
 70
     0
  9
$DIMTOLJ
 70
     0
  9
$DIMTZIN
 70
     0
  9
$DIMALTZ
 70
     0
  9
$DIMALTTZ
 70
     0
  9
$DIMFIT
 70
     3
  9
$DIMUPT
 70
     0
  9
$DIMUNIT
 70
     2
  9
$DIMDEC
 70
     2
  9
$DIMTDEC
 70
     2
  9
$DIMALTU
 70
     2
  9
$DIMALTTD
 70
     3
  9
$DIMTXSTY
  7
STANDARD
  9
$DIMAUNIT
 70
     0
  9
$LUNITS
 70
     2
  9
$LUPREC
 70
     2
  9
$SKETCHINC
 40
1.0
  9
$FILLETRAD
 40
10.0
  9
$AUNITS
 70
     0
  9
$AUPREC
 70
     0
  9
$MENU
  1
.
  9
$ELEVATION
 40
0.0
  9
$PELEVATION
 40
0.0
  9
$THICKNESS
 40
0.0
  9
$LIMCHECK
 70
     0
  9
$BLIPMODE
 70
     0
  9
$CHAMFERA
 40
10.0
  9
$CHAMFERB
 40
10.0
  9
$CHAMFERC
 40
20.0
  9
$CHAMFERD
 40
0.0
  9
$SKPOLY
 70
     0
  9
$TDCREATE
 40
2453964.621199780
  9
$TDUPDATE
 40
2453966.364336296
  9
$TDINDWG
 40
0.0054226505
  9
$TDUSRTIMER
 40
0.0054226505
  9
$USRTIMER
 70
     1
  9
$ANGBASE
 50
0.0
  9
$ANGDIR
 70
     0
  9
$PDMODE
 70
     0
  9
$PDSIZE
 40
-1.0
  9
$PLINEWID
 40
0.0
  9
$COORDS
 70
     2
  9
$SPLFRAME
 70
     0
  9
$SPLINETYPE
 70
     6
  9
$SPLINESEGS
 70
     8
  9
$ATTDIA
 70
     0
  9
$ATTREQ
 70
     1
  9
$HANDLING
 70
 22529
  9
$HANDSEED
  5
175
  9
$SURFTAB1
 70
     6
  9
$SURFTAB2
 70
     6
  9
$SURFTYPE
 70
     6
  9
$SURFU
 70
     6
  9
$SURFV
 70
     6
  9
$UCSNAME
  2

  9
$UCSORG
 10
0.0
 20
0.0
 30
0.0
  9
$UCSXDIR
 10
1.0
 20
0.0
 30
0.0
  9
$UCSYDIR
 10
0.0
 20
1.0
 30
0.0
  9
$PUCSNAME
  2

  9
$PUCSORG
 10
0.0
 20
0.0
 30
0.0
  9
$PUCSXDIR
 10
1.0
 20
0.0
 30
0.0
  9
$PUCSYDIR
 10
0.0
 20
1.0
 30
0.0
  9
$USERI1
 70
     0
  9
$USERI2
 70
     0
  9
$USERI3
 70
     0
  9
$USERI4
 70
     0
  9
$USERI5
 70
     0
  9
$USERR1
 40
0.0
  9
$USERR2
 40
0.0
  9
$USERR3
 40
0.0
  9
$USERR4
 40
0.0
  9
$USERR5
 40
0.0
  9
$WORLDVIEW
 70
     1
  9
$SHADEDGE
 70
     3
  9
$SHADEDIF
 70
    70
  9
$TILEMODE
 70
     1
  9
$MAXACTVP
 70
    48
  9
$PINSBASE
 10
0.0
 20
0.0
 30
0.0
  9
$PLIMCHECK
 70
     0
  9
$PEXTMIN
 10
1.000000000000000E+20
 20
1.000000000000000E+20
 30
1.000000000000000E+20
  9
$PEXTMAX
 10
-1.000000000000000E+20
 20
-1.000000000000000E+20
 30
-1.000000000000000E+20
  9
$PLIMMIN
 10
0.0
 20
0.0
  9
$PLIMMAX
 10
420.0
 20
297.0
  9
$UNITMODE
 70
     0
  9
$VISRETAIN
 70
     1
  9
$PLINEGEN
 70
     0
  9
$PSLTSCALE
 70
     1
  9
$TREEDEPTH
 70
  3020
  9
$PICKSTYLE
 70
     1
  9
$CMLSTYLE
  2
STANDARD
  9
$CMLJUST
 70
     0
  9
$CMLSCALE
 40
20.0
  9
$PROXYGRAPHICS
 70
     1
  9
$MEASUREMENT
 70
     1
  0
ENDSEC
  0
SECTION
  2
CLASSES
  0
CLASS
  1
ACDBDICTIONARYWDFLT
  2
AcDbDictionaryWithDefault
  3
AutoCAD 2000
 90
        0
280
     0
281
     0
  0
CLASS
  1
ACDBPLACEHOLDER
  2
AcDbPlaceHolder
  3
AutoCAD 2000
 90
        0
280
     0
281
     0
  0
CLASS
  1
LAYOUT
  2
AcDbLayout
  3
AutoCAD 2000
 90
        0
280
     0
281
     0
  0
CLASS
  1
DICTIONARYVAR
  2
AcDbDictionaryVar
  3
AutoCAD 2000
 90
        0
280
     0
281
     0
  0
CLASS
  1
LONG_TRANSACTION
  2
AcDbLongTransaction
  3
AutoCAD 2000
 90
        0
280
     0
281
     0
  0
CLASS
  1
LWPOLYLINE
  2
AcDbPolyline
  3
AutoCAD 2000
 90
        0
280
     0
281
     1
  0
CLASS
  1
HATCH
  2
AcDbHatch
  3
AutoCAD 2000
 90
        0
280
     0
281
     1
  0
CLASS
  1
XRECORD
  2
AcDbXrecord
  3
AutoCAD 2000
 90
        0
280
     0
281
     0
  0
CLASS
  1
LONG_TRANSACTION
  2
AcDbLongTransaction
  3
AutoCAD 2000
 90
        0
280
     0
281
     0
  0
CLASS
  1
LWPOLYLINE
  2
AcDbPolyline
  3
AutoCAD 2000
 90
        0
280
     0
281
     1
  0
CLASS
  1
HATCH
  2
AcDbHatch
  3
AutoCAD 2000
 90
        0
280
     0
281
     1
  0
CLASS
  1
XRECORD
  2
AcDbXrecord
  3
AutoCAD 2000
 90
        0
280
     0
281
     0
  0
CLASS
  1
LONG_TRANSACTION
  2
AcDbLongTransaction
  3
AutoCAD 2000
 90
        0
280
     0
281
     0
  0
CLASS
  1
LWPOLYLINE
  2
AcDbPolyline
  3
AutoCAD 2000
 90
        0
280
     0
281
     1
  0
CLASS
  1
HATCH
  2
AcDbHatch
  3
AutoCAD 2000
 90
        0
280
     0
281
     1
  0
CLASS
  1
XRECORD
  2
AcDbXrecord
  3
AutoCAD 2000
 90
        0
280
     0
281
     0
  0
ENDSEC
  0
SECTION
  2
TABLES
  0
TABLE
  2
VPORT
  5
8
330
0
100
AcDbSymbolTable
 70
     2
  0
VPORT
  5
150
330
8
100
AcDbSymbolTableRecord
100
AcDbViewportTableRecord
  2
*ACTIVE
 70
     0
 10
0.0
 20
0.0
 11
1.0
 21
1.0
 12
8.636819519925428
 22
10.55287175305754
 13
0.0
 23
0.0
 14
10.0
 24
10.0
 15
10.0
 25
10.0
 16
0.0
 26
0.0
 36
1.0
 17
0.0
 27
0.0
 37
0.0
 40
18.26085812470015
 41
1.674961119751166
 42
50.0
 43
0.0
 44
0.0
 50
0.0
 51
0.0
 71
     0
 72
  2000
 73
     1
 74
     3
 75
     0
 76
     0
 77
     0
 78
     0
  0
ENDTAB
  0
TABLE
  2
LTYPE
  5
5
330
0
100
AcDbSymbolTable
 70
     1
  0
LTYPE
  5
14
330
5
100
AcDbSymbolTableRecord
100
AcDbLinetypeTableRecord
  2
BYBLOCK
 70
     0
  3

 72
    65
 73
     0
 40
0.0
  0
LTYPE
  5
15
330
5
100
AcDbSymbolTableRecord
100
AcDbLinetypeTableRecord
  2
BYLAYER
 70
     0
  3

 72
    65
 73
     0
 40
0.0
  0
LTYPE
  5
16
330
5
100
AcDbSymbolTableRecord
100
AcDbLinetypeTableRecord
  2
CONTINUOUS
 70
     0
  3
Solid line
 72
    65
 73
     0
 40
0.0
  0
ENDTAB
  0
TABLE
  2
LAYER
  5
2
330
0
100
AcDbSymbolTable
 70
     1
  0
LAYER
  5
10
330
2
100
AcDbSymbolTableRecord
100
AcDbLayerTableRecord
  2
0
 70
     0
 62
     7
  6
CONTINUOUS
  0
ENDTAB
  0
TABLE
  2
STYLE
  5
3
330
0
100
AcDbSymbolTable
 70
     1
  0
STYLE
  5
11
330
3
100
AcDbSymbolTableRecord
100
AcDbTextStyleTableRecord
  2
STANDARD
 70
     0
 40
0.0
 41
1.0
 50
0.0
 71
     0
 42
2.5
  3
ARIAL.TTF
  4

1001
ACAD
1000
Arial
1071
       34
  0
ENDTAB
  0
TABLE
  2
VIEW
  5
6
330
0
100
AcDbSymbolTable
 70
     0
  0
ENDTAB
  0
TABLE
  2
UCS
  5
7
330
0
100
AcDbSymbolTable
 70
     0
  0
ENDTAB
  0
TABLE
  2
APPID
  5
9
330
0
100
AcDbSymbolTable
 70
     1
  0
APPID
  5
12
330
9
100
AcDbSymbolTableRecord
100
AcDbRegAppTableRecord
  2
ACAD
 70
     0
  0
ENDTAB
  0
TABLE
  2
DIMSTYLE
  5
A
330
0
100
AcDbSymbolTable
 70
     1
  0
DIMSTYLE
105
27
330
A
100
AcDbSymbolTableRecord
100
AcDbDimStyleTableRecord
  2
ISO-25
 70
     0
  3

  4

  5

  6

  7

 40
1.0
 41
2.5
 42
0.625
 43
3.75
 44
1.25
 45
0.0
 46
0.0
 47
0.0
 48
0.0
140
2.5
141
2.5
142
0.0
143
0.03937007874016
144
1.0
145
0.0
146
1.0
147
0.625
 71
     0
 72
     0
 73
     0
 74
     0
 75
     0
 76
     0
 77
     1
 78
     8
170
     0
171
     3
172
     1
173
     0
174
     0
175
     0
176
     0
177
     0
178
     0
270
     2
271
     2
272
     2
273
     2
274
     3
340
11
275
     0
280
     0
281
     0
282
     0
283
     0
284
     8
285
     0
286
     0
287
     3
288
     0
  0
ENDTAB
  0
TABLE
  2
BLOCK_RECORD
  5
1
330
0
100
AcDbSymbolTable
 70
     1
  0
BLOCK_RECORD
  5
1F
102
{ACAD_XDICTIONARY
360
D8
102
}
330
1
100
AcDbSymbolTableRecord
100
AcDbBlockTableRecord
  2
*MODEL_SPACE
  0
BLOCK_RECORD
  5
1B
102
{ACAD_XDICTIONARY
360
DA
102
}
330
1
100
AcDbSymbolTableRecord
100
AcDbBlockTableRecord
  2
*PAPER_SPACE
  0
ENDTAB
  0
ENDSEC
  0
SECTION
  2
BLOCKS
  0
BLOCK
  5
20
330
1F
100
AcDbEntity
  8
0
100
AcDbBlockBegin
  2
*MODEL_SPACE
 70
     0
 10
0.0
 20
0.0
 30
0.0
  3
*MODEL_SPACE
  1

  0
ENDBLK
  5
21
330
1F
100
AcDbEntity
  8
0
100
AcDbBlockEnd
  0
BLOCK
  5
1C
330
1B
100
AcDbEntity
 67
     1
  8
0
100
AcDbBlockBegin
  2
*PAPER_SPACE
 70
     0
 10
0.0
 20
0.0
 30
0.0
  3
*PAPER_SPACE
  1

  0
ENDBLK
  5
1D
330
1B
100
AcDbEntity
 67
     1
  8
0
100
AcDbBlockEnd
  0
ENDSEC
  0
SECTION
  2
ENTITIES
  0
ARC
  5
A0
330
1F
100
AcDbEntity
  8
0
  6
CONTINUOUS
100
AcDbCircle
 10
8.636931193972536
 20
13.59614280027735
 30
0.0
 40
5.528792958323423
100
AcDbArc
 50
296.8488810728359
 51
63.15111892716574
  0
ARC
  5
A1
330
1F
100
AcDbEntity
  8
0
  6
CONTINUOUS
100
AcDbCircle
 10
8.636909262246373
 20
29.74191124917552
 30
0.0
 40
11.48764590058945
100
AcDbArc
 50
257.4457695510167
 51
282.5544545812661
  0
ARC
  5
A2
330
1F
100
AcDbEntity
  8
0
  6
CONTINUOUS
100
AcDbCircle
 10
8.636931193972536
 20
13.59614280027735
 30
0.0
 40
5.528792958323424
100
AcDbArc
 50
116.848881072835
 51
243.1511189271665
  0
ARC
  5
A3
330
1F
100
AcDbEntity
  8
0
  6
CONTINUOUS
100
AcDbCircle
 10
8.636949571930014
 20
-2.54957397535405
 30
0.0
 40
11.48759469036691
100
AcDbArc
 50
77.44569451365679
 51
102.5544933016012
  0
CIRCLE
  5
A4
330
1F
100
AcDbEntity
  8
0
  6
CONTINUOUS
100
AcDbCircle
 10
8.636931193972536
 20
13.59614280027735
 30
0.0
 40
6.0
  0
LWPOLYLINE
  5
A5
330
1F
100
AcDbEntity
  8
0
  6
CONTINUOUS
100
AcDbPolyline
 90
       13
 70
   128
 43
0.0
 10
11.13394897491223
 20
18.52893657647162
 10
11.00901326845573
 20
18.37867485645005
 10
10.88331064890312
 20
18.22846797270168
 10
10.75415314545718
 20
18.07708846690843
 10
10.68851829876986
 20
18.00176289839138
 10
10.62202574124423
 20
17.92673892937689
 10
10.53946337412285
 20
17.83554580969203
 10
10.45523068617272
 20
17.74491535785386
 10
10.36909760346499
 20
17.65490439695705
 10
10.30307304174192
 20
17.58779632213303
 10
10.23570826958108
 20
17.52108720106471
 10
10.16684960634001
 20
17.45480365716009
 10
10.09634347071735
 20
17.38897310855576
  0
ARC
  5
A6
330
1F
100
AcDbEntity
  8
0
  6
CONTINUOUS
100
AcDbCircle
 10
8.636933352733857
 20
29.73978779331833
 30
0.0
 40
12.43674048422299
100
AcDbArc
 50
263.2609838306785
 51
276.7389961402133
  0
LWPOLYLINE
  5
A7
330
1F
100
AcDbEntity
  8
0
  6
CONTINUOUS
100
AcDbPolyline
 90
       13
 70
   128
 43
0.0
 10
7.177518917227667
 20
17.38897310855574
 10
7.108056260252873
 20
17.45381938579268
 10
7.040197365586836
 20
17.51910514794376
 10
6.973783982897678
 20
17.58480257950809
 10
6.876518143320957
 20
17.68411703072574
 10
6.781802190447725
 20
17.78423693937646
 10
6.697164786959566
 20
17.87639406484948
 10
6.614141477251924
 20
17.96910471879032
 10
6.532501591349518
 20
18.06231525701867
 10
6.452035122220591
 20
18.15593746466027
 10
6.373255265856658
 20
18.24900574646975
 10
6.295160664225493
 20
18.34228383662885
 10
6.139913413032763
 20
18.52893657647158
  0
LWPOLYLINE
  5
A8
330
1F
100
AcDbEntity
  8
0
  6
CONTINUOUS
100
AcDbPolyline
 90
       13
 70
   128
 43
0.0
 10
6.139913413032831
 20
8.663349024083078
 10
6.264849119489333
 20
8.813610744104646
 10
6.390551739041944
 20
8.963817627853019
 10
6.519709242487886
 20
9.115197133646274
 10
6.585344089175203
 20
9.190522702163324
 10
6.651836646700837
 20
9.26554667117781
 10
6.740297290787037
 20
9.36316835048384
 10
6.830692105596201
 20
9.460140339161819
 10
6.92330639869465
 20
9.556393893188106
 10
6.994446131691272
 20
9.628122520075111
 10
7.067178798819517
 20
9.69938503863997
 10
7.141706956530545
 20
9.770146480824418
 10
7.218233161275519
 20
9.840370686477294
  0
LWPOLYLINE
  5
A9
330
1F
100
AcDbEntity
  8
0
  6
CONTINUOUS
100
AcDbPolyline
 90
       18
 70
   128
 43
0.0
 10
7.218233161275519
 20
9.840370686477294
 10
7.406542413537635
 20
9.861168336496621
 10
7.595168265804582
 20
9.87912165286727
 10
7.784047835176123
 20
9.894203614816937
 10
7.973118536775245
 20
9.906387598937625
 10
8.125100099151266
 20
9.914048385248458
 10
8.277192600672378
 20
9.919778378432866
 10
8.429356006885502
 20
9.923542610432582
 10
8.581550215040577
 20
9.925307702646533
 10
8.733735141013992
 20
9.925039481745043
 10
8.899121570691399
 20
9.922435553496958
 10
9.064466469590797
 20
9.91747565232305
 10
9.229722532734209
 20
9.910209846124931
 10
9.394842349593773
 20
9.900687805439915
 10
9.56032158246133
 20
9.888910324996597
 10
9.72564052850498
 20
9.874920717503513
 10
9.890757116779619
 20
9.858735672261206
 10
10.0556292266696
 20
9.840370686477312
  0
LWPOLYLINE
  5
AA
330
1F
100
AcDbEntity
  8
0
  6
CONTINUOUS
100
AcDbPolyline
 90
       14
 70
   128
 43
0.0
 10
10.0556292266696
 20
9.840370686477312
 10
10.13274810026579
 20
9.769585402434955
 10
10.20783485283944
 20
9.698255729303649
 10
10.28111409456028
 20
9.626420211420349
 10
10.35283388009164
 20
9.554068119948993
 10
10.4231019944995
 20
9.481267801548929
 10
10.49206019749734
 20
9.408048661178245
 10
10.5766976009855
 20
9.315891535705221
 10
10.65972091069314
 20
9.223180881764385
 10
10.74136079659555
 20
9.129970343536033
 10
10.82182726572447
 20
9.036348135894431
 10
10.90060712208841
 20
8.943279854084943
 10
10.97870172371957
 20
8.850001763925845
 10
11.1339489749123
 20
8.663349024083116
  0
LWPOLYLINE
  5
AB
330
1F
100
AcDbEntity
  8
0
  6
CONTINUOUS
100
AcDbPolyline
 90
       57
 70
   128
 43
0.0
 10
8.636931193972568
 20
9.089283020919442
 10
8.617503303704102
 20
9.088950029637295
 10
8.598258986428319
 20
9.08796456617701
 10
8.579560158754327
 20
9.086346896117806
 10
8.56159368590011
 20
9.084105364109952
 10
8.544519059960981
 20
9.081274143483121
 10
8.52865732024604
 20
9.077910852060593
 10
8.514176520809471
 20
9.074044100071866
 10
8.501195349400182
 20
9.06972276332565
 10
8.489957899456163
 20
9.065033069874722
 10
8.480595959330539
 20
9.060019127156216
 10
8.473172536099889
 20
9.054737360900519
 10
8.467827278479873
 20
9.049290291096646
 10
8.464640776917278
 20
9.043731561924893
 10
8.46361282031232
 20
9.038115612294154
 10
8.464762742921649
 20
9.032548935836432
 10
8.468109804496108
 20
9.027085971460618
 10
8.473591916864057
 20
9.021774005518237
 10
8.481105976407667
 20
9.016710392262417
 10
8.490608881518186
 20
9.01194361013758
 10
8.501983074451425
 20
9.007510216659186
 10
8.51501469870899
 20
9.00348888995834
 10
8.529603568817119
 20
8.999918969100594
 10
8.545589236522655
 20
8.996823501215258
 10
8.562671132986684
 20
8.994255335754035
 10
8.580701047534684
 20
8.99224268558212
 10
8.599495475470959
 20
8.990793497985482
 10
8.618700923999091
 20
8.989932409550627
 10
8.638137418329966
 20
8.9896737253923
 10
8.657619744208892
 20
8.990011882410327
 10
8.6767814873208
 20
8.990940920140227
 10
8.695433817163051
 20
8.992461633310597
 10
8.713408361479579
 20
8.994554153706511
 10
8.730367161934514
 20
8.997182718541106
 10
8.746134614552
 20
9.000334612156828
 10
8.760577080751398
 20
9.003976853316903
 10
8.773423024122854
 20
9.008045863733569
 10
8.784527717138269
 20
9.01251462263453
 10
8.793809377257963
 20
9.01733902258265
 10
8.801093437378545
 20
9.022432835525155
 10
8.806281835441728
 20
9.027754735575001
 10
8.8093548894971
 20
9.033253462737681
 10
8.810254758203962
 20
9.038826894388478
 10
8.808942499861061
 20
9.044423770532887
 10
8.80546134025349
 20
9.049989652262013
 10
8.799876782402336
 20
9.055418045943856
 10
8.792212792341848
 20
9.060653320576628
 10
8.782570611044704
 20
9.065644216165821
 10
8.771131535972097
 20
9.070292981094002
 10
8.757978703185855
 20
9.074545573816578
 10
8.743260975286304
 20
9.078362257903695
 10
8.727255079254447
 20
9.081666342045744
 10
8.710095566367048
 20
9.08441411616989
 10
8.691961095338006
 20
9.086583327875416
 10
8.673192728911777
 20
9.088129472360888
 10
8.655162836094637
 20
9.088992944981534
 10
8.636931193972568
 20
9.089283020919442
  0
LWPOLYLINE
  5
AC
330
1F
100
AcDbEntity
  8
0
  6
CONTINUOUS
100
AcDbPolyline
 90
       95
 70
   128
 43
0.0
 10
7.218233161275519
 20
9.840370686477294
 10
7.115412665511104
 20
9.880101155863076
 10
7.013677868351273
 20
9.922640593474971
 10
6.913142813349697
 20
9.967940918232866
 10
6.813920948013596
 20
10.01595444642093
 10
6.716051512067449
 20
10.06666885974592
 10
6.61957046698027
 20
10.12006190580712
 10
6.524585299794805
 20
10.17607278786685
 10
6.431204093600244
 20
10.23464031182315
 10
6.354011310244531
 20
10.28581407827721
 10
6.277986579244265
 20
10.33877201043154
 10
6.203189505244225
 20
10.39347079557762
 10
6.129679494207033
 20
10.44986692232475
 10
6.057515952095319
 20
10.50791727664655
 10
5.972508205080955
 20
10.57993081373558
 10
5.889494432116477
 20
10.65429833692894
 10
5.808569007222779
 20
10.73093282344526
 10
5.729825907056458
 20
10.80974764786746
 10
5.653298112854288
 20
10.89071559074109
 10
5.57901224802427
 20
10.97380228005435
 10
5.50705175906909
 20
11.05891115628268
 10
5.437500887220029
 20
11.1459454612194
 10
5.380880249644244
 20
11.22063087585156
 10
5.32599192172778
 20
11.29664567274436
 10
5.272878818814877
 20
11.37392686965649
 10
5.221583856249772
 20
11.45241168302879
 10
5.172150545423152
 20
11.53203713061993
 10
5.115899257962825
 20
11.62802206638043
 10
5.062299979830703
 20
11.72556149127667
 10
5.011411918307265
 20
11.82454255384788
 10
4.963294678037285
 20
11.92485319736187
 10
4.91797051142148
 20
12.0264560695746
 10
4.875452531481701
 20
12.12931093735084
 10
4.835787229840872
 20
12.2332994854707
 10
4.799021098121918
 20
12.33830339871431
 10
4.770358019178028
 20
12.4273725068826
 10
4.743760042493457
 20
12.51711971722627
 10
4.719247036283129
 20
12.60747181537335
 10
4.696838074033373
 20
12.69835578563397
 10
4.676553421323411
 20
12.7896987613299
 10
4.655185156171434
 20
12.89900131188417
 10
4.63683566759518
 20
13.00889434578602
 10
4.621524426445276
 20
13.11925189855282
 10
4.609270108843753
 20
13.22994808020775
 10
4.600081854169476
 20
13.34094079497044
 10
4.593957675600954
 20
13.45218741310224
 10
4.590903533602662
 20
13.56356083390698
 10
4.590923799181885
 20
13.67493388218268
 10
4.593324276909138
 20
13.76856833361173
 10
4.597899529442097
 20
13.86215977035547
 10
4.60464439104488
 20
13.95563276770299
 10
4.613552901253009
 20
14.04891185127283
 10
4.624619099602007
 20
14.1419216708599
 10
4.640609038973751
 20
14.25228419068043
 10
4.659647159879309
 20
14.36220523876533
 10
4.681710415189368
 20
14.47155949634894
 10
4.706774565681716
 20
14.58022174400672
 10
4.734834048256178
 20
14.68814946375871
 10
4.76587376306941
 20
14.79530252181078
 10
4.799856357877352
 20
14.90155912600542
 10
4.836744480435945
 20
15.00679758352622
 10
4.870010230049389
 20
15.09448604943936
 10
4.905317240064239
 20
15.18141386074409
 10
4.942635310793813
 20
15.26751147868817
 10
4.98193424255142
 20
15.35270936451937
 10
5.023183835650379
 20
15.43693827750867
 10
5.07482450515518
 20
15.53592351240501
 10
5.129199835762275
 20
15.63348220946973
 10
5.186245851819607
 20
15.72950410010999
 10
5.245898975039414
 20
15.8238783196865
 10
5.308139138524622
 20
15.91656672122662
 10
5.372939321502934
 20
16.00753632349357
 10
5.440223826075484
 20
16.09668440781618
 10
5.509916954343408
 20
16.1839082555233
 10
5.570379309957115
 20
16.25574993255322
 10
5.632518940274803
 20
16.32619666221326
 10
5.696284187937664
 20
16.39519261481946
 10
5.761623594269044
 20
16.46268235805219
 10
5.828485700592286
 20
16.52861026090965
 10
5.910033199295288
 20
16.60502222341881
 10
5.993692093198385
 20
16.67918113035546
 10
6.079365425412739
 20
16.75100373389905
 10
6.166956239049518
 20
16.82040658754692
 10
6.256433142329141
 20
16.88735988897668
 10
6.347759776418292
 20
16.95184178315188
 10
6.440830641095721
 20
17.01377975108808
 10
6.535540037458025
 20
17.07310186984724
 10
6.616439633672318
 20
17.12095009448713
 10
6.69846238007633
 20
17.16692474645959
 10
6.781540923421464
 20
17.21099006297774
 10
6.865607910459122
 20
17.25311028125471
 10
6.950596583987158
 20
17.29325043323225
 10
7.025582406028988
 20
17.32668863895125
 10
7.101238780324539
 20
17.35860295258548
 10
7.177518917227667
 20
17.38897310855574
  0
LWPOLYLINE
  5
AD
330
1F
100
AcDbEntity
  8
0
  6
CONTINUOUS
100
AcDbPolyline
 90
       94
 70
   128
 43
0.0
 10
10.09634347071735
 20
17.38897310855576
 10
10.20307870020954
 20
17.34597034417181
 10
10.30859114041416
 20
17.29993251127589
 10
10.41275363475569
 20
17.2509172276913
 10
10.51543912599969
 20
17.19898211124131
 10
10.61660390407332
 20
17.14414345386216
 10
10.71620922595747
 20
17.08642827632615
 10
10.81413508763401
 20
17.02590730947841
 10
10.91026168376692
 20
16.96265247625698
 10
10.98992845724511
 20
16.90717704258948
 10
11.06827459047723
 20
16.84978094858517
 10
11.14523372362542
 20
16.7905152555564
 10
11.22073929816969
 20
16.72943082613338
 10
11.29472495427219
 20
16.66657911899278
 10
11.37805959890771
 20
16.59198946915656
 10
11.4593315254697
 20
16.51509550375332
 10
11.53844894280521
 20
16.43598662975023
 10
11.61531966239699
 20
16.3547520554323
 10
11.68991149773686
 20
16.27141999366472
 10
11.76219822278111
 20
16.18602501514147
 10
11.8320985765307
 20
16.09866606357286
 10
11.89953070194015
 20
16.00944188398709
 10
11.95431829800694
 20
15.93296912474026
 10
12.00733265589166
 20
15.85521049462348
 10
12.05853264838943
 20
15.77622996928881
 10
12.10787575752028
 20
15.69609172307044
 10
12.1553210547615
 20
15.61485973162045
 10
12.20921001146723
 20
15.51694360536923
 10
12.26039053311436
 20
15.41753736299862
 10
12.30880619397252
 20
15.3167554454266
 10
12.35439897885411
 20
15.21471269093543
 10
12.39714782745132
 20
15.11144615374595
 10
12.4370396267423
 20
15.00699725908627
 10
12.47403026928991
 20
14.90148611031562
 10
12.50807525029272
 20
14.7950333074986
 10
12.53441891382624
 20
14.70478720627815
 10
12.55866409649938
 20
14.61391545496971
 10
12.58079291691869
 20
14.52249236069709
 10
12.60078709632645
 20
14.43059203190198
 10
12.61862835596492
 20
14.33828862669657
 10
12.63701559414953
 20
14.22815046869308
 10
12.65235624025752
 20
14.1175039327402
 10
12.66463439971696
 20
14.00647600156655
 10
12.67383338322729
 20
13.89519383174768
 10
12.67994603823116
 20
13.7836995066463
 10
12.68297355682145
 20
13.67203624583871
 10
12.68291355481238
 20
13.56033218999794
 10
12.67976484011104
 20
13.44871551704993
 10
12.67472030034155
 20
13.3549235727647
 10
12.6674902569303
 20
13.26123659474244
 10
12.65808146507035
 20
13.16773059132288
 10
12.64650187204769
 20
13.07448160809865
 10
12.63275902778398
 20
12.98156556648602
 10
12.61362951308977
 20
12.87168415548991
 10
12.59146055887631
 20
12.76233213308047
 10
12.5662783911873
 20
12.6536346193412
 10
12.53811042815935
 20
12.54571663501452
 10
12.50696263025692
 20
12.43862069808036
 10
12.47285089205197
 20
12.33238694233289
 10
12.43581614206723
 20
12.22713696124743
 10
12.39589811673255
 20
12.1229920502761
 10
12.36009400398027
 20
12.03627156379412
 10
12.32226412803423
 20
11.95037382009218
 10
12.28244107276689
 20
11.86536796055824
 10
12.24065702468645
 20
11.78132322592129
 10
12.19694337557248
 20
11.69830865822822
 10
12.14254499783607
 20
11.60110321802487
 10
12.0854572585274
 20
11.50540299378425
 10
12.0257469148486
 20
11.41131666464199
 10
11.96348132004829
 20
11.31895330709805
 10
11.89868034234138
 20
11.22835086944292
 10
11.83137179722877
 20
11.13954173686693
 10
11.76163436284157
 20
11.05262703858405
 10
11.68954651862872
 20
10.96770790380825
 10
11.62710389803342
 20
10.89784569703132
 10
11.56302493125689
 20
10.82942890289018
 10
11.49736326247943
 20
10.76251196029375
 10
11.43017213851703
 20
10.69714910946875
 10
11.36150480618569
 20
10.63339498800625
 10
11.27806048900378
 20
10.55979457659115
 10
11.1925806732028
 20
10.48850165965745
 10
11.10516469985736
 20
10.41959650479346
 10
11.0159115126778
 20
10.35315957826961
 10
10.92485290080798
 20
10.28921929163326
 10
10.83202661385628
 20
10.22779690387437
 10
10.73753954281899
 20
10.16895996692368
 10
10.64149957210315
 20
10.11277821821559
 10
10.55954239080839
 20
10.06759670538295
 10
10.47652365079018
 20
10.02431499126145
 10
10.39251130134357
 20
9.982965262359273
 10
10.30757388781004
 20
9.943580499913187
 10
10.22177926014357
 20
9.906193287795673
 10
10.13906867613885
 20
9.872362486149757
 10
10.0556292266696
 20
9.840370686477312
  0
LWPOLYLINE
  5
AE
330
1F
100
AcDbEntity
  8
0
  6
CONTINUOUS
100
AcDbPolyline
 90
       14
 70
   128
 43
0.0
 10
8.636931193972568
 20
9.070126485452929
 10
8.61750330680851
 20
9.069793494170784
 10
8.598258992637136
 20
9.068808030710497
 10
8.579560171171962
 20
9.067189963286995
 10
8.561593698317745
 20
9.064948431279141
 10
8.544519078587432
 20
9.06211721065231
 10
8.528657332663675
 20
9.058753521865485
 10
8.514176533227105
 20
9.054886769876757
 10
8.50119537423545
 20
9.050565035766243
 10
8.489957924291431
 20
9.045874944951016
 10
8.480595971748172
 20
9.04086100223251
 10
8.473172548517524
 20
9.035579235976813
 10
8.467827278479873
 20
9.03013216617294
 10
8.467061768576442
 20
9.028796624765671
  0
LWPOLYLINE
  5
AF
330
1F
100
AcDbEntity
  8
0
  6
CONTINUOUS
100
AcDbPolyline
 90
       14
 70
   128
 43
0.0
 10
8.806802668278356
 20
9.02868655485499
 10
8.80546136508876
 20
9.030831129974007
 10
8.799876819655239
 20
9.03625992102015
 10
8.792212842012386
 20
9.041495195652922
 10
8.782570673132877
 20
9.046486488606413
 10
8.771131622895538
 20
9.051135253534594
 10
8.757978790109294
 20
9.055388243621468
 10
8.743261074627378
 20
9.059205325072884
 10
8.727255191013156
 20
9.062509409214934
 10
8.710095684334575
 20
9.065257183339079
 10
8.691961213305532
 20
9.067426395044606
 10
8.673192849983712
 20
9.068972936894375
 10
8.655162896630603
 20
9.069836409515023
 10
8.636931193972568
 20
9.070126485452929
  0
CIRCLE
  5
B0
330
1F
100
AcDbEntity
  8
0
  6
CONTINUOUS
100
AcDbCircle
 10
8.636931193972555
 20
10.59614280027735
 30
0.0
 40
0.3665179007108037
  0
CIRCLE
  5
B1
330
1F
100
AcDbEntity
  8
0
  6
CONTINUOUS
100
AcDbCircle
 10
8.636931193972555
 20
10.59614280027735
 30
0.0
 40
0.1733333333333338
  0
LINE
  5
B2
330
1F
100
AcDbEntity
  8
0
100
AcDbLine
 10
8.055639457258848
 20
1.6820506461307
 30
0.0
 11
8.055639457258848
 21
1.508717312797366
 31
0.0
  0
LINE
  5
B3
330
1F
100
AcDbEntity
  8
0
100
AcDbLine
 10
4.851025075638784
 20
1.745744906275734
 30
0.0
 11
4.851025075638784
 21
1.5724115729424
 31
0.0
  0
LINE
  5
B4
330
1F
100
AcDbEntity
  8
0
100
AcDbLine
 10
4.851025075638784
 20
1.5724115729424
 30
0.0
 11
8.055639457258848
 21
1.508717312797366
 31
0.0
  0
LINE
  5
B5
330
1F
100
AcDbEntity
  8
0
100
AcDbLine
 10
8.636931193972534
 20
4.47875042652071
 30
0.0
 11
8.636931193972536
 21
4.650520607252381
 31
0.0
  0
LINE
  5
B6
330
1F
100
AcDbEntity
  8
0
  6
CONTINUOUS
100
AcDbLine
 10
12.42283731230628
 20
1.5724115729424
 30
0.0
 11
9.218222930686224
 21
1.508717312797366
 31
0.0
  0
LINE
  5
B7
330
1F
100
AcDbEntity
  8
0
  6
CONTINUOUS
100
AcDbLine
 10
12.42283731230628
 20
1.745744906275734
 30
0.0
 11
12.42283731230628
 21
1.5724115729424
 31
0.0
  0
LINE
  5
B8
330
1F
100
AcDbEntity
  8
0
  6
CONTINUOUS
100
AcDbLine
 10
9.218222930686224
 20
1.6820506461307
 30
0.0
 11
9.218222930686224
 21
1.508717312797366
 31
0.0
  0
LINE
  5
B9
330
1F
100
AcDbEntity
  8
0
100
AcDbLine
 10
8.055639457258848
 20
1.508717312797366
 30
0.0
 11
9.218222930686224
 21
1.508717312797366
 31
0.0
  0
LINE
  5
BA
330
1F
100
AcDbEntity
  8
0
  6
CONTINUOUS
100
AcDbLine
 10
2.636931352918255
 20
5.017187432864766
 30
0.0
 11
2.636931352918255
 21
4.683854020058573
 31
0.0
  0
LINE
  5
BB
330
1F
100
AcDbEntity
  8
0
  6
CONTINUOUS
100
AcDbLine
 10
14.63693103502681
 20
4.683854020058573
 30
0.0
 11
14.63693103502681
 21
5.017187432864766
 31
0.0
  0
LINE
  5
BC
330
1F
100
AcDbEntity
  8
0
  6
CONTINUOUS
100
AcDbLine
 10
3.234916541084555
 20
4.683854020058573
 30
0.0
 11
4.577729317650107
 21
1.764696127592982
 31
0.0
  0
LINE
  5
BD
330
1F
100
AcDbEntity
  8
0
  6
CONTINUOUS
100
AcDbLine
 10
12.69613307029496
 20
1.764695779899221
 30
0.0
 11
14.03894584686051
 21
4.683854020058573
 31
0.0
  0
LINE
  5
BE
330
1F
100
AcDbEntity
  8
0
  6
CONTINUOUS
100
AcDbLine
 10
5.935030195221234
 20
1.717887954333893
 30
0.0
 11
8.262971329793263
 21
1.671329127172104
 31
0.0
  0
LINE
  5
BF
330
1F
100
AcDbEntity
  8
0
  6
CONTINUOUS
100
AcDbLine
 10
9.01089105815185
 20
1.671329127172104
 30
0.0
 11
11.33918346276375
 21
1.717895007550191
 31
0.0
  0
ARC
  5
C0
330
1F
100
AcDbEntity
  8
0
  6
CONTINUOUS
100
AcDbCircle
 10
8.636931193972555
 20
2.123359887417329
 30
0.0
 40
0.586666666666667
100
AcDbArc
 50
287.1847959010884
 51
309.6005648414014
  0
ARC
  5
C1
330
1F
100
AcDbEntity
  8
0
  6
CONTINUOUS
100
AcDbCircle
 10
8.636931193972555
 20
2.123359887417329
 30
0.0
 40
0.5866666666666666
100
AcDbArc
 50
230.3994351586003
 51
252.8152040989132
  0
LINE
  5
C2
330
1F
100
AcDbEntity
  8
0
  6
CONTINUOUS
100
AcDbLine
 10
2.636931352918255
 20
5.017187432864766
 30
0.0
 11
14.63693103502681
 21
5.017187432864766
 31
0.0
  0
LINE
  5
C3
330
1F
100
AcDbEntity
  8
0
  6
CONTINUOUS
100
AcDbLine
 10
14.63693103502681
 20
4.683854020058573
 30
0.0
 11
2.636931352918255
 21
4.683854020058573
 31
0.0
  0
LWPOLYLINE
  5
C4
330
1F
100
AcDbEntity
  8
0
  6
CONTINUOUS
100
AcDbPolyline
 90
       14
 70
   128
 43
0.0
 10
10.05308669120563
 20
1.696093515971774
 10
10.13292631815367
 20
1.906620101550693
 10
10.2105790506849
 20
2.117767866869246
 10
10.28629413555556
 20
2.329424755195255
 10
10.36034644951913
 20
2.541636463423049
 10
10.43285331438475
 20
2.75421623033233
 10
10.50397079498066
 20
2.967104947983698
 10
10.58637421638264
 20
3.218870795189814
 10
10.66725434174631
 20
3.470943606316523
 10
10.74682535042856
 20
3.723297354002274
 10
10.82528354039285
 20
3.975859121898291
 10
10.90285223037495
 20
4.228629307368872
 10
10.97975354701771
 20
4.481529232282914
 10
11.0408709576775
 20
4.68385402005859
  0
LWPOLYLINE
  5
C5
330
1F
100
AcDbEntity
  8
0
  6
CONTINUOUS
100
AcDbPolyline
 90
       18
 70
   128
 43
0.0
 10
7.220775696739488
 20
1.696093515971774
 10
7.406838350598945
 20
1.692652688840503
 10
7.593210352564786
 20
1.689327743072782
 10
7.779831203922562
 20
1.686189012149447
 10
7.966639909252458
 20
1.683306928892408
 10
8.116788976495397
 20
1.681256876805896
 10
8.267047194744083
 20
1.679562316754931
 10
8.417376119002634
 20
1.678328500608081
 10
8.567737298066351
 20
1.677660878916059
 10
8.718092324192259
 20
1.677664653876895
 10
8.885108543539974
 20
1.678483522355034
 10
9.052085839812889
 20
1.680000510235105
 10
9.21897497088207
 20
1.682054784317289
 10
9.385726613903973
 20
1.684485412060692
 10
9.552853716517422
 20
1.68716344875045
 10
9.719818346803322
 20
1.690020895420983
 10
9.886577241723671
 20
1.693012651224409
 10
10.05308669120563
 20
1.696093515971774
  0
LWPOLYLINE
  5
C6
330
1F
100
AcDbEntity
  8
0
  6
CONTINUOUS
100
AcDbPolyline
 90
       13
 70
   128
 43
0.0
 10
6.232957058255813
 20
4.68385402005859
 10
6.266071014707229
 20
4.574191407779334
 10
6.39167806814605
 20
4.161016778567907
 10
6.476452363635043
 20
3.885749415973302
 10
6.562384578689872
 20
3.610696630099889
 10
6.649745119715669
 20
3.335916634817398
 10
6.738849096601145
 20
3.06130571804392
 10
6.829925987228688
 20
2.787103490451451
 10
6.923268649086293
 20
2.513410485207514
 10
6.99499181221419
 20
2.308387295821781
 10
7.068344466989175
 20
2.103765245695387
 10
7.143535925055479
 20
1.899636622686659
 10
7.220775696739488
 20
1.696093515971774
  0
LWPOLYLINE
  5
C7
330
1F
100
AcDbEntity
  8
0
  6
CONTINUOUS
100
AcDbPolyline
 90
       18
 70
   128
 43
0.0
 10
8.636931193972568
 20
4.478750463743485
 10
8.61750330680851
 20
4.479805465956009
 10
8.598258992637136
 20
4.482931133528031
 10
8.579560171171962
 20
4.488069451271968
 10
8.561593698317745
 20
4.495200153608597
 10
8.544519078587432
 20
4.504229065199173
 10
8.528657332663675
 20
4.51498810094543
 10
8.514176533227105
 20
4.527400569537755
 10
8.50119537423545
 20
4.541326996107376
 10
8.489957924291431
 20
4.556507107038773
 10
8.480595971748172
 20
4.572815335213618
 10
8.473172548517524
 20
4.590082403440751
 10
8.467827278479873
 20
4.607984857181189
 10
8.464640776917278
 20
4.626359777072546
 10
8.463612820312322
 20
4.645028349180497
 10
8.464762742921649
 20
4.663639700829463
 10
8.468109792078475
 20
4.682013428627926
 10
8.468671379590968
 20
4.683854020058589
  0
LWPOLYLINE
  5
C8
330
1F
100
AcDbEntity
  8
0
  6
CONTINUOUS
100
AcDbPolyline
 90
       18
 70
   128
 43
0.0
 10
8.805100521052818
 20
4.683854020058589
 10
8.806281823024093
 20
4.67975918096252
 10
8.809354877079467
 20
4.661280548989254
 10
8.810254758203962
 20
4.642656879047033
 10
8.808942512278695
 20
4.624066587705888
 10
8.80546136508876
 20
4.605682528435664
 10
8.799876819655239
 20
4.587850408176062
 10
8.792212842012386
 20
4.570747848768509
 10
8.782570673132877
 20
4.554524656553543
 10
8.771131622895538
 20
4.539485212583817
 10
8.757978790109294
 20
4.525787667850133
 10
8.743261074627378
 20
4.513542092263179
 10
8.727255191013156
 20
4.50297736765889
 10
8.710095684334575
 20
4.494217074334102
 10
8.691961213305532
 20
4.487318035383499
 10
8.673192849983712
 20
4.482408599475499
 10
8.655162896630603
 20
4.479669964730219
 10
8.636931193972568
 20
4.478750463743485
  0
LWPOLYLINE
  5
C9
330
1F
100
AcDbEntity
  8
0
  6
CONTINUOUS
100
AcDbPolyline
 90
       51
 70
   128
 43
0.0
 10
7.220775696739488
 20
1.696093515971774
 10
7.116587771082852
 20
1.697583880443846
 10
7.013543559218379
 20
1.69910931231526
 10
6.911413086558315
 20
1.700668967186882
 10
6.810591631238592
 20
1.702253556668236
 10
6.7105847727308
 20
1.703868345836275
 10
6.611983193064661
 20
1.705501811126345
 10
6.516489598259261
 20
1.707122908452623
 10
6.422508570656113
 20
1.70875642341323
 10
6.357248438502283
 20
1.709913349568321
 10
6.292829923932682
 20
1.711074050684246
 10
6.229289385780623
 20
1.712237583020799
 10
6.166433903679182
 20
1.71340742351559
 10
6.104498319928774
 20
1.714579052149725
 10
6.04351760258767
 20
1.715751823206218
 10
5.958482437436709
 20
1.717420554577779
 10
5.875477803851096
 20
1.719089385290416
 10
5.794322901075013
 20
1.7207621399755
 10
5.715337408686605
 20
1.722432609815867
 10
5.638814382856017
 20
1.724094635664891
 10
5.564565870270059
 20
1.725752340177169
 10
5.49243252784503
 20
1.727409995018909
 10
5.422699861829404
 20
1.729061689396172
 10
5.375425629918698
 20
1.730211860358188
 10
5.329363359118426
 20
1.731358554382592
 10
5.284538679425838
 20
1.732501374105085
 10
5.240819069847388
 20
1.733643995145429
 10
5.198370628659847
 20
1.734782493531176
 10
5.157217595085423
 20
1.735916322886416
 10
5.101035449013036
 20
1.737518048703142
 10
5.047529948855361
 20
1.739109741071331
 10
4.996590627337416
 20
1.740695621986655
 10
4.948423319165825
 20
1.742270327031083
 10
4.903199685717542
 20
1.743828591127661
 10
4.860801312431611
 20
1.745374735613134
 10
4.821145150169647
 20
1.746912982483174
 10
4.784393720929738
 20
1.748438166001902
 10
4.760457687680836
 20
1.749495651741291
 10
4.737959715828215
 20
1.750546531299218
 10
4.716912521029428
 20
1.751590407311385
 10
4.69725848546119
 20
1.752630756715402
 10
4.679076684618904
 20
1.753664003232582
 10
4.662376655245735
 20
1.754689799169167
 10
4.641168130541754
 20
1.756137248296999
 10
4.622987919156662
 20
1.757569200217191
 10
4.60780900031816
 20
1.758989578902188
 10
4.595701707507084
 20
1.760393615980409
 10
4.586699021960208
 20
1.761776791432958
 10
4.580765180890668
 20
1.763143078902822
 10
4.577900581662762
 20
1.764496203680298
 10
4.577952636385865
 20
1.764798846264145
  0
LWPOLYLINE
  5
CA
330
1F
100
AcDbEntity
  8
0
  6
CONTINUOUS
100
AcDbPolyline
 90
       57
 70
   128
 43
0.0
 10
12.69590895683061
 20
1.764798895934682
 10
12.69477170020829
 20
1.763755466957352
 10
12.69019406348954
 20
1.762389278828563
 10
12.68515111317725
 20
1.761424378970724
 10
12.67859301279476
 20
1.760451134462617
 10
12.67052373598507
 20
1.759469743986391
 10
12.6609091094185
 20
1.758476929286582
 10
12.64977774332455
 20
1.757476018289192
 10
12.63713559816769
 20
1.756467309017443
 10
12.61658987711361
 20
1.75502135000573
 10
12.59301902165503
 20
1.753560142139061
 10
12.56635428776831
 20
1.752079413751229
 10
12.53668389032772
 20
1.750584131895964
 10
12.50413419118018
 20
1.749079313297536
 10
12.46864439358802
 20
1.747560785630808
 10
12.4301175406624
 20
1.746024277229574
 10
12.38868873626482
 20
1.744474854488637
 10
12.35803367009254
 20
1.743384784876771
 10
12.32598504732541
 20
1.742288655459351
 10
12.29256114672116
 20
1.741186913271216
 10
12.25765030891192
 20
1.740075833022065
 10
12.22137373000872
 20
1.738959239343274
 10
12.18375247031939
 20
1.737837479928601
 10
12.12803563784055
 20
1.736235803782411
 10
12.06967076967649
 20
1.734624541222521
 10
12.00850964894386
 20
1.732999271571109
 10
11.94477499833198
 20
1.731365508257816
 10
11.8787211309919
 20
1.72972901306497
 10
11.81020817469053
 20
1.728085464655826
 10
11.73906605750811
 20
1.726430591364175
 10
11.66555644383522
 20
1.724770154972345
 10
11.61281567127002
 20
1.723607069670628
 10
11.55896088789396
 20
1.722441947876881
 10
11.50402269075803
 20
1.721275286296478
 10
11.44782405406726
 20
1.720103359639119
 10
11.39056584547452
 20
1.718930439571015
 10
11.33228064885231
 20
1.717757072468074
 10
11.27075454901151
 20
1.716539846280686
 10
11.20815993657204
 20
1.715322918116522
 10
11.14453495850655
 20
1.714107082704179
 10
11.07965887894722
 20
1.712888217389059
 10
11.01378442158791
 20
1.711671438236507
 10
10.94695191890491
 20
1.710457688986731
 10
10.89585265825681
 20
1.709543254394803
 10
10.84423066487404
 20
1.708631303329739
 10
10.79204898387683
 20
1.707721190074556
 10
10.7393678159564
 20
1.706814305404298
 10
10.68723302394641
 20
1.705928431371324
 10
10.63464185903959
 20
1.705046481310798
 10
10.58155776372048
 20
1.704168107528958
 10
10.52804034263385
 20
1.703294551789238
 10
10.45098604073616
 20
1.70205810310391
 10
10.37310144613676
 20
1.700834270735059
 10
10.29444010367486
 20
1.699625190515791
 10
10.21469832768532
 20
1.69842778287279
 10
10.13422858030094
 20
1.69724959772773
 10
10.05308669120563
 20
1.696093515971774
  0
LWPOLYLINE
  5
CB
330
1F
100
AcDbEntity
  8
0
  6
CONTINUOUS
100
AcDbPolyline
 90
       15
 70
   128
 43
0.0
 10
8.636931193972568
 20
4.484497543592728
 10
8.617503303704102
 20
4.485552148440953
 10
8.598258986428319
 20
4.488678213377274
 10
8.579560158754327
 20
4.493816531121211
 10
8.56159368590011
 20
4.50094723345784
 10
8.544519059960981
 20
4.509976145048416
 10
8.52865732024604
 20
4.520735180794673
 10
8.514176520809471
 20
4.533147649386999
 10
8.501195349400182
 20
4.547074075956619
 10
8.489957899456163
 20
4.562254186888016
 10
8.480595959330539
 20
4.57856281242716
 10
8.473172536099889
 20
4.595829880654292
 10
8.467827278479873
 20
4.613732731759028
 10
8.464640776917278
 20
4.632107651650386
 10
8.463780160352527
 20
4.64773678423909
  0
LWPOLYLINE
  5
CC
330
1F
100
AcDbEntity
  8
0
  6
CONTINUOUS
100
AcDbPolyline
 90
       15
 70
   128
 43
0.0
 10
8.810089889272987
 20
4.646068648913977
 10
8.808942499861061
 20
4.629814064919428
 10
8.80546134025349
 20
4.611430005649206
 10
8.799876782402336
 20
4.593597885389603
 10
8.792212792341848
 20
4.576494928617752
 10
8.782570611044704
 20
4.560272133767085
 10
8.771131535972097
 20
4.545232689797359
 10
8.757978703185855
 20
4.531534747699376
 10
8.743260975286304
 20
4.519289172112421
 10
8.727255079254447
 20
4.508724447508133
 10
8.710095566367048
 20
4.499964154183345
 10
8.691961095338006
 20
4.493064717868444
 10
8.673192728911777
 20
4.488155679324743
 10
8.655162836094637
 20
4.485417044579463
 10
8.636931193972568
 20
4.484497543592728
  0
LINE
  5
CD
330
1F
100
AcDbEntity
  8
0
  6
CONTINUOUS
100
AcDbLine
 10
8.636931193972559
 20
1.671329127172105
 30
0.0
 11
9.01089105815185
 21
1.671329127172104
 31
0.0
  0
LINE
  5
CE
330
1F
100
AcDbEntity
  8
0
  6
CONTINUOUS
100
AcDbLine
 10
8.262971329793263
 20
1.671329127172104
 30
0.0
 11
8.636931193972559
 21
1.671329127172105
 31
0.0
  0
LINE
  5
CF
330
1F
100
AcDbEntity
  8
0
  6
CONTINUOUS
100
AcDbLine
 10
8.463597857062945
 20
1.562883890091848
 30
0.0
 11
8.810264530882168
 21
1.562883890091848
 31
0.0
  0
ENDSEC
  0
SECTION
  2
OBJECTS
  0
DICTIONARY
  5
C
330
0
100
AcDbDictionary
  3
ACAD_GROUP
350
D
  3
ACAD_LAYOUT
350
1A
  3
ACAD_MLINESTYLE
350
17
  3
ACAD_PLOTSETTINGS
350
19
  3
ACAD_PLOTSTYLENAME
350
E
  3
ACDBHEADERROUNDTRIPXREC
350
151
  3
ACDBVARIABLEDICTIONARY
350
110
  0
DICTIONARY
  5
D8
330
1F
100
AcDbDictionary
280
     1
  3
ACAD_LAYOUTSELFREF
360
173
  0
DICTIONARY
  5
DA
330
1B
100
AcDbDictionary
280
     1
  3
ACAD_LAYOUTSELFREF
360
172
  0
DICTIONARY
  5
D
102
{ACAD_REACTORS
330
C
102
}
330
C
100
AcDbDictionary
  0
DICTIONARY
  5
1A
102
{ACAD_REACTORS
330
C
102
}
330
C
100
AcDbDictionary
  0
DICTIONARY
  5
17
102
{ACAD_REACTORS
330
C
102
}
330
C
100
AcDbDictionary
  3
STANDARD
350
18
  0
DICTIONARY
  5
19
102
{ACAD_REACTORS
330
C
102
}
330
C
100
AcDbDictionary
  0
ACDBDICTIONARYWDFLT
  5
E
102
{ACAD_REACTORS
330
C
102
}
330
C
100
AcDbDictionary
281
     1
  3
Normal
350
F
100
AcDbDictionaryWithDefault
340
F
  0
DICTIONARY
  5
151
102
{ACAD_REACTORS
330
C
102
}
330
C
100
AcDbDictionary
  3
CEPSNTYPE
350
15B
  3
DIMSTYLEDATA
350
15F
  3
FINGERPRINTGUID
350
15C
  3
HYPERLINKBASE
350
154
  3
INSUNITS
350
15A
  3
LAYOUTDICT
350
156
  3
LWETCUNION
350
159
  3
PLOTSETDICT
350
157
  3
PLOTSTYLNAMDICT
350
158
  3
PSVPSCALE
350
15E
  3
PUCSBASE
350
162
  3
PUCSORGBACK
350
168
  3
PUCSORGBOTTOM
350
164
  3
PUCSORGFRONT
350
167
  3
PUCSORGLEFT
350
165
  3
PUCSORGRIGHT
350
166
  3
PUCSORGTOP
350
163
  3
PUCSORTHOREF
350
160
  3
PUCSORTHOVIEW
350
161
  3
STYLESHEET
350
155
  3
TSTACKALIGN
350
152
  3
TSTACKSIZE
350
153
  3
UCSBASE
350
16B
  3
UCSORGBACK
350
171
  3
UCSORGBOTTOM
350
16D
  3
UCSORGFRONT
350
170
  3
UCSORGLEFT
350
16E
  3
UCSORGRIGHT
350
16F
  3
UCSORGTOP
350
16C
  3
UCSORTHOREF
350
169
  3
UCSORTHOVIEW
350
16A
  3
VERSIONGUID
350
15D
  0
DICTIONARY
  5
110
102
{ACAD_REACTORS
330
C
102
}
330
C
100
AcDbDictionary
  3
DIMASSOC
350
111
  0
XRECORD
  5
173
102
{ACAD_REACTORS
330
D8
102
}
330
D8
100
AcDbXrecord
340
1F
  0
XRECORD
  5
172
102
{ACAD_REACTORS
330
DA
102
}
330
DA
100
AcDbXrecord
340
1B
  0
MLINESTYLE
  5
18
102
{ACAD_REACTORS
330
17
102
}
330
17
100
AcDbMlineStyle
  2
STANDARD
 70
     0
  3

 62
   256
 51
90.0
 52
90.0
 71
     2
 49
0.5
 62
   256
  6
BYLAYER
 49
-0.5
 62
   256
  6
BYLAYER
  0
ACDBPLACEHOLDER
  5
F
102
{ACAD_REACTORS
330
E
102
}
330
E
100
AcDbPlaceHolder
280
     0
  0
XRECORD
  5
15B
102
{ACAD_REACTORS
330
151
102
}
330
151
100
AcDbXrecord
 90
        0
  0
XRECORD
  5
15F
102
{ACAD_REACTORS
330
151
102
}
330
151
100
AcDbXrecord
1000
DSTYLE
1002
{
1070
   278
 70
    44
1002
}
  0
XRECORD
  5
15C
102
{ACAD_REACTORS
330
151
102
}
330
151
100
AcDbXrecord
  1
{6EB35412-F2F3-44FC-B444-DE7DE9AF04E7}
  0
XRECORD
  5
154
102
{ACAD_REACTORS
330
151
102
}
330
151
100
AcDbXrecord
  1

  0
XRECORD
  5
15A
102
{ACAD_REACTORS
330
151
102
}
330
151
100
AcDbXrecord
 90
        4
  0
XRECORD
  5
156
102
{ACAD_REACTORS
330
151
102
}
330
151
100
AcDbXrecord
340
1A
  0
XRECORD
  5
159
102
{ACAD_REACTORS
330
151
102
}
330
151
100
AcDbXrecord
 90
    10781
  0
XRECORD
  5
157
102
{ACAD_REACTORS
330
151
102
}
330
151
100
AcDbXrecord
340
19
  0
XRECORD
  5
158
102
{ACAD_REACTORS
330
151
102
}
330
151
100
AcDbXrecord
340
E
  0
XRECORD
  5
15E
102
{ACAD_REACTORS
330
151
102
}
330
151
100
AcDbXrecord
 40
0.0
  0
XRECORD
  5
162
102
{ACAD_REACTORS
330
151
102
}
330
151
100
AcDbXrecord
340
0
  0
XRECORD
  5
168
102
{ACAD_REACTORS
330
151
102
}
330
151
100
AcDbXrecord
 10
0.0
 20
0.0
 30
0.0
  0
XRECORD
  5
164
102
{ACAD_REACTORS
330
151
102
}
330
151
100
AcDbXrecord
 10
0.0
 20
0.0
 30
0.0
  0
XRECORD
  5
167
102
{ACAD_REACTORS
330
151
102
}
330
151
100
AcDbXrecord
 10
0.0
 20
0.0
 30
0.0
  0
XRECORD
  5
165
102
{ACAD_REACTORS
330
151
102
}
330
151
100
AcDbXrecord
 10
0.0
 20
0.0
 30
0.0
  0
XRECORD
  5
166
102
{ACAD_REACTORS
330
151
102
}
330
151
100
AcDbXrecord
 10
0.0
 20
0.0
 30
0.0
  0
XRECORD
  5
163
102
{ACAD_REACTORS
330
151
102
}
330
151
100
AcDbXrecord
 10
0.0
 20
0.0
 30
0.0
  0
XRECORD
  5
160
102
{ACAD_REACTORS
330
151
102
}
330
151
100
AcDbXrecord
340
0
  0
XRECORD
  5
161
102
{ACAD_REACTORS
330
151
102
}
330
151
100
AcDbXrecord
 70
     0
  0
XRECORD
  5
155
102
{ACAD_REACTORS
330
151
102
}
330
151
100
AcDbXrecord
  1

  0
XRECORD
  5
152
102
{ACAD_REACTORS
330
151
102
}
330
151
100
AcDbXrecord
 90
        1
  0
XRECORD
  5
153
102
{ACAD_REACTORS
330
151
102
}
330
151
100
AcDbXrecord
 90
       70
  0
XRECORD
  5
16B
102
{ACAD_REACTORS
330
151
102
}
330
151
100
AcDbXrecord
340
0
  0
XRECORD
  5
171
102
{ACAD_REACTORS
330
151
102
}
330
151
100
AcDbXrecord
 10
0.0
 20
0.0
 30
0.0
  0
XRECORD
  5
16D
102
{ACAD_REACTORS
330
151
102
}
330
151
100
AcDbXrecord
 10
0.0
 20
0.0
 30
0.0
  0
XRECORD
  5
170
102
{ACAD_REACTORS
330
151
102
}
330
151
100
AcDbXrecord
 10
0.0
 20
0.0
 30
0.0
  0
XRECORD
  5
16E
102
{ACAD_REACTORS
330
151
102
}
330
151
100
AcDbXrecord
 10
0.0
 20
0.0
 30
0.0
  0
XRECORD
  5
16F
102
{ACAD_REACTORS
330
151
102
}
330
151
100
AcDbXrecord
 10
0.0
 20
0.0
 30
0.0
  0
XRECORD
  5
16C
102
{ACAD_REACTORS
330
151
102
}
330
151
100
AcDbXrecord
 10
0.0
 20
0.0
 30
0.0
  0
XRECORD
  5
169
102
{ACAD_REACTORS
330
151
102
}
330
151
100
AcDbXrecord
340
0
  0
XRECORD
  5
16A
102
{ACAD_REACTORS
330
151
102
}
330
151
100
AcDbXrecord
 70
     0
  0
XRECORD
  5
15D
102
{ACAD_REACTORS
330
151
102
}
330
151
100
AcDbXrecord
  1
{597D2A5A-57A4-4FE2-AFD6-DBEC9D3F9246}
  0
DICTIONARYVAR
  5
111
102
{ACAD_REACTORS
330
110
102
}
330
110
100
DictionaryVariables
280
     0
  1
1
  0
ENDSEC
  0
EOF
