  0
SECTION
  2
HEADER
  9
$ACADVER
  1
AC1014
  9
$ACADMAINTVER
 70
     9
  9
$DWGCODEPAGE
  3
ANSI_1250
  9
$INSBASE
 10
0.0
 20
0.0
 30
0.0
  9
$EXTMIN
 10
3.7385915554
 20
5.982451248899998
 30
0.0
  9
$EXTMAX
 10
15.7385915554
 20
18.2247698799
 30
0.0
  9
$LIMMIN
 10
0.0
 20
0.0
  9
$LIMMAX
 10
0.0
 20
0.0
  9
$ORTHOMODE
 70
     0
  9
$REGENMODE
 70
     1
  9
$FILLMODE
 70
     1
  9
$QTEXTMODE
 70
     0
  9
$MIRRTEXT
 70
     1
  9
$DRAGMODE
 70
     2
  9
$LTSCALE
 40
1.0
  9
$OSMODE
 70
  3007
  9
$ATTMODE
 70
     1
  9
$TEXTSIZE
 40
2.5
  9
$TRACEWID
 40
1.0
  9
$TEXTSTYLE
  7
STANDARD
  9
$CLAYER
  8
0
  9
$CELTYPE
  6
BYLAYER
  9
$CECOLOR
 62
   256
  9
$CELTSCALE
 40
1.0
  9
$DELOBJ
 70
     1
  9
$DISPSILH
 70
     0
  9
$DIMSCALE
 40
1.0
  9
$DIMASZ
 40
0.3
  9
$DIMEXO
 40
0.1
  9
$DIMDLI
 40
3.75
  9
$DIMRND
 40
0.0
  9
$DIMDLE
 40
0.0
  9
$DIMEXE
 40
0.1
  9
$DIMTP
 40
0.0
  9
$DIMTM
 40
0.0
  9
$DIMTXT
 40
0.2822222222
  9
$DIMCEN
 40
2.5
  9
$DIMTSZ
 40
0.0
  9
$DIMTOL
 70
     0
  9
$DIMLIM
 70
     0
  9
$DIMTIH
 70
     1
  9
$DIMTOH
 70
     1
  9
$DIMSE1
 70
     0
  9
$DIMSE2
 70
     0
  9
$DIMTAD
 70
     1
  9
$DIMZIN
 70
     0
  9
$DIMBLK
  1

  9
$DIMASO
 70
     1
  9
$DIMSHO
 70
     1
  9
$DIMPOST
  1

  9
$DIMAPOST
  1

  9
$DIMALT
 70
     0
  9
$DIMALTD
 70
     3
  9
$DIMALTF
 40
0.3937007874
  9
$DIMLFAC
 40
15.0
  9
$DIMTOFL
 70
     1
  9
$DIMTVP
 40
0.0
  9
$DIMTIX
 70
     0
  9
$DIMSOXD
 70
     0
  9
$DIMSAH
 70
     0
  9
$DIMBLK1
  1

  9
$DIMBLK2
  1

  9
$DIMSTYLE
  2
ISO-25
  9
$DIMCLRD
 70
     0
  9
$DIMCLRE
 70
     0
  9
$DIMCLRT
 70
     0
  9
$DIMTFAC
 40
1.0
  9
$DIMGAP
 40
0.1524
  9
$DIMJUST
 70
     0
  9
$DIMSD1
 70
     0
  9
$DIMSD2
 70
     0
  9
$DIMTOLJ
 70
     0
  9
$DIMTZIN
 70
     0
  9
$DIMALTZ
 70
     0
  9
$DIMALTTZ
 70
     0
  9
$DIMFIT
 70
     3
  9
$DIMUPT
 70
     0
  9
$DIMUNIT
 70
     2
  9
$DIMDEC
 70
     2
  9
$DIMTDEC
 70
     2
  9
$DIMALTU
 70
     2
  9
$DIMALTTD
 70
     3
  9
$DIMTXSTY
  7
STANDARD
  9
$DIMAUNIT
 70
     0
  9
$LUNITS
 70
     2
  9
$LUPREC
 70
     1
  9
$SKETCHINC
 40
1.0
  9
$FILLETRAD
 40
10.0
  9
$AUNITS
 70
     0
  9
$AUPREC
 70
     0
  9
$MENU
  1
.
  9
$ELEVATION
 40
0.0
  9
$PELEVATION
 40
0.0
  9
$THICKNESS
 40
0.0
  9
$LIMCHECK
 70
     0
  9
$BLIPMODE
 70
     0
  9
$CHAMFERA
 40
10.0
  9
$CHAMFERB
 40
10.0
  9
$CHAMFERC
 40
20.0
  9
$CHAMFERD
 40
0.0
  9
$SKPOLY
 70
     0
  9
$TDCREATE
 40
2453942.530520312
  9
$TDUPDATE
 40
2453966.364658195
  9
$TDINDWG
 40
0.0069629051
  9
$TDUSRTIMER
 40
0.0069629051
  9
$USRTIMER
 70
     1
  9
$ANGBASE
 50
0.0
  9
$ANGDIR
 70
     0
  9
$PDMODE
 70
     0
  9
$PDSIZE
 40
-1.0
  9
$PLINEWID
 40
0.0
  9
$COORDS
 70
     2
  9
$SPLFRAME
 70
     0
  9
$SPLINETYPE
 70
     6
  9
$SPLINESEGS
 70
     8
  9
$ATTDIA
 70
     0
  9
$ATTREQ
 70
     1
  9
$HANDLING
 70
 22529
  9
$HANDSEED
  5
D45
  9
$SURFTAB1
 70
     6
  9
$SURFTAB2
 70
     6
  9
$SURFTYPE
 70
     6
  9
$SURFU
 70
     6
  9
$SURFV
 70
     6
  9
$UCSNAME
  2

  9
$UCSORG
 10
0.0
 20
0.0
 30
0.0
  9
$UCSXDIR
 10
1.0
 20
0.0
 30
0.0
  9
$UCSYDIR
 10
0.0
 20
1.0
 30
0.0
  9
$PUCSNAME
  2

  9
$PUCSORG
 10
0.0
 20
0.0
 30
0.0
  9
$PUCSXDIR
 10
1.0
 20
0.0
 30
0.0
  9
$PUCSYDIR
 10
0.0
 20
1.0
 30
0.0
  9
$USERI1
 70
     0
  9
$USERI2
 70
     0
  9
$USERI3
 70
     0
  9
$USERI4
 70
     0
  9
$USERI5
 70
     0
  9
$USERR1
 40
0.0
  9
$USERR2
 40
0.0
  9
$USERR3
 40
0.0
  9
$USERR4
 40
0.0
  9
$USERR5
 40
0.0
  9
$WORLDVIEW
 70
     1
  9
$SHADEDGE
 70
     3
  9
$SHADEDIF
 70
    70
  9
$TILEMODE
 70
     1
  9
$MAXACTVP
 70
    48
  9
$PINSBASE
 10
0.0
 20
0.0
 30
0.0
  9
$PLIMCHECK
 70
     0
  9
$PEXTMIN
 10
1.000000000000000E+20
 20
1.000000000000000E+20
 30
1.000000000000000E+20
  9
$PEXTMAX
 10
-1.000000000000000E+20
 20
-1.000000000000000E+20
 30
-1.000000000000000E+20
  9
$PLIMMIN
 10
0.0
 20
0.0
  9
$PLIMMAX
 10
420.0
 20
297.0
  9
$UNITMODE
 70
     0
  9
$VISRETAIN
 70
     1
  9
$PLINEGEN
 70
     0
  9
$PSLTSCALE
 70
     1
  9
$TREEDEPTH
 70
  3020
  9
$PICKSTYLE
 70
     1
  9
$CMLSTYLE
  2
STANDARD
  9
$CMLJUST
 70
     0
  9
$CMLSCALE
 40
20.0
  9
$PROXYGRAPHICS
 70
     1
  9
$MEASUREMENT
 70
     1
  0
ENDSEC
  0
SECTION
  2
CLASSES
  0
CLASS
  1
ACDBDICTIONARYWDFLT
  2
AcDbDictionaryWithDefault
  3
AutoCAD 2000
 90
        0
280
     0
281
     0
  0
CLASS
  1
ACDBPLACEHOLDER
  2
AcDbPlaceHolder
  3
AutoCAD 2000
 90
        0
280
     0
281
     0
  0
CLASS
  1
LAYOUT
  2
AcDbLayout
  3
AutoCAD 2000
 90
        0
280
     0
281
     0
  0
CLASS
  1
DICTIONARYVAR
  2
AcDbDictionaryVar
  3
AutoCAD 2000
 90
        0
280
     0
281
     0
  0
CLASS
  1
LONG_TRANSACTION
  2
AcDbLongTransaction
  3
AutoCAD 2000
 90
        0
280
     0
281
     0
  0
CLASS
  1
LWPOLYLINE
  2
AcDbPolyline
  3
AutoCAD 2000
 90
        0
280
     0
281
     1
  0
CLASS
  1
HATCH
  2
AcDbHatch
  3
AutoCAD 2000
 90
        0
280
     0
281
     1
  0
CLASS
  1
XRECORD
  2
AcDbXrecord
  3
AutoCAD 2000
 90
        0
280
     0
281
     0
  0
CLASS
  1
LONG_TRANSACTION
  2
AcDbLongTransaction
  3
AutoCAD 2000
 90
        0
280
     0
281
     0
  0
CLASS
  1
LWPOLYLINE
  2
AcDbPolyline
  3
AutoCAD 2000
 90
        0
280
     0
281
     1
  0
CLASS
  1
HATCH
  2
AcDbHatch
  3
AutoCAD 2000
 90
        0
280
     0
281
     1
  0
CLASS
  1
XRECORD
  2
AcDbXrecord
  3
AutoCAD 2000
 90
        0
280
     0
281
     0
  0
ENDSEC
  0
SECTION
  2
TABLES
  0
TABLE
  2
VPORT
  5
8
330
0
100
AcDbSymbolTable
 70
     2
  0
VPORT
  5
D20
330
8
100
AcDbSymbolTableRecord
100
AcDbViewportTableRecord
  2
*ACTIVE
 70
     0
 10
0.0
 20
0.0
 11
1.0
 21
1.0
 12
9.73911346499532
 22
12.10402516542864
 13
0.0
 23
0.0
 14
10.0
 24
10.0
 15
10.0
 25
10.0
 16
0.0
 26
0.0
 36
1.0
 17
0.0
 27
0.0
 37
0.0
 40
12.36411111226169
 41
1.674961119751166
 42
50.0
 43
0.0
 44
0.0
 50
0.0
 51
0.0
 71
     0
 72
  2000
 73
     1
 74
     3
 75
     0
 76
     0
 77
     0
 78
     0
  0
ENDTAB
  0
TABLE
  2
LTYPE
  5
5
330
0
100
AcDbSymbolTable
 70
     1
  0
LTYPE
  5
14
330
5
100
AcDbSymbolTableRecord
100
AcDbLinetypeTableRecord
  2
BYBLOCK
 70
     0
  3

 72
    65
 73
     0
 40
0.0
  0
LTYPE
  5
15
330
5
100
AcDbSymbolTableRecord
100
AcDbLinetypeTableRecord
  2
BYLAYER
 70
     0
  3

 72
    65
 73
     0
 40
0.0
  0
LTYPE
  5
16
330
5
100
AcDbSymbolTableRecord
100
AcDbLinetypeTableRecord
  2
CONTINUOUS
 70
     0
  3
Solid line
 72
    65
 73
     0
 40
0.0
  0
ENDTAB
  0
TABLE
  2
LAYER
  5
2
330
0
100
AcDbSymbolTable
 70
     1
  0
LAYER
  5
10
330
2
100
AcDbSymbolTableRecord
100
AcDbLayerTableRecord
  2
0
 70
     0
 62
     7
  6
CONTINUOUS
  0
ENDTAB
  0
TABLE
  2
STYLE
  5
3
330
0
100
AcDbSymbolTable
 70
     1
  0
STYLE
  5
11
330
3
100
AcDbSymbolTableRecord
100
AcDbTextStyleTableRecord
  2
STANDARD
 70
     0
 40
0.0
 41
1.0
 50
0.0
 71
     0
 42
2.5
  3
ARIAL.TTF
  4

1001
ACAD
1000
Arial
1071
       34
  0
ENDTAB
  0
TABLE
  2
VIEW
  5
6
330
0
100
AcDbSymbolTable
 70
     0
  0
ENDTAB
  0
TABLE
  2
UCS
  5
7
330
0
100
AcDbSymbolTable
 70
     0
  0
ENDTAB
  0
TABLE
  2
APPID
  5
9
330
0
100
AcDbSymbolTable
 70
     1
  0
APPID
  5
12
330
9
100
AcDbSymbolTableRecord
100
AcDbRegAppTableRecord
  2
ACAD
 70
     0
  0
ENDTAB
  0
TABLE
  2
DIMSTYLE
  5
A
330
0
100
AcDbSymbolTable
 70
     1
  0
DIMSTYLE
105
27
330
A
100
AcDbSymbolTableRecord
100
AcDbDimStyleTableRecord
  2
ISO-25
 70
     0
  3

  4

  5

  6

  7

 40
1.0
 41
2.5
 42
0.625
 43
3.75
 44
1.25
 45
0.0
 46
0.0
 47
0.0
 48
0.0
140
2.5
141
2.5
142
0.0
143
0.0393700787
144
1.0
145
0.0
146
1.0
147
0.625
 71
     0
 72
     0
 73
     0
 74
     0
 75
     0
 76
     0
 77
     1
 78
     8
170
     0
171
     3
172
     1
173
     0
174
     0
175
     0
176
     0
177
     0
178
     0
270
     2
271
     2
272
     2
273
     2
274
     3
340
11
275
     0
280
     0
281
     0
282
     0
283
     0
284
     8
285
     0
286
     0
287
     3
288
     0
  0
ENDTAB
  0
TABLE
  2
BLOCK_RECORD
  5
1
330
0
100
AcDbSymbolTable
 70
     1
  0
BLOCK_RECORD
  5
1F
102
{ACAD_XDICTIONARY
360
CE3
102
}
330
1
100
AcDbSymbolTableRecord
100
AcDbBlockTableRecord
  2
*MODEL_SPACE
  0
BLOCK_RECORD
  5
1B
102
{ACAD_XDICTIONARY
360
CE5
102
}
330
1
100
AcDbSymbolTableRecord
100
AcDbBlockTableRecord
  2
*PAPER_SPACE
  0
ENDTAB
  0
ENDSEC
  0
SECTION
  2
BLOCKS
  0
BLOCK
  5
20
330
1F
100
AcDbEntity
  8
0
100
AcDbBlockBegin
  2
*MODEL_SPACE
 70
     0
 10
0.0
 20
0.0
 30
0.0
  3
*MODEL_SPACE
  1

  0
ENDBLK
  5
21
330
1F
100
AcDbEntity
  8
0
100
AcDbBlockEnd
  0
BLOCK
  5
1C
330
1B
100
AcDbEntity
 67
     1
  8
0
100
AcDbBlockBegin
  2
*PAPER_SPACE
 70
     0
 10
0.0
 20
0.0
 30
0.0
  3
*PAPER_SPACE
  1

  0
ENDBLK
  5
1D
330
1B
100
AcDbEntity
 67
     1
  8
0
100
AcDbBlockEnd
  0
ENDSEC
  0
SECTION
  2
ENTITIES
  0
LINE
  5
B9
330
1F
100
AcDbEntity
  8
0
100
AcDbLine
 10
9.080400692799999
 20
5.982451248899998
 30
0.0
 11
9.1845522796
 21
6.1206887547
 31
0.0
  0
LINE
  5
BA
330
1F
100
AcDbEntity
  8
0
100
AcDbLine
 10
9.080400692799999
 20
5.982451248899998
 30
0.0
 11
5.861668623499999
 21
6.0567147154
 31
0.0
  0
LINE
  5
BB
330
1F
100
AcDbEntity
  8
0
100
AcDbLine
 10
5.861668623499999
 20
6.0567147154
 30
0.0
 11
5.758613690099998
 21
6.1957716884
 31
0.0
  0
LINE
  5
BC
330
1F
100
AcDbEntity
  8
0
  6
CONTINUOUS
100
AcDbLine
 10
10.39678241809999
 20
5.982451248899998
 30
0.0
 11
10.2926308313
 21
6.1206887547
 31
0.0
  0
LINE
  5
BD
330
1F
100
AcDbEntity
  8
0
  6
CONTINUOUS
100
AcDbLine
 10
10.39678241809999
 20
5.982451248899998
 30
0.0
 11
13.6155144873
 21
6.0567147154
 31
0.0
  0
LINE
  5
BE
330
1F
100
AcDbEntity
  8
0
  6
CONTINUOUS
100
AcDbLine
 10
13.6155144873
 20
6.0567147154
 30
0.0
 11
13.71856942079999
 21
6.1957716884
 31
0.0
  0
POINT
  5
BF
330
1F
100
AcDbEntity
  8
0
  6
CONTINUOUS
100
AcDbPoint
 10
9.738591555399999
 20
5.982451248899998
 30
0.0
  0
LINE
  5
C1
330
1F
100
AcDbEntity
  8
0
  6
CONTINUOUS
100
AcDbLine
 10
15.2962436096
 20
9.055692868399999
 30
0.0
 11
15.3198309874
 21
9.1296119688
 31
0.0
  0
LINE
  5
C2
330
1F
100
AcDbEntity
  8
0
  6
CONTINUOUS
100
AcDbLine
 10
4.157352123499998
 20
9.1296119688
 30
0.0
 11
4.1809395013
 21
9.055692868399999
 31
0.0
  0
LINE
  5
C3
330
1F
100
AcDbEntity
  8
0
  6
CONTINUOUS
100
AcDbLine
 10
4.1811902547
 20
9.055763391900001
 30
0.0
 11
4.3919786564
 21
9.0484573657
 31
0.0
  0
LINE
  5
C4
330
1F
100
AcDbEntity
  8
0
  6
CONTINUOUS
100
AcDbLine
 10
15.0852044545
 20
9.0484573657
 30
0.0
 11
15.29599285619998
 21
9.055763391900001
 31
0.0
  0
LINE
  5
C5
330
1F
100
AcDbEntity
  8
0
  6
CONTINUOUS
100
AcDbLine
 10
4.7798595047
 20
7.9068893921
 30
0.0
 11
4.933821126099998
 21
7.4540610939
 31
0.0
  0
LINE
  5
C6
330
1F
100
AcDbEntity
  8
0
  6
CONTINUOUS
100
AcDbLine
 10
5.2213752892
 20
6.608313555299998
 30
0.0
 11
5.361191448199998
 21
6.1970895583
 31
0.0
  0
LINE
  5
C7
330
1F
100
AcDbEntity
  8
0
  6
CONTINUOUS
100
AcDbLine
 10
4.391749826399999
 20
9.0483884458
 30
0.0
 11
4.472194103699998
 21
8.811787630299997
 31
0.0
  0
LINE
  5
C8
330
1F
100
AcDbEntity
  8
0
  6
CONTINUOUS
100
AcDbLine
 10
14.56042834319998
 20
7.5042562658
 30
0.0
 11
14.697755233
 21
7.908158882799998
 31
0.0
  0
LINE
  5
C9
330
1F
100
AcDbEntity
  8
0
  6
CONTINUOUS
100
AcDbLine
 10
14.9897658712
 20
8.767013700999999
 30
0.0
 11
15.0854332844
 21
9.0483884458
 31
0.0
  0
LINE
  5
CA
330
1F
100
AcDbEntity
  8
0
  6
CONTINUOUS
100
AcDbLine
 10
14.1159950708
 20
6.197099582199999
 30
0.0
 11
14.2553332911
 21
6.606917877199999
 31
0.0
  0
LINE
  5
CB
330
1F
100
AcDbEntity
  8
0
  6
CONTINUOUS
100
AcDbLine
 10
5.361388030699998
 20
6.1971520397
 30
0.0
 11
9.3270481357
 21
6.117838837599999
 31
0.0
  0
LINE
  5
CC
330
1F
100
AcDbEntity
  8
0
  6
CONTINUOUS
100
AcDbLine
 10
10.1501349751
 20
6.117838837599999
 30
0.0
 11
14.1158279522
 21
6.197152697099999
 31
0.0
  0
LINE
  5
CD
330
1F
100
AcDbEntity
  8
0
  6
CONTINUOUS
100
AcDbLine
 10
14.618713757
 20
7.9067569211
 30
0.0
 11
14.796801728
 21
7.9099156744
 31
0.0
  0
LINE
  5
CE
330
1F
100
AcDbEntity
  8
0
  6
CONTINUOUS
100
AcDbLine
 10
5.131319236299998
 20
6.609915941799999
 30
0.0
 11
5.3073228542
 21
6.6067842719
 31
0.0
  0
LINE
  5
CF
330
1F
100
AcDbEntity
  8
0
  6
CONTINUOUS
100
AcDbLine
 10
4.598955532599998
 20
7.9099136673
 30
0.0
 11
4.7798669549
 21
7.906755846699999
 31
0.0
  0
LINE
  5
D0
330
1F
100
AcDbEntity
  8
0
  6
CONTINUOUS
100
AcDbLine
 10
14.2553247005
 20
6.6067816894
 30
0.0
 11
14.4347555972
 21
6.609913667299998
 31
0.0
  0
ARC
  5
D1
330
1F
100
AcDbEntity
  8
0
  6
CONTINUOUS
100
AcDbCircle
 10
10.1524011886
 20
6.004528164099998
 30
0.0
 40
0.1133333333333335
100
AcDbArc
 50
91.14576283819999
 51
126.2391284063999
  0
ARC
  5
D2
330
1F
100
AcDbEntity
  8
0
  6
CONTINUOUS
100
AcDbCircle
 10
9.324781922299999
 20
6.004528164099998
 30
0.0
 40
0.1133333333333335
100
AcDbArc
 50
53.76087159359999
 51
88.8542371618
  0
ARC
  5
D3
330
1F
100
AcDbEntity
  8
0
  6
CONTINUOUS
100
AcDbCircle
 10
9.738591555399999
 20
6.569117915599999
 30
0.0
 40
0.5866666666666675
100
AcDbArc
 50
287.1847959011
 51
306.2391284063998
  0
ARC
  5
D4
330
1F
100
AcDbEntity
  8
0
  6
CONTINUOUS
100
AcDbCircle
 10
9.738591555399999
 20
6.569117915599999
 30
0.0
 40
0.5866666666666666
100
AcDbArc
 50
233.7608715936
 51
252.8152040989
  0
LINE
  5
D5
330
1F
100
AcDbEntity
  8
0
  6
CONTINUOUS
100
AcDbLine
 10
3.7385915554
 20
9.1296119688
 30
0.0
 11
3.7385915554
 21
9.462945302099999
 31
0.0
  0
LINE
  5
D6
330
1F
100
AcDbEntity
  8
0
  6
CONTINUOUS
100
AcDbLine
 10
15.7385915554
 20
9.1296119688
 30
0.0
 11
3.7385915554
 21
9.1296119688
 31
0.0
  0
LINE
  5
D7
330
1F
100
AcDbEntity
  8
0
  6
CONTINUOUS
100
AcDbLine
 10
15.7385915554
 20
9.1296119688
 30
0.0
 11
15.7385915554
 21
9.462945302099999
 31
0.0
  0
LINE
  5
D8
330
1F
100
AcDbEntity
  8
0
  6
CONTINUOUS
100
AcDbLine
 10
3.7385915554
 20
9.462945302099999
 30
0.0
 11
15.7385915554
 21
9.462945302099999
 31
0.0
  0
LINE
  5
D9
330
1F
100
AcDbEntity
  8
0
  6
CONTINUOUS
100
AcDbLine
 10
6.5519248888
 20
9.113784965199998
 30
0.0
 11
8.258591555399997
 21
9.113784965199998
 31
0.0
  0
LINE
  5
DA
330
1F
100
AcDbEntity
  8
0
  6
CONTINUOUS
100
AcDbLine
 10
8.258591555399997
 20
9.1296119688
 30
0.0
 11
8.258591555399997
 21
9.113784965199998
 31
0.0
  0
LINE
  5
DB
330
1F
100
AcDbEntity
  8
0
  6
CONTINUOUS
100
AcDbLine
 10
6.5519248888
 20
9.1296119688
 30
0.0
 11
6.5519248888
 21
9.113784965199998
 31
0.0
  0
LINE
  5
DC
330
1F
100
AcDbEntity
  8
0
  6
CONTINUOUS
100
AcDbLine
 10
12.9252582221
 20
9.113784965199998
 30
0.0
 11
11.21859155539999
 21
9.113784965199998
 31
0.0
  0
LINE
  5
DD
330
1F
100
AcDbEntity
  8
0
  6
CONTINUOUS
100
AcDbLine
 10
12.9252582221
 20
9.1296119688
 30
0.0
 11
12.9252582221
 21
9.113784965199998
 31
0.0
  0
LINE
  5
DE
330
1F
100
AcDbEntity
  8
0
  6
CONTINUOUS
100
AcDbLine
 10
11.21859155539999
 20
9.1296119688
 30
0.0
 11
11.21859155539999
 21
9.113784965199998
 31
0.0
  0
LINE
  5
DF
330
1F
100
AcDbEntity
  8
0
  6
CONTINUOUS
100
AcDbLine
 10
12.9252582221
 20
8.984488140099998
 30
0.0
 11
11.21859155539999
 21
8.984488140099998
 31
0.0
  0
LINE
  5
E0
330
1F
100
AcDbEntity
  8
0
  6
CONTINUOUS
100
AcDbLine
 10
12.9252582221
 20
9.113784965199998
 30
0.0
 11
12.9252582221
 21
8.984488140099998
 31
0.0
  0
LINE
  5
E1
330
1F
100
AcDbEntity
  8
0
  6
CONTINUOUS
100
AcDbLine
 10
11.21859155539999
 20
9.113784965199998
 30
0.0
 11
11.21859155539999
 21
8.984488140099998
 31
0.0
  0
LINE
  5
E2
330
1F
100
AcDbEntity
  8
0
  6
CONTINUOUS
100
AcDbLine
 10
6.5519248888
 20
8.984488140099998
 30
0.0
 11
8.258591555399997
 21
8.984488140099998
 31
0.0
  0
LINE
  5
E3
330
1F
100
AcDbEntity
  8
0
  6
CONTINUOUS
100
AcDbLine
 10
8.258591555399997
 20
9.113784965199998
 30
0.0
 11
8.258591555399997
 21
8.984488140099998
 31
0.0
  0
LINE
  5
E4
330
1F
100
AcDbEntity
  8
0
  6
CONTINUOUS
100
AcDbLine
 10
6.5519248888
 20
9.113784965199998
 30
0.0
 11
6.5519248888
 21
8.984488140099998
 31
0.0
  0
LINE
  5
E5
330
1F
100
AcDbEntity
  8
0
  6
CONTINUOUS
100
AcDbLine
 10
14.74094232799999
 20
9.1296119688
 30
0.0
 11
14.7173737856
 21
9.0558205744
 31
0.0
  0
LINE
  5
E6
330
1F
100
AcDbEntity
  8
0
  6
CONTINUOUS
100
AcDbLine
 10
14.7173737856
 20
9.0558205744
 30
0.0
 11
14.5152211035
 21
9.048813982999998
 31
0.0
  0
LINE
  5
E7
330
1F
100
AcDbEntity
  8
0
  6
CONTINUOUS
100
AcDbLine
 10
14.5152211035
 20
9.048813982999998
 30
0.0
 11
14.1092340627
 21
7.7768869586
 31
0.0
  0
LINE
  5
E8
330
1F
100
AcDbEntity
  8
0
  6
CONTINUOUS
100
AcDbLine
 10
10.8943276328
 20
7.7768869586
 30
0.0
 11
14.1092340627
 21
7.7768869586
 31
0.0
  0
LINE
  5
E9
330
1F
100
AcDbEntity
  8
0
  6
CONTINUOUS
100
AcDbLine
 10
10.75245722789998
 20
6.1553008115
 30
0.0
 11
10.8943276328
 21
7.7768869586
 31
0.0
  0
ARC
  5
EA
330
1F
100
AcDbEntity
  8
0
  6
CONTINUOUS
100
AcDbCircle
 10
9.7385917356
 20
113.1821634647
 30
0.0
 40
107.0316647229496
100
AcDbArc
 50
269.4572531102999
 51
270.5427466968
  0
LINE
  5
EB
330
1F
100
AcDbEntity
  8
0
  6
CONTINUOUS
100
AcDbLine
 10
8.582855478099999
 20
7.7768869586
 30
0.0
 11
8.724725882899999
 21
6.1553008115
 31
0.0
  0
LINE
  5
EC
330
1F
100
AcDbEntity
  8
0
  6
CONTINUOUS
100
AcDbLine
 10
8.582855478099999
 20
7.7768869586
 30
0.0
 11
5.367949048199998
 21
7.7768869586
 31
0.0
  0
LINE
  5
ED
330
1F
100
AcDbEntity
  8
0
  6
CONTINUOUS
100
AcDbLine
 10
4.9619620073
 20
9.048813982999998
 30
0.0
 11
5.367949048199998
 21
7.7768869586
 31
0.0
  0
LINE
  5
EE
330
1F
100
AcDbEntity
  8
0
  6
CONTINUOUS
100
AcDbLine
 10
4.7598093253
 20
9.0558205744
 30
0.0
 11
4.9619620073
 21
9.048813982999998
 31
0.0
  0
LINE
  5
EF
330
1F
100
AcDbEntity
  8
0
  6
CONTINUOUS
100
AcDbLine
 10
4.7362407829
 20
9.1296119688
 30
0.0
 11
4.7598093253
 21
9.0558205744
 31
0.0
  0
ARC
  5
F0
330
1F
100
AcDbEntity
  8
0
  6
CONTINUOUS
100
AcDbCircle
 10
9.739581775599999
 20
9.094251981499999
 30
0.0
 40
0.1724549087456132
100
AcDbArc
 50
269.6710111024
 51
12.2079945504
  0
ARC
  5
F1
330
1F
100
AcDbEntity
  8
0
  6
CONTINUOUS
100
AcDbCircle
 10
9.737660050599998
 20
9.0943001899
 30
0.0
 40
0.1725027893604163
100
AcDbArc
 50
167.8107386128999
 51
270.3093953024999
  0
ARC
  5
F4
330
1F
100
AcDbEntity
  8
0
  6
CONTINUOUS
100
AcDbCircle
 10
9.738588425499999
 20
9.097761437699999
 30
0.0
 40
0.1733531652284757
100
AcDbArc
 50
181.0170524782
 51
359.1070857351
  0
ARC
  5
F7
330
1F
100
AcDbEntity
  8
0
  6
CONTINUOUS
100
AcDbCircle
 10
-0.4068403446000002
 20
6.5519209239
 30
0.0
 40
5.360834547248617
100
AcDbArc
 50
14.6431464199
 51
18.64530445599998
  0
LINE
  5
F8
330
1F
100
AcDbEntity
  8
0
  6
CONTINUOUS
100
AcDbLine
 10
4.672635673399999
 20
8.265825945999999
 30
0.0
 11
4.459948901499998
 21
8.899215681199997
 31
0.0
  0
ARC
  5
F9
330
1F
100
AcDbEntity
  8
0
  6
CONTINUOUS
100
AcDbCircle
 10
6.0529702901
 20
-2.139406443299999
 30
0.0
 40
9.939926002438346
100
AcDbArc
 50
93.9517357473
 51
94.99416474969999
  0
LINE
  5
FA
330
1F
100
AcDbEntity
  8
0
  6
CONTINUOUS
100
AcDbLine
 10
5.683865471099998
 20
6.1971559548
 30
0.0
 11
5.1876571339
 21
7.762753149299999
 31
0.0
  0
LINE
  5
FB
330
1F
100
AcDbEntity
  8
0
  6
CONTINUOUS
100
AcDbLine
 10
5.361388116999998
 20
6.1971564257
 30
0.0
 11
5.683865471099998
 21
6.1971559548
 31
0.0
  0
LINE
  5
FD
330
1F
100
AcDbEntity
  8
0
  6
CONTINUOUS
100
AcDbLine
 10
5.2789674504
 20
6.9658258762
 30
0.0
 11
5.078519137999998
 21
7.599898643999998
 31
0.0
  0
LINE
  5
100
330
1F
100
AcDbEntity
  8
0
  6
CONTINUOUS
100
AcDbLine
 10
14.57385817869998
 20
7.5998984038
 30
0.0
 11
14.36113173779999
 21
6.9658258984
 31
0.0
  0
LINE
  5
103
330
1F
100
AcDbEntity
  8
0
  6
CONTINUOUS
100
AcDbLine
 10
14.85704522059998
 20
8.899211509
 30
0.0
 11
14.6552093046
 21
8.2658259775
 31
0.0
  0
ARC
  5
104
330
1F
100
AcDbEntity
  8
0
  6
CONTINUOUS
100
AcDbCircle
 10
13.4242128207
 20
-2.139406443199999
 30
0.0
 40
9.939926002387712
100
AcDbArc
 50
85.0058352503
 51
86.0482642528
  0
LINE
  5
105
330
1F
100
AcDbEntity
  8
0
  6
CONTINUOUS
100
AcDbLine
 10
13.7933176398
 20
6.1971559548
 30
0.0
 11
14.1159593508
 21
6.1971564259
 31
0.0
  0
LINE
  5
106
330
1F
100
AcDbEntity
  8
0
  6
CONTINUOUS
100
AcDbLine
 10
13.7933176398
 20
6.1971559548
 30
0.0
 11
14.2895259769
 21
7.762753149299999
 31
0.0
  0
LINE
  5
107
330
1F
100
AcDbEntity
  8
0
  6
CONTINUOUS
100
AcDbLine
 10
11.12814643789999
 20
7.762753149299999
 30
0.0
 11
14.2895259769
 21
7.762753149299999
 31
0.0
  0
LINE
  5
108
330
1F
100
AcDbEntity
  8
0
  6
CONTINUOUS
100
AcDbLine
 10
11.12814643789999
 20
7.762753149299999
 30
0.0
 11
10.8943276328
 21
7.7768869586
 31
0.0
  0
LINE
  5
109
330
1F
100
AcDbEntity
  8
0
  6
CONTINUOUS
100
AcDbLine
 10
8.582855478099999
 20
7.7768869586
 30
0.0
 11
8.349036672899996
 21
7.762753149299999
 31
0.0
  0
LINE
  5
10A
330
1F
100
AcDbEntity
  8
0
  6
CONTINUOUS
100
AcDbLine
 10
8.349036672899996
 20
7.762753149299999
 30
0.0
 11
5.1876571339
 21
7.762753149299999
 31
0.0
  0
LINE
  5
10B
330
1F
100
AcDbEntity
  8
0
  6
CONTINUOUS
100
AcDbLine
 10
10.98712687109998
 20
6.1508921247
 30
0.0
 11
11.12814643789999
 21
7.762753149299999
 31
0.0
  0
LINE
  5
10D
330
1F
100
AcDbEntity
  8
0
  6
CONTINUOUS
100
AcDbLine
 10
8.490056239799999
 20
6.1508921247
 30
0.0
 11
8.349036672899996
 21
7.762753149299999
 31
0.0
  0
LINE
  5
10E
330
1F
100
AcDbEntity
  8
0
  6
CONTINUOUS
100
AcDbLine
 10
8.724725882899999
 20
6.1553008115
 30
0.0
 11
8.490056239799999
 21
6.1508921247
 31
0.0
  0
ARC
  5
10F
330
1F
100
AcDbEntity
  8
0
  6
CONTINUOUS
100
AcDbCircle
 10
14.3624970218
 20
443.0781986192998
 30
0.0
 40
436.9672345670716
100
AcDbArc
 50
268.8619703784999
 51
269.2299738411
  0
ARC
  5
110
330
1F
100
AcDbEntity
  8
0
  6
CONTINUOUS
100
AcDbCircle
 10
5.114686089
 20
443.0781986194
 30
0.0
 40
436.9672345672436
100
AcDbArc
 50
270.7700261589
 51
271.1380296215
  0
LINE
  5
111
330
1F
100
AcDbEntity
  8
0
  6
CONTINUOUS
100
AcDbLine
 10
14.85704522059998
 20
8.899211509
 30
0.0
 11
14.7773721374
 21
8.2657212902
 31
0.0
  0
LINE
  5
112
330
1F
100
AcDbEntity
  8
0
  6
CONTINUOUS
100
AcDbLine
 10
14.9141477574
 20
8.2657212902
 30
0.0
 11
15.0097080097
 21
8.899215394
 31
0.0
  0
LINE
  5
114
330
1F
100
AcDbEntity
  8
0
  6
CONTINUOUS
100
AcDbLine
 10
5.1572662649
 20
6.965721290199998
 30
0.0
 11
5.078519137999998
 21
7.599898643999998
 31
0.0
  0
LINE
  5
116
330
1F
100
AcDbEntity
  8
0
  6
CONTINUOUS
100
AcDbLine
 10
4.911716638299998
 20
7.5998982047
 30
0.0
 11
5.007838645799998
 21
6.965721290199998
 31
0.0
  0
LINE
  5
117
330
1F
100
AcDbEntity
  8
0
  6
CONTINUOUS
100
AcDbLine
 10
14.57385817869998
 20
7.5998984038
 30
0.0
 11
14.4847303978
 21
6.965721290199998
 31
0.0
  0
LINE
  5
118
330
1F
100
AcDbEntity
  8
0
  6
CONTINUOUS
100
AcDbLine
 10
4.548980731999999
 20
8.2657212902
 30
0.0
 11
4.459948901499998
 21
8.899215681199997
 31
0.0
  0
LINE
  5
119
330
1F
100
AcDbEntity
  8
0
  6
CONTINUOUS
100
AcDbLine
 10
4.598958924299998
 20
7.9101079744
 30
0.0
 11
4.548980731999999
 21
8.2657212902
 31
0.0
  0
LINE
  5
11A
330
1F
100
AcDbEntity
  8
0
  6
CONTINUOUS
100
AcDbLine
 10
14.4847303978
 20
6.965721290199998
 30
0.0
 11
14.434736882
 21
6.609998941299998
 31
0.0
  0
LINE
  5
11B
330
1F
100
AcDbEntity
  8
0
  6
CONTINUOUS
100
AcDbLine
 10
9.738591555399999
 20
6.0086419274
 30
0.0
 11
9.911924888799999
 21
6.0086419274
 31
0.0
  0
LINE
  5
11C
330
1F
100
AcDbEntity
  8
0
  6
CONTINUOUS
100
AcDbLine
 10
9.5652582221
 20
6.0086419274
 30
0.0
 11
9.738591555399999
 21
6.0086419274
 31
0.0
  0
LINE
  5
11D
330
1F
100
AcDbEntity
  8
0
  6
CONTINUOUS
100
AcDbLine
 10
9.738591555399999
 20
6.117838837599999
 30
0.0
 11
9.3270481357
 21
6.117838837599999
 31
0.0
  0
LINE
  5
11E
330
1F
100
AcDbEntity
  8
0
  6
CONTINUOUS
100
AcDbLine
 10
10.1501349751
 20
6.117838837599999
 30
0.0
 11
9.738591555399999
 21
6.117838837599999
 31
0.0
  0
LINE
  5
11F
330
1F
100
AcDbEntity
  8
0
  6
CONTINUOUS
100
AcDbLine
 10
14.7773721374
 20
8.2657212902
 30
0.0
 11
14.6552093046
 21
8.2658259775
 31
0.0
  0
LINE
  5
120
330
1F
100
AcDbEntity
  8
0
  6
CONTINUOUS
100
AcDbLine
 10
5.1572662649
 20
6.965721290199998
 30
0.0
 11
5.2789674504
 21
6.9658258762
 31
0.0
  0
LINE
  5
121
330
1F
100
AcDbEntity
  8
0
  6
CONTINUOUS
100
AcDbLine
 10
14.4847303978
 20
6.965721290199998
 30
0.0
 11
14.36113173779999
 21
6.9658258984
 31
0.0
  0
LINE
  5
122
330
1F
100
AcDbEntity
  8
0
  6
CONTINUOUS
100
AcDbLine
 10
4.548980731999999
 20
8.2657212902
 30
0.0
 11
4.672635673399999
 21
8.265825945999999
 31
0.0
  0
LINE
  5
123
330
1F
100
AcDbEntity
  8
0
  6
CONTINUOUS
100
AcDbLine
 10
9.738591555399999
 20
6.0959379334
 30
0.0
 11
10.0854034385
 21
6.0959379334
 31
0.0
  0
LINE
  5
124
330
1F
100
AcDbEntity
  8
0
  6
CONTINUOUS
100
AcDbLine
 10
9.3917796724
 20
6.0959379334
 30
0.0
 11
9.738591555399999
 21
6.0959379334
 31
0.0
  0
POINT
  5
194
330
1F
100
AcDbEntity
  8
0
  6
CONTINUOUS
100
AcDbPoint
 10
14.10159330079999
 20
15.3914365466
 30
0.0
  0
POINT
  5
195
330
1F
100
AcDbEntity
  8
0
  6
CONTINUOUS
100
AcDbPoint
 10
5.3755898101
 20
15.3914365466
 30
0.0
  0
POINT
  5
196
330
1F
100
AcDbEntity
  8
0
  6
CONTINUOUS
100
AcDbPoint
 10
7.4052582221
 20
12.5323647336
 30
0.0
  0
LINE
  5
197
330
1F
100
AcDbEntity
  8
0
  6
CONTINUOUS
100
AcDbLine
 10
15.7385915554
 20
12.2247698799
 30
0.0
 11
15.7385915554
 21
18.2247698799
 31
0.0
  0
ARC
  5
198
330
1F
100
AcDbEntity
  8
0
  6
CONTINUOUS
100
AcDbCircle
 10
9.9754655864
 20
15.39147986789999
 30
0.0
 40
5.427475517740049
100
AcDbArc
 50
339.8414291131998
 51
17.3829070908
  0
ARC
  5
199
330
1F
100
AcDbEntity
  8
0
  6
CONTINUOUS
100
AcDbCircle
 10
9.501748494199999
 20
15.3914833485
 30
0.0
 40
5.427504033233096
100
AcDbArc
 50
162.6172256479
 51
200.1584421981998
  0
LINE
  5
19A
330
1F
100
AcDbEntity
  8
0
  6
CONTINUOUS
100
AcDbLine
 10
3.7385915554
 20
18.2247698799
 30
0.0
 11
3.7385915554
 21
12.2247698799
 31
0.0
  0
LINE
  5
19B
330
1F
100
AcDbEntity
  8
0
  6
CONTINUOUS
100
AcDbLine
 10
4.646005125
 20
17.8237504441
 30
0.0
 11
4.765630118699998
 21
17.8237384391
 31
0.0
  0
ARC
  5
19C
330
1F
100
AcDbEntity
  8
0
  6
CONTINUOUS
100
AcDbCircle
 10
9.789426222699999
 20
15.2987293517
 30
0.0
 40
5.729791628477102
100
AcDbArc
 50
153.8525401402999
 51
162.5903199928
  0
ARC
  5
19D
330
1F
100
AcDbEntity
  8
0
  6
CONTINUOUS
100
AcDbCircle
 10
9.687630976099999
 20
15.2986787716
 30
0.0
 40
5.729926944787262
100
AcDbArc
 50
17.4097871324
 51
26.1473590311
  0
LINE
  5
19E
330
1F
100
AcDbEntity
  8
0
  6
CONTINUOUS
100
AcDbLine
 10
14.7115529922
 20
17.8237384391
 30
0.0
 11
14.83117798589999
 21
17.8237504441
 31
0.0
  0
LINE
  5
19F
330
1F
100
AcDbEntity
  8
0
  6
CONTINUOUS
100
AcDbLine
 10
14.7115529922
 20
17.8237384391
 30
0.0
 11
4.765630118699998
 21
17.8237384391
 31
0.0
  0
LINE
  5
1A0
330
1F
100
AcDbEntity
  8
0
  6
CONTINUOUS
100
AcDbLine
 10
15.7385915554
 20
18.2247698799
 30
0.0
 11
3.7385915554
 21
18.2247698799
 31
0.0
  0
ARC
  5
1A1
330
1F
100
AcDbEntity
  8
0
  6
CONTINUOUS
100
AcDbCircle
 10
9.687778646699999
 20
15.4996943093
 30
0.0
 40
5.734810053057405
100
AcDbArc
 50
333.7113456281998
 51
339.8176398781
  0
LINE
  5
1A2
330
1F
100
AcDbEntity
  8
0
  6
CONTINUOUS
100
AcDbLine
 10
14.8294610905
 20
12.95978328869999
 30
0.0
 11
14.7101221907
 21
13.0057033861
 31
0.0
  0
SPLINE
  5
1A3
330
1F
100
AcDbEntity
  8
0
  6
CONTINUOUS
100
AcDbSpline
210
0.0
220
0.0
230
1.0
 70
    12
 71
     3
 72
     8
 73
     4
 74
     0
 42
0.0000000001
 43
0.0000000001
 40
0.0
 40
0.0
 40
0.0
 40
0.0
 40
1.0
 40
1.0
 40
1.0
 40
1.0
 10
14.71012219069486
 20
13.0057033861468
 30
0.0
 41
1.0
 10
15.47195663563194
 20
14.50658332082349
 30
0.0
 41
1.0
 10
15.47195663563194
 20
16.27628977234383
 30
0.0
 41
1.0
 10
14.71012219069486
 20
17.77716970702051
 30
0.0
 41
1.0
  0
LINE
  5
1A4
330
1F
100
AcDbEntity
  8
0
  6
CONTINUOUS
100
AcDbLine
 10
14.7101221907
 20
17.777169707
 30
0.0
 11
14.83117798589999
 21
17.8237504441
 31
0.0
  0
LINE
  5
1A5
330
1F
100
AcDbEntity
  8
0
  6
CONTINUOUS
100
AcDbLine
 10
4.767060920199999
 20
17.777169707
 30
0.0
 11
4.646005125
 21
17.8237504441
 31
0.0
  0
SPLINE
  5
1A6
330
1F
100
AcDbEntity
  8
0
  6
CONTINUOUS
100
AcDbSpline
210
0.0
220
0.0
230
1.0
 70
    12
 71
     3
 72
     8
 73
     4
 74
     0
 42
0.0000000001
 43
0.0000000001
 40
0.0
 40
0.0
 40
0.0
 40
0.0
 40
1.0
 40
1.0
 40
1.0
 40
1.0
 10
4.76706092016583
 20
13.0057033861468
 30
0.0
 41
1.0
 10
4.005226475228747
 20
14.50658332082349
 30
0.0
 41
1.0
 10
4.005226475228748
 20
16.27628977234383
 30
0.0
 41
1.0
 10
4.76706092016583
 20
17.77716970702051
 30
0.0
 41
1.0
  0
LINE
  5
1A7
330
1F
100
AcDbEntity
  8
0
  6
CONTINUOUS
100
AcDbLine
 10
4.647722020399998
 20
12.95978328869999
 30
0.0
 11
4.767060920199999
 21
13.0057033861
 31
0.0
  0
ARC
  5
1A8
330
1F
100
AcDbEntity
  8
0
  6
CONTINUOUS
100
AcDbCircle
 10
9.789454410599999
 20
15.49971573799999
 30
0.0
 40
5.734864324469784
100
AcDbArc
 50
200.1823888655
 51
206.2886253133999
  0
LINE
  5
1AB
330
1F
100
AcDbEntity
  8
0
  6
CONTINUOUS
100
AcDbLine
 10
3.7385915554
 20
12.2247698799
 30
0.0
 11
15.7385915554
 21
12.2247698799
 31
0.0
  0
LINE
  5
1AC
330
1F
100
AcDbEntity
  8
0
  6
CONTINUOUS
100
AcDbLine
 10
5.1020884601
 20
12.959994188
 30
0.0
 11
6.571924888799999
 21
12.959994188
 31
0.0
  0
LINE
  5
1AD
330
1F
100
AcDbEntity
  8
0
  6
CONTINUOUS
100
AcDbLine
 10
6.571924888799999
 20
12.959994188
 30
0.0
 11
6.571924888799999
 21
12.4921241738
 31
0.0
  0
LINE
  5
1AE
330
1F
100
AcDbEntity
  8
0
  6
CONTINUOUS
100
AcDbLine
 10
6.571924888799999
 20
12.4921241738
 30
0.0
 11
8.238591555399999
 21
12.4921241738
 31
0.0
  0
LINE
  5
1AF
330
1F
100
AcDbEntity
  8
0
  6
CONTINUOUS
100
AcDbLine
 10
8.238591555399999
 20
12.959994188
 30
0.0
 11
8.238591555399999
 21
12.4921241738
 31
0.0
  0
LINE
  5
1B0
330
1F
100
AcDbEntity
  8
0
  6
CONTINUOUS
100
AcDbLine
 10
8.238591555399999
 20
12.959994188
 30
0.0
 11
11.23859155539999
 21
12.959994188
 31
0.0
  0
LINE
  5
1B1
330
1F
100
AcDbEntity
  8
0
  6
CONTINUOUS
100
AcDbLine
 10
11.23859155539999
 20
12.4921241738
 30
0.0
 11
11.23859155539999
 21
12.959994188
 31
0.0
  0
LINE
  5
1B2
330
1F
100
AcDbEntity
  8
0
  6
CONTINUOUS
100
AcDbLine
 10
12.9052582221
 20
12.4921241738
 30
0.0
 11
11.23859155539999
 21
12.4921241738
 31
0.0
  0
LINE
  5
1B3
330
1F
100
AcDbEntity
  8
0
  6
CONTINUOUS
100
AcDbLine
 10
12.9052582221
 20
12.4921241738
 30
0.0
 11
12.9052582221
 21
12.959994188
 31
0.0
  0
LINE
  5
1B4
330
1F
100
AcDbEntity
  8
0
  6
CONTINUOUS
100
AcDbLine
 10
12.9052582221
 20
12.959994188
 30
0.0
 11
14.37509465079998
 21
12.959994188
 31
0.0
  0
LINE
  5
1B5
330
1F
100
AcDbEntity
  8
0
  6
CONTINUOUS
100
AcDbLine
 10
12.9052582221
 20
12.5323647336
 30
0.0
 11
11.23859155539999
 21
12.5323647336
 31
0.0
  0
LINE
  5
1B6
330
1F
100
AcDbEntity
  8
0
  6
CONTINUOUS
100
AcDbLine
 10
6.571924888799999
 20
12.5323647336
 30
0.0
 11
8.238591555399999
 21
12.5323647336
 31
0.0
  0
LINE
  5
1B7
330
1F
100
AcDbEntity
  8
0
  6
CONTINUOUS
100
AcDbLine
 10
14.50788544
 20
17.77630903369998
 30
0.0
 11
14.7101221907
 21
17.777169707
 31
0.0
  0
LINE
  5
1B8
330
1F
100
AcDbEntity
  8
0
  6
CONTINUOUS
100
AcDbLine
 10
14.50788544
 20
17.77630903369998
 30
0.0
 11
14.1019986721
 21
17.62012894509998
 31
0.0
  0
LINE
  5
1B9
330
1F
100
AcDbEntity
  8
0
  6
CONTINUOUS
100
AcDbLine
 10
10.88440599459999
 20
17.62012894509998
 30
0.0
 11
14.1019986721
 21
17.62012894509998
 31
0.0
  0
LINE
  5
1BA
330
1F
100
AcDbEntity
  8
0
  6
CONTINUOUS
100
AcDbLine
 10
10.88440599459999
 20
17.62012894509998
 30
0.0
 11
10.74255364829998
 21
17.42104854589999
 31
0.0
  0
LINE
  5
1BC
330
1F
100
AcDbEntity
  8
0
  6
CONTINUOUS
100
AcDbLine
 10
8.734629462599999
 20
17.42104854589999
 30
0.0
 11
8.5927771162
 21
17.62012894509998
 31
0.0
  0
LINE
  5
1BD
330
1F
100
AcDbEntity
  8
0
  6
CONTINUOUS
100
AcDbLine
 10
8.5927771162
 20
17.62012894509998
 30
0.0
 11
5.375184438799998
 21
17.62012894509998
 31
0.0
  0
LINE
  5
1BE
330
1F
100
AcDbEntity
  8
0
  6
CONTINUOUS
100
AcDbLine
 10
4.969297670899998
 20
17.77630903369998
 30
0.0
 11
5.375184438799998
 21
17.62012894509998
 31
0.0
  0
LINE
  5
1BF
330
1F
100
AcDbEntity
  8
0
  6
CONTINUOUS
100
AcDbLine
 10
4.969297670899998
 20
17.77630903369998
 30
0.0
 11
4.767060920199999
 21
17.777169707
 31
0.0
  0
LINE
  5
1C0
330
1F
100
AcDbEntity
  8
0
  6
CONTINUOUS
100
AcDbLine
 10
4.767060920199999
 20
13.0057033861
 30
0.0
 11
4.969297670899998
 21
13.0065640595
 31
0.0
  0
LINE
  5
1C1
330
1F
100
AcDbEntity
  8
0
  6
CONTINUOUS
100
AcDbLine
 10
4.969297670899998
 20
13.0065640595
 30
0.0
 11
5.375184438799998
 21
13.1627441481
 31
0.0
  0
LINE
  5
1C2
330
1F
100
AcDbEntity
  8
0
  6
CONTINUOUS
100
AcDbLine
 10
8.5927771162
 20
13.1627441481
 30
0.0
 11
5.375184438799998
 21
13.1627441481
 31
0.0
  0
LINE
  5
1C3
330
1F
100
AcDbEntity
  8
0
  6
CONTINUOUS
100
AcDbLine
 10
8.5927771162
 20
13.1627441481
 30
0.0
 11
8.734629462599999
 21
13.3618245473
 31
0.0
  0
LINE
  5
1C5
330
1F
100
AcDbEntity
  8
0
  6
CONTINUOUS
100
AcDbLine
 10
10.74255364829998
 20
13.3618245473
 30
0.0
 11
10.88440599459999
 21
13.1627441481
 31
0.0
  0
LINE
  5
1C6
330
1F
100
AcDbEntity
  8
0
  6
CONTINUOUS
100
AcDbLine
 10
10.88440599459999
 20
13.1627441481
 30
0.0
 11
14.1019986721
 21
13.1627441481
 31
0.0
  0
LINE
  5
1C7
330
1F
100
AcDbEntity
  8
0
  6
CONTINUOUS
100
AcDbLine
 10
14.50788544
 20
13.0065640595
 30
0.0
 11
14.1019986721
 21
13.1627441481
 31
0.0
  0
LINE
  5
1C8
330
1F
100
AcDbEntity
  8
0
  6
CONTINUOUS
100
AcDbLine
 10
14.7101221907
 20
13.0057033861
 30
0.0
 11
14.50788544
 21
13.0065640595
 31
0.0
  0
LINE
  5
1C9
330
1F
100
AcDbEntity
  8
0
  6
CONTINUOUS
100
AcDbLine
 10
12.9052582221
 20
13.0149070541
 30
0.0
 11
11.23859155539999
 21
13.0149070541
 31
0.0
  0
LINE
  5
1CA
330
1F
100
AcDbEntity
  8
0
  6
CONTINUOUS
100
AcDbLine
 10
6.571924888799999
 20
13.0149070541
 30
0.0
 11
8.238591555399999
 21
13.0149070541
 31
0.0
  0
LINE
  5
1CC
330
1F
100
AcDbEntity
  8
0
  6
CONTINUOUS
100
AcDbLine
 10
8.238591555399999
 20
13.0149070541
 30
0.0
 11
8.238591555399999
 21
12.959994188
 31
0.0
  0
LINE
  5
1CD
330
1F
100
AcDbEntity
  8
0
  6
CONTINUOUS
100
AcDbLine
 10
11.23859155539999
 20
13.0149070541
 30
0.0
 11
11.23859155539999
 21
12.959994188
 31
0.0
  0
LINE
  5
1CE
330
1F
100
AcDbEntity
  8
0
  6
CONTINUOUS
100
AcDbLine
 10
12.9052582221
 20
13.0149070541
 30
0.0
 11
12.9052582221
 21
12.959994188
 31
0.0
  0
LINE
  5
1CF
330
1F
100
AcDbEntity
  8
0
  6
CONTINUOUS
100
AcDbLine
 10
6.571924888799999
 20
13.0149070541
 30
0.0
 11
6.571924888799999
 21
12.959994188
 31
0.0
  0
ARC
  5
1D0
330
1F
100
AcDbEntity
  8
0
  6
CONTINUOUS
100
AcDbCircle
 10
9.758981269799999
 20
12.1834845203
 30
0.0
 40
0.8211659744867509
100
AcDbArc
 50
80.7060386344
 51
91.42281182000001
  0
ARC
  5
1D1
330
1F
100
AcDbEntity
  8
0
  6
CONTINUOUS
100
AcDbCircle
 10
9.7182018411
 20
12.1834845203
 30
0.0
 40
0.8211659744925082
100
AcDbArc
 50
88.57718818
 51
99.29396136560001
  0
ARC
  5
1D2
330
1F
100
AcDbEntity
  8
0
  6
CONTINUOUS
100
AcDbCircle
 10
-1.684655715299999
 20
17.64973474569998
 30
0.0
 40
6.842132969460947
100
AcDbArc
 50
345.3785057888
 51
352.2492231413998
  0
LINE
  5
1D3
330
1F
100
AcDbEntity
  8
0
  6
CONTINUOUS
100
AcDbLine
 10
5.1511310728
 20
15.92279185609998
 30
0.0
 11
4.9358916298
 21
15.922558894
 31
0.0
  0
LINE
  5
1D5
330
1F
100
AcDbEntity
  8
0
  6
CONTINUOUS
100
AcDbLine
 10
5.0949679986
 20
16.7269808659
 30
0.0
 11
5.293895072599998
 21
16.6448450128
 31
0.0
  0
ARC
  5
1D6
330
1F
100
AcDbEntity
  8
0
  6
CONTINUOUS
100
AcDbCircle
 10
-2.9802146491
 20
15.39144990619998
 30
0.0
 40
7.472030706358427
100
AcDbArc
 50
356.8544240142998
 51
3.145575985699998
  0
LINE
  5
1D7
330
1F
100
AcDbEntity
  8
0
  6
CONTINUOUS
100
AcDbLine
 10
4.691851527499999
 20
15.0234168451
 30
0.0
 11
4.4805582279
 21
14.9814365466
 31
0.0
  0
LINE
  5
1D9
330
1F
100
AcDbEntity
  8
0
  6
CONTINUOUS
100
AcDbLine
 10
4.4805582279
 20
15.8014365466
 30
0.0
 11
4.691851527499999
 21
15.759456248
 31
0.0
  0
ARC
  5
1DA
330
1F
100
AcDbEntity
  8
0
  6
CONTINUOUS
100
AcDbCircle
 10
9.7382459407
 20
15.3914374429
 30
0.0
 40
4.362654301573721
100
AcDbArc
 50
158.0356411332998
 51
201.9643588666999
  0
LINE
  5
1DB
330
1F
100
AcDbEntity
  8
0
  6
CONTINUOUS
100
AcDbLine
 10
5.692247480199998
 20
13.759674895
 30
0.0
 11
5.1961578905
 21
13.5674834918
 31
0.0
  0
ARC
  5
1DC
330
1F
100
AcDbEntity
  8
0
  6
CONTINUOUS
100
AcDbCircle
 10
9.736460779399999
 20
15.33381215609999
 30
0.0
 40
4.871782796319532
100
AcDbArc
 50
201.2576895583999
 51
206.4643813706
  0
ARC
  5
1DD
330
1F
100
AcDbEntity
  8
0
  6
CONTINUOUS
100
AcDbCircle
 10
9.738160562699999
 20
15.3914368573
 30
0.0
 40
5.331948193909065
100
AcDbArc
 50
153.4307068615999
 51
206.5692931384
  0
ARC
  5
1DE
330
1F
100
AcDbEntity
  8
0
  6
CONTINUOUS
100
AcDbCircle
 10
9.7364609158
 20
15.4490608767
 30
0.0
 40
4.871782945276183
100
AcDbArc
 50
153.5356187089
 51
158.7423103618
  0
LINE
  5
1DF
330
1F
100
AcDbEntity
  8
0
  6
CONTINUOUS
100
AcDbLine
 10
5.1961578905
 20
17.2153896013
 30
0.0
 11
5.692247480199998
 21
17.0231981982
 31
0.0
  0
ARC
  5
1E0
330
1F
100
AcDbEntity
  8
0
  6
CONTINUOUS
100
AcDbCircle
 10
-1.684633906
 20
13.1331531847
 30
0.0
 40
6.842108543900915
100
AcDbArc
 50
7.7506282656
 51
14.6214336631
  0
LINE
  5
1E1
330
1F
100
AcDbEntity
  8
0
  6
CONTINUOUS
100
AcDbLine
 10
5.293895072599998
 20
14.13802808039999
 30
0.0
 11
5.0949679986
 21
14.05589222729999
 31
0.0
  0
LINE
  5
1E3
330
1F
100
AcDbEntity
  8
0
  6
CONTINUOUS
100
AcDbLine
 10
4.9358916298
 20
14.8603141992
 30
0.0
 11
5.1511310728
 21
14.860081237
 31
0.0
  0
ARC
  5
1E4
330
1F
100
AcDbEntity
  8
0
  6
CONTINUOUS
100
AcDbCircle
 10
21.38302886079999
 20
15.391431393
 30
0.0
 40
6.842171427176127
100
AcDbArc
 50
176.564592572
 51
183.435407428
  0
LINE
  5
1E5
330
1F
100
AcDbEntity
  8
0
  6
CONTINUOUS
100
AcDbLine
 10
14.3420450799
 20
15.75945256309998
 30
0.0
 11
14.553152902
 21
15.8014365466
 31
0.0
  0
LINE
  5
1E7
330
1F
100
AcDbEntity
  8
0
  6
CONTINUOUS
100
AcDbLine
 10
14.553152902
 20
14.9814365466
 30
0.0
 11
14.3420450799
 21
15.0234205301
 31
0.0
  0
ARC
  5
1E8
330
1F
100
AcDbEntity
  8
0
  6
CONTINUOUS
100
AcDbCircle
 10
22.2569766438
 20
13.1329892594
 30
0.0
 40
7.473728996855638
100
AcDbArc
 50
166.6269724188
 51
172.916472727
  0
LINE
  5
1E9
330
1F
100
AcDbEntity
  8
0
  6
CONTINUOUS
100
AcDbLine
 10
14.7705051647
 20
14.85779451229999
 30
0.0
 11
14.9858987991
 21
14.8615875628
 31
0.0
  0
LINE
  5
1EB
330
1F
100
AcDbEntity
  8
0
  6
CONTINUOUS
100
AcDbLine
 10
14.8402913864
 20
14.05461886369999
 30
0.0
 11
14.63977417029999
 21
14.1334571642
 31
0.0
  0
ARC
  5
1EC
330
1F
100
AcDbEntity
  8
0
  6
CONTINUOUS
100
AcDbCircle
 10
9.738999732399999
 20
15.3914436462
 30
0.0
 40
4.362598600653701
100
AcDbArc
 50
338.035258253
 51
21.964741747
  0
LINE
  5
1ED
330
1F
100
AcDbEntity
  8
0
  6
CONTINUOUS
100
AcDbLine
 10
14.2810252203
 20
17.2153896013
 30
0.0
 11
13.7849356306
 21
17.0231981982
 31
0.0
  0
ARC
  5
1EE
330
1F
100
AcDbEntity
  8
0
  6
CONTINUOUS
100
AcDbCircle
 10
9.7407221951
 20
15.4490608767
 30
0.0
 40
4.871782945273722
100
AcDbArc
 50
21.2576896382
 51
26.4643812911
  0
ARC
  5
1EF
330
1F
100
AcDbEntity
  8
0
  6
CONTINUOUS
100
AcDbCircle
 10
9.739022548200001
 20
15.3914362359
 30
0.0
 40
5.331948193909092
100
AcDbArc
 50
333.4307068616
 51
26.5692931384
  0
ARC
  5
1F0
330
1F
100
AcDbEntity
  8
0
  6
CONTINUOUS
100
AcDbCircle
 10
9.740722331499998
 20
15.33381215609999
 30
0.0
 40
4.871782796315313
100
AcDbArc
 50
333.5356186294
 51
338.7423104416
  0
LINE
  5
1F1
330
1F
100
AcDbEntity
  8
0
  6
CONTINUOUS
100
AcDbLine
 10
13.7849356306
 20
13.759674895
 30
0.0
 11
14.2810252203
 21
13.5674834918
 31
0.0
  0
ARC
  5
1F2
330
1F
100
AcDbEntity
  8
0
  6
CONTINUOUS
100
AcDbCircle
 10
22.257022921
 20
17.649865021
 30
0.0
 40
7.473772347842611
100
AcDbArc
 50
187.0833247827
 51
193.3728916265
  0
LINE
  5
1F3
330
1F
100
AcDbEntity
  8
0
  6
CONTINUOUS
100
AcDbLine
 10
14.63977417029999
 20
16.64941592899999
 30
0.0
 11
14.8402913864
 21
16.72825422949999
 31
0.0
  0
LINE
  5
1F5
330
1F
100
AcDbEntity
  8
0
  6
CONTINUOUS
100
AcDbLine
 10
14.9858987991
 20
15.9212855304
 30
0.0
 11
14.7705051647
 21
15.9250785809
 31
0.0
  0
LINE
  5
1F6
330
1F
100
AcDbEntity
  8
0
  6
CONTINUOUS
100
AcDbLine
 10
14.8402913864
 20
14.05461886369999
 30
0.0
 11
14.7611733424
 21
14.1140337271
 31
0.0
  0
LINE
  5
1F8
330
1F
100
AcDbEntity
  8
0
  6
CONTINUOUS
100
AcDbLine
 10
14.89100484529999
 20
14.8335709889
 30
0.0
 11
14.9858987991
 21
14.8615875628
 31
0.0
  0
LINE
  5
1F9
330
1F
100
AcDbEntity
  8
0
  6
CONTINUOUS
100
AcDbLine
 10
4.4805582279
 20
15.8014365466
 30
0.0
 11
4.568969239599999
 21
15.7570148864
 31
0.0
  0
LINE
  5
1FB
330
1F
100
AcDbEntity
  8
0
  6
CONTINUOUS
100
AcDbLine
 10
4.568969239599999
 20
15.0258582067
 30
0.0
 11
4.4805582279
 21
14.9814365466
 31
0.0
  0
LINE
  5
1FC
330
1F
100
AcDbEntity
  8
0
  6
CONTINUOUS
100
AcDbLine
 10
14.9858987991
 20
15.9212855304
 30
0.0
 11
14.89100484529999
 21
15.9493021043
 31
0.0
  0
LINE
  5
1FE
330
1F
100
AcDbEntity
  8
0
  6
CONTINUOUS
100
AcDbLine
 10
14.7611733424
 20
16.66883936609998
 30
0.0
 11
14.8402913864
 21
16.72825422949999
 31
0.0
  0
LINE
  5
1FF
330
1F
100
AcDbEntity
  8
0
  6
CONTINUOUS
100
AcDbLine
 10
8.3589583111
 20
17.2153896013
 30
0.0
 11
5.1961578905
 21
17.2153896013
 31
0.0
  0
LINE
  5
200
330
1F
100
AcDbEntity
  8
0
  6
CONTINUOUS
100
AcDbLine
 10
8.3589583111
 20
17.2153896013
 30
0.0
 11
8.5927771162
 21
17.62012894509998
 31
0.0
  0
LINE
  5
201
330
1F
100
AcDbEntity
  8
0
  6
CONTINUOUS
100
AcDbLine
 10
11.1182247998
 20
17.2153896013
 30
0.0
 11
14.2810252203
 21
17.2153896013
 31
0.0
  0
LINE
  5
202
330
1F
100
AcDbEntity
  8
0
  6
CONTINUOUS
100
AcDbLine
 10
10.88440599459999
 20
17.62012894509998
 30
0.0
 11
11.1182247998
 21
17.2153896013
 31
0.0
  0
LINE
  5
203
330
1F
100
AcDbEntity
  8
0
  6
CONTINUOUS
100
AcDbLine
 10
11.1182247998
 20
13.5674834918
 30
0.0
 11
14.2810252203
 21
13.5674834918
 31
0.0
  0
LINE
  5
204
330
1F
100
AcDbEntity
  8
0
  6
CONTINUOUS
100
AcDbLine
 10
11.1182247998
 20
13.5674834918
 30
0.0
 11
10.88440599459999
 21
13.1627441481
 31
0.0
  0
LINE
  5
205
330
1F
100
AcDbEntity
  8
0
  6
CONTINUOUS
100
AcDbLine
 10
8.5927771162
 20
13.1627441481
 30
0.0
 11
8.3589583111
 21
13.5674834918
 31
0.0
  0
LINE
  5
206
330
1F
100
AcDbEntity
  8
0
  6
CONTINUOUS
100
AcDbLine
 10
8.3589583111
 20
13.5674834918
 30
0.0
 11
5.1961578905
 21
13.5674834918
 31
0.0
  0
LINE
  5
207
330
1F
100
AcDbEntity
  8
0
  6
CONTINUOUS
100
AcDbLine
 10
8.499959508199999
 20
17.0175037339
 30
0.0
 11
8.3589583111
 21
17.2153896013
 31
0.0
  0
LINE
  5
208
330
1F
100
AcDbEntity
  8
0
  6
CONTINUOUS
100
AcDbLine
 10
8.499959508199999
 20
17.0175037339
 30
0.0
 11
8.734629462599999
 21
17.42104854589999
 31
0.0
  0
LINE
  5
209
330
1F
100
AcDbEntity
  8
0
  6
CONTINUOUS
100
AcDbLine
 10
10.9772236027
 20
17.0175037339
 30
0.0
 11
11.1182247998
 21
17.2153896013
 31
0.0
  0
LINE
  5
20A
330
1F
100
AcDbEntity
  8
0
  6
CONTINUOUS
100
AcDbLine
 10
10.74255364829998
 20
17.42104854589999
 30
0.0
 11
10.9772236027
 21
17.0175037339
 31
0.0
  0
LINE
  5
20B
330
1F
100
AcDbEntity
  8
0
  6
CONTINUOUS
100
AcDbLine
 10
10.9772236027
 20
13.7653693593
 30
0.0
 11
11.1182247998
 21
13.5674834918
 31
0.0
  0
LINE
  5
20C
330
1F
100
AcDbEntity
  8
0
  6
CONTINUOUS
100
AcDbLine
 10
10.9772236027
 20
13.7653693593
 30
0.0
 11
10.74255364829998
 21
13.3618245473
 31
0.0
  0
LINE
  5
20D
330
1F
100
AcDbEntity
  8
0
  6
CONTINUOUS
100
AcDbLine
 10
8.499959508199999
 20
13.7653693593
 30
0.0
 11
8.3589583111
 21
13.5674834918
 31
0.0
  0
LINE
  5
20E
330
1F
100
AcDbEntity
  8
0
  6
CONTINUOUS
100
AcDbLine
 10
8.734629462599999
 20
13.3618245473
 30
0.0
 11
8.499959508199999
 21
13.7653693593
 31
0.0
  0
LINE
  5
213
330
1F
100
AcDbEntity
  8
0
  6
CONTINUOUS
100
AcDbLine
 10
4.9358916298
 20
14.8603141992
 30
0.0
 11
5.0312406503
 21
14.8338877885
 31
0.0
  0
LINE
  5
215
330
1F
100
AcDbEntity
  8
0
  6
CONTINUOUS
100
AcDbLine
 10
5.1730818084
 20
14.1166213275
 30
0.0
 11
5.0949679986
 21
14.05589222729999
 31
0.0
  0
LINE
  5
216
330
1F
100
AcDbEntity
  8
0
  6
CONTINUOUS
100
AcDbLine
 10
5.0949679986
 20
16.7269808659
 30
0.0
 11
5.1730818084
 21
16.6662517657
 31
0.0
  0
LINE
  5
218
330
1F
100
AcDbEntity
  8
0
  6
CONTINUOUS
100
AcDbLine
 10
5.0312406503
 20
15.9489853046
 30
0.0
 11
4.9358916298
 21
15.922558894
 31
0.0
  0
LINE
  5
219
330
1F
100
AcDbEntity
  8
0
  6
CONTINUOUS
100
AcDbLine
 10
14.553152902
 20
14.9814365466
 30
0.0
 11
14.46474189019999
 21
15.0258582067
 31
0.0
  0
LINE
  5
21B
330
1F
100
AcDbEntity
  8
0
  6
CONTINUOUS
100
AcDbLine
 10
14.46474189019999
 20
15.7570148864
 30
0.0
 11
14.553152902
 21
15.8014365466
 31
0.0
  0
CIRCLE
  5
21C
330
1F
100
AcDbEntity
  8
0
  6
CONTINUOUS
100
AcDbCircle
 10
9.738591555399999
 20
15.3914365466
 30
0.0
 40
0.1733333333333338
  0
LINE
  5
21D
330
1F
100
AcDbEntity
  8
0
  6
CONTINUOUS
100
AcDbLine
 10
14.7611733424
 20
14.1140337271
 30
0.0
 11
14.63977417029999
 21
14.1334571642
 31
0.0
  0
LINE
  5
21E
330
1F
100
AcDbEntity
  8
0
  6
CONTINUOUS
100
AcDbLine
 10
14.7611733424
 20
16.66883936609998
 30
0.0
 11
14.63977417029999
 21
16.64941592899999
 31
0.0
  0
LINE
  5
21F
330
1F
100
AcDbEntity
  8
0
  6
CONTINUOUS
100
AcDbLine
 10
4.568969239599999
 20
15.7570148864
 30
0.0
 11
4.691851527499999
 21
15.759456248
 31
0.0
  0
LINE
  5
220
330
1F
100
AcDbEntity
  8
0
  6
CONTINUOUS
100
AcDbLine
 10
14.89100484529999
 20
15.9493021043
 30
0.0
 11
14.7705051647
 21
15.9250785809
 31
0.0
  0
LINE
  5
221
330
1F
100
AcDbEntity
  8
0
  6
CONTINUOUS
100
AcDbLine
 10
4.568969239599999
 20
15.0258582067
 30
0.0
 11
4.691851527499999
 21
15.0234168451
 31
0.0
  0
LINE
  5
222
330
1F
100
AcDbEntity
  8
0
  6
CONTINUOUS
100
AcDbLine
 10
14.89100484529999
 20
14.8335709889
 30
0.0
 11
14.7705051647
 21
14.85779451229999
 31
0.0
  0
LINE
  5
223
330
1F
100
AcDbEntity
  8
0
  6
CONTINUOUS
100
AcDbLine
 10
5.0312406503
 20
14.8338877885
 30
0.0
 11
5.1511310728
 21
14.860081237
 31
0.0
  0
LINE
  5
224
330
1F
100
AcDbEntity
  8
0
  6
CONTINUOUS
100
AcDbLine
 10
14.46474189019999
 20
15.0258582067
 30
0.0
 11
14.3420450799
 21
15.0234205301
 31
0.0
  0
LINE
  5
225
330
1F
100
AcDbEntity
  8
0
  6
CONTINUOUS
100
AcDbLine
 10
5.1730818084
 20
16.6662517657
 30
0.0
 11
5.293895072599998
 21
16.6448450128
 31
0.0
  0
LINE
  5
226
330
1F
100
AcDbEntity
  8
0
  6
CONTINUOUS
100
AcDbLine
 10
5.0312406503
 20
15.9489853046
 30
0.0
 11
5.1511310728
 21
15.92279185609998
 31
0.0
  0
LINE
  5
227
330
1F
100
AcDbEntity
  8
0
  6
CONTINUOUS
100
AcDbLine
 10
14.46474189019999
 20
15.7570148864
 30
0.0
 11
14.3420450799
 21
15.75945256309998
 31
0.0
  0
LINE
  5
228
330
1F
100
AcDbEntity
  8
0
  6
CONTINUOUS
100
AcDbLine
 10
5.1730818084
 20
14.1166213275
 30
0.0
 11
5.293895072599998
 21
14.13802808039999
 31
0.0
  0
CIRCLE
  5
229
330
1F
100
AcDbEntity
  8
0
  6
CONTINUOUS
100
AcDbCircle
 10
9.738591555399999
 20
15.3914365466
 30
0.0
 40
0.4111434996699386
  0
CIRCLE
  5
22A
330
1F
100
AcDbEntity
  8
0
  6
CONTINUOUS
100
AcDbCircle
 10
9.738591555399999
 20
15.3914365466
 30
0.0
 40
0.3349887506559366
  0
LINE
  5
341
330
1F
100
AcDbEntity
  8
0
  6
CONTINUOUS
100
AcDbLine
 10
7.805258222099999
 20
13.1615165137
 30
0.0
 11
7.4052582221
 21
13.1615165137
 31
0.0
  0
LINE
  5
48B
330
1F
100
AcDbEntity
  8
0
  6
CONTINUOUS
100
AcDbLine
 10
14.89100484529999
 20
15.9493021043
 30
0.0
 11
14.8886071569
 21
15.9503246919
 31
0.0
  0
LINE
  5
48C
330
1F
100
AcDbEntity
  8
0
  6
CONTINUOUS
100
AcDbLine
 10
14.8886071569
 20
15.9503246919
 30
0.0
 11
14.8861009448
 21
15.95200812539999
 31
0.0
  0
LINE
  5
48D
330
1F
100
AcDbEntity
  8
0
  6
CONTINUOUS
100
AcDbLine
 10
14.8861009448
 20
15.95200812539999
 30
0.0
 11
14.8834908176
 21
15.9543493093
 31
0.0
  0
LINE
  5
48E
330
1F
100
AcDbEntity
  8
0
  6
CONTINUOUS
100
AcDbLine
 10
14.8834908176
 20
15.9543493093
 30
0.0
 11
14.8807815748
 21
15.95734393839999
 31
0.0
  0
LINE
  5
48F
330
1F
100
AcDbEntity
  8
0
  6
CONTINUOUS
100
AcDbLine
 10
14.8807815748
 20
15.95734393839999
 30
0.0
 11
14.87797819849999
 21
15.9609865061
 31
0.0
  0
LINE
  5
490
330
1F
100
AcDbEntity
  8
0
  6
CONTINUOUS
100
AcDbLine
 10
14.87797819849999
 20
15.9609865061
 30
0.0
 11
14.87508584359999
 21
15.9652703141
 31
0.0
  0
LINE
  5
491
330
1F
100
AcDbEntity
  8
0
  6
CONTINUOUS
100
AcDbLine
 10
14.87508584359999
 20
15.9652703141
 30
0.0
 11
14.87210982869998
 21
15.9701874851
 31
0.0
  0
LINE
  5
492
330
1F
100
AcDbEntity
  8
0
  6
CONTINUOUS
100
AcDbLine
 10
14.87210982869998
 20
15.9701874851
 30
0.0
 11
14.8690556264
 21
15.9757289771
 31
0.0
  0
LINE
  5
493
330
1F
100
AcDbEntity
  8
0
  6
CONTINUOUS
100
AcDbLine
 10
14.8690556264
 20
15.9757289771
 30
0.0
 11
14.8659288529
 21
15.9818846002
 31
0.0
  0
LINE
  5
494
330
1F
100
AcDbEntity
  8
0
  6
CONTINUOUS
100
AcDbLine
 10
14.8659288529
 20
15.9818846002
 30
0.0
 11
14.86273525789999
 21
15.9886430348
 31
0.0
  0
LINE
  5
495
330
1F
100
AcDbEntity
  8
0
  6
CONTINUOUS
100
AcDbLine
 10
14.86273525789999
 20
15.9886430348
 30
0.0
 11
14.859480714
 21
15.99599185329998
 31
0.0
  0
LINE
  5
496
330
1F
100
AcDbEntity
  8
0
  6
CONTINUOUS
100
AcDbLine
 10
14.859480714
 20
15.99599185329998
 30
0.0
 11
14.85617120589999
 21
16.0039175422
 31
0.0
  0
LINE
  5
497
330
1F
100
AcDbEntity
  8
0
  6
CONTINUOUS
100
AcDbLine
 10
14.85617120589999
 20
16.0039175422
 30
0.0
 11
14.8528128192
 21
16.0124055272
 31
0.0
  0
LINE
  5
498
330
1F
100
AcDbEntity
  8
0
  6
CONTINUOUS
100
AcDbLine
 10
14.8528128192
 20
16.0124055272
 30
0.0
 11
14.8494117296
 21
16.02144020009999
 31
0.0
  0
LINE
  5
499
330
1F
100
AcDbEntity
  8
0
  6
CONTINUOUS
100
AcDbLine
 10
14.8494117296
 20
16.02144020009999
 30
0.0
 11
14.84597419119999
 21
16.0310049474
 31
0.0
  0
LINE
  5
49A
330
1F
100
AcDbEntity
  8
0
  6
CONTINUOUS
100
AcDbLine
 10
14.84597419119999
 20
16.0310049474
 30
0.0
 11
14.8425065251
 21
16.04108218089999
 31
0.0
  0
LINE
  5
49B
330
1F
100
AcDbEntity
  8
0
  6
CONTINUOUS
100
AcDbLine
 10
14.8425065251
 20
16.04108218089999
 30
0.0
 11
14.83901510799999
 21
16.0516533698
 31
0.0
  0
LINE
  5
49C
330
1F
100
AcDbEntity
  8
0
  6
CONTINUOUS
100
AcDbLine
 10
14.83901510799999
 20
16.0516533698
 30
0.0
 11
14.8355063601
 21
16.06269907529998
 31
0.0
  0
LINE
  5
49D
330
1F
100
AcDbEntity
  8
0
  6
CONTINUOUS
100
AcDbLine
 10
14.8355063601
 20
16.06269907529998
 30
0.0
 11
14.83198673329999
 21
16.0741989859
 31
0.0
  0
LINE
  5
49E
330
1F
100
AcDbEntity
  8
0
  6
CONTINUOUS
100
AcDbLine
 10
14.83198673329999
 20
16.0741989859
 30
0.0
 11
14.82846269999999
 21
16.0861319547
 31
0.0
  0
LINE
  5
49F
330
1F
100
AcDbEntity
  8
0
  6
CONTINUOUS
100
AcDbLine
 10
14.82846269999999
 20
16.0861319547
 30
0.0
 11
14.8249407402
 21
16.0984760388
 31
0.0
  0
LINE
  5
4A0
330
1F
100
AcDbEntity
  8
0
  6
CONTINUOUS
100
AcDbLine
 10
14.8249407402
 20
16.0984760388
 30
0.0
 11
14.82142733039998
 21
16.111208539
 31
0.0
  0
LINE
  5
4A1
330
1F
100
AcDbEntity
  8
0
  6
CONTINUOUS
100
AcDbLine
 10
14.82142733039998
 20
16.111208539
 30
0.0
 11
14.81792893119998
 21
16.1243060421
 31
0.0
  0
LINE
  5
4A2
330
1F
100
AcDbEntity
  8
0
  6
CONTINUOUS
100
AcDbLine
 10
14.81792893119998
 20
16.1243060421
 30
0.0
 11
14.8144519757
 21
16.13774446349999
 31
0.0
  0
LINE
  5
4A3
330
1F
100
AcDbEntity
  8
0
  6
CONTINUOUS
100
AcDbLine
 10
14.8144519757
 20
16.13774446349999
 30
0.0
 11
14.8110028576
 21
16.1514990919
 31
0.0
  0
LINE
  5
4A4
330
1F
100
AcDbEntity
  8
0
  6
CONTINUOUS
100
AcDbLine
 10
14.8110028576
 20
16.1514990919
 30
0.0
 11
14.8075879193
 21
16.1655446345
 31
0.0
  0
LINE
  5
4A5
330
1F
100
AcDbEntity
  8
0
  6
CONTINUOUS
100
AcDbLine
 10
14.8075879193
 20
16.1655446345
 30
0.0
 11
14.80421344039998
 21
16.1798552633
 31
0.0
  0
LINE
  5
4A6
330
1F
100
AcDbEntity
  8
0
  6
CONTINUOUS
100
AcDbLine
 10
14.80421344039998
 20
16.1798552633
 30
0.0
 11
14.80088562599998
 21
16.1944046632
 31
0.0
  0
LINE
  5
4A7
330
1F
100
AcDbEntity
  8
0
  6
CONTINUOUS
100
AcDbLine
 10
14.80088562599998
 20
16.1944046632
 30
0.0
 11
14.7976105957
 21
16.20916607979999
 31
0.0
  0
LINE
  5
4A8
330
1F
100
AcDbEntity
  8
0
  6
CONTINUOUS
100
AcDbLine
 10
14.7976105957
 20
16.20916607979999
 30
0.0
 11
14.7943943717
 21
16.2241123689
 31
0.0
  0
LINE
  5
4A9
330
1F
100
AcDbEntity
  8
0
  6
CONTINUOUS
100
AcDbLine
 10
14.7943943717
 20
16.2241123689
 30
0.0
 11
14.7912428681
 21
16.2392160464
 31
0.0
  0
LINE
  5
4AA
330
1F
100
AcDbEntity
  8
0
  6
CONTINUOUS
100
AcDbLine
 10
14.7912428681
 20
16.2392160464
 30
0.0
 11
14.7881618803
 21
16.25444933869998
 31
0.0
  0
LINE
  5
4AB
330
1F
100
AcDbEntity
  8
0
  6
CONTINUOUS
100
AcDbLine
 10
14.7881618803
 20
16.25444933869998
 30
0.0
 11
14.78515707359998
 21
16.2697842339
 31
0.0
  0
LINE
  5
4AC
330
1F
100
AcDbEntity
  8
0
  6
CONTINUOUS
100
AcDbLine
 10
14.78515707359998
 20
16.2697842339
 30
0.0
 11
14.78223397349998
 21
16.28519253329999
 31
0.0
  0
LINE
  5
4AD
330
1F
100
AcDbEntity
  8
0
  6
CONTINUOUS
100
AcDbLine
 10
14.78223397349998
 20
16.28519253329999
 30
0.0
 11
14.7793979553
 21
16.30064590299999
 31
0.0
  0
LINE
  5
4AE
330
1F
100
AcDbEntity
  8
0
  6
CONTINUOUS
100
AcDbLine
 10
14.7793979553
 20
16.30064590299999
 30
0.0
 11
14.7766542338
 21
16.3161159266
 31
0.0
  0
LINE
  5
4AF
330
1F
100
AcDbEntity
  8
0
  6
CONTINUOUS
100
AcDbLine
 10
14.7766542338
 20
16.3161159266
 30
0.0
 11
14.7740078546
 21
16.3315741567
 31
0.0
  0
LINE
  5
4B0
330
1F
100
AcDbEntity
  8
0
  6
CONTINUOUS
100
AcDbLine
 10
14.7740078546
 20
16.3315741567
 30
0.0
 11
14.7714636838
 21
16.34699216789999
 31
0.0
  0
LINE
  5
4B1
330
1F
100
AcDbEntity
  8
0
  6
CONTINUOUS
100
AcDbLine
 10
14.7714636838
 20
16.34699216789999
 30
0.0
 11
14.7690263998
 21
16.36234160849999
 31
0.0
  0
LINE
  5
4B2
330
1F
100
AcDbEntity
  8
0
  6
CONTINUOUS
100
AcDbLine
 10
14.7690263998
 20
16.36234160849999
 30
0.0
 11
14.7667004846
 21
16.3775942531
 31
0.0
  0
LINE
  5
4B3
330
1F
100
AcDbEntity
  8
0
  6
CONTINUOUS
100
AcDbLine
 10
14.7667004846
 20
16.3775942531
 30
0.0
 11
14.764490215
 21
16.3927220541
 31
0.0
  0
LINE
  5
4B4
330
1F
100
AcDbEntity
  8
0
  6
CONTINUOUS
100
AcDbLine
 10
14.764490215
 20
16.3927220541
 30
0.0
 11
14.7623996556
 21
16.40769719369998
 31
0.0
  0
LINE
  5
4B5
330
1F
100
AcDbEntity
  8
0
  6
CONTINUOUS
100
AcDbLine
 10
14.7623996556
 20
16.40769719369998
 30
0.0
 11
14.7604326505
 21
16.42249213459999
 31
0.0
  0
LINE
  5
4B6
330
1F
100
AcDbEntity
  8
0
  6
CONTINUOUS
100
AcDbLine
 10
14.7604326505
 20
16.42249213459999
 30
0.0
 11
14.7585928168
 21
16.437079671
 31
0.0
  0
LINE
  5
4B7
330
1F
100
AcDbEntity
  8
0
  6
CONTINUOUS
100
AcDbLine
 10
14.7585928168
 20
16.437079671
 30
0.0
 11
14.7568835377
 21
16.45143297839998
 31
0.0
  0
LINE
  5
4B8
330
1F
100
AcDbEntity
  8
0
  6
CONTINUOUS
100
AcDbLine
 10
14.7568835377
 20
16.45143297839998
 30
0.0
 11
14.7553079563
 21
16.4655256631
 31
0.0
  0
LINE
  5
4B9
330
1F
100
AcDbEntity
  8
0
  6
CONTINUOUS
100
AcDbLine
 10
14.7553079563
 20
16.4655256631
 30
0.0
 11
14.75386896999999
 21
16.47933181059999
 31
0.0
  0
LINE
  5
4BA
330
1F
100
AcDbEntity
  8
0
  6
CONTINUOUS
100
AcDbLine
 10
14.75386896999999
 20
16.47933181059999
 30
0.0
 11
14.7525692247
 21
16.49282603329999
 31
0.0
  0
LINE
  5
4BB
330
1F
100
AcDbEntity
  8
0
  6
CONTINUOUS
100
AcDbLine
 10
14.7525692247
 20
16.49282603329999
 30
0.0
 11
14.7514111106
 21
16.5059835172
 31
0.0
  0
LINE
  5
4BC
330
1F
100
AcDbEntity
  8
0
  6
CONTINUOUS
100
AcDbLine
 10
14.7514111106
 20
16.5059835172
 30
0.0
 11
14.7503967572
 21
16.5187800674
 31
0.0
  0
LINE
  5
4BD
330
1F
100
AcDbEntity
  8
0
  6
CONTINUOUS
100
AcDbLine
 10
14.7503967572
 20
16.5187800674
 30
0.0
 11
14.7495280299
 21
16.5311921531
 31
0.0
  0
LINE
  5
4BE
330
1F
100
AcDbEntity
  8
0
  6
CONTINUOUS
100
AcDbLine
 10
14.7495280299
 20
16.5311921531
 30
0.0
 11
14.748806526
 21
16.5431969499
 31
0.0
  0
LINE
  5
4BF
330
1F
100
AcDbEntity
  8
0
  6
CONTINUOUS
100
AcDbLine
 10
14.748806526
 20
16.5431969499
 30
0.0
 11
14.7482335724
 21
16.5547723828
 31
0.0
  0
LINE
  5
4C0
330
1F
100
AcDbEntity
  8
0
  6
CONTINUOUS
100
AcDbLine
 10
14.7482335724
 20
16.5547723828
 30
0.0
 11
14.7478102225
 21
16.56589716609999
 31
0.0
  0
LINE
  5
4C1
330
1F
100
AcDbEntity
  8
0
  6
CONTINUOUS
100
AcDbLine
 10
14.7478102225
 20
16.56589716609999
 30
0.0
 11
14.747537255
 21
16.57655084289999
 31
0.0
  0
LINE
  5
4C2
330
1F
100
AcDbEntity
  8
0
  6
CONTINUOUS
100
AcDbLine
 10
14.747537255
 20
16.57655084289999
 30
0.0
 11
14.7474151717
 21
16.58671382269999
 31
0.0
  0
LINE
  5
4C3
330
1F
100
AcDbEntity
  8
0
  6
CONTINUOUS
100
AcDbLine
 10
14.7474151717
 20
16.58671382269999
 30
0.0
 11
14.7474441972
 21
16.5963674169
 31
0.0
  0
LINE
  5
4C4
330
1F
100
AcDbEntity
  8
0
  6
CONTINUOUS
100
AcDbLine
 10
14.7474441972
 20
16.5963674169
 30
0.0
 11
14.74762427799999
 21
16.6054938742
 31
0.0
  0
LINE
  5
4C5
330
1F
100
AcDbEntity
  8
0
  6
CONTINUOUS
100
AcDbLine
 10
14.74762427799999
 20
16.6054938742
 30
0.0
 11
14.74795508299999
 21
16.6140764121
 31
0.0
  0
LINE
  5
4C6
330
1F
100
AcDbEntity
  8
0
  6
CONTINUOUS
100
AcDbLine
 10
14.74795508299999
 20
16.6140764121
 30
0.0
 11
14.748436004
 21
16.62209924849999
 31
0.0
  0
LINE
  5
4C7
330
1F
100
AcDbEntity
  8
0
  6
CONTINUOUS
100
AcDbLine
 10
14.748436004
 20
16.62209924849999
 30
0.0
 11
14.7490661565
 21
16.6295476306
 31
0.0
  0
LINE
  5
4C8
330
1F
100
AcDbEntity
  8
0
  6
CONTINUOUS
100
AcDbLine
 10
14.7490661565
 20
16.6295476306
 30
0.0
 11
14.7498443818
 21
16.6364078619
 31
0.0
  0
LINE
  5
4C9
330
1F
100
AcDbEntity
  8
0
  6
CONTINUOUS
100
AcDbLine
 10
14.7498443818
 20
16.6364078619
 30
0.0
 11
14.7507692489
 21
16.6426673272
 31
0.0
  0
LINE
  5
4CA
330
1F
100
AcDbEntity
  8
0
  6
CONTINUOUS
100
AcDbLine
 10
14.7507692489
 20
16.6426673272
 30
0.0
 11
14.75183905699999
 21
16.6483145164
 31
0.0
  0
LINE
  5
4CB
330
1F
100
AcDbEntity
  8
0
  6
CONTINUOUS
100
AcDbLine
 10
14.75183905699999
 20
16.6483145164
 30
0.0
 11
14.7530518389
 21
16.65333904499999
 31
0.0
  0
LINE
  5
4CC
330
1F
100
AcDbEntity
  8
0
  6
CONTINUOUS
100
AcDbLine
 10
14.7530518389
 20
16.65333904499999
 30
0.0
 11
14.7544053646
 21
16.6577316737
 31
0.0
  0
LINE
  5
4CD
330
1F
100
AcDbEntity
  8
0
  6
CONTINUOUS
100
AcDbLine
 10
14.7544053646
 20
16.6577316737
 30
0.0
 11
14.755897145
 21
16.6614843249
 31
0.0
  0
LINE
  5
4CE
330
1F
100
AcDbEntity
  8
0
  6
CONTINUOUS
100
AcDbLine
 10
14.755897145
 20
16.6614843249
 30
0.0
 11
14.7575244369
 21
16.6645900981
 31
0.0
  0
LINE
  5
4CF
330
1F
100
AcDbEntity
  8
0
  6
CONTINUOUS
100
AcDbLine
 10
14.7575244369
 20
16.6645900981
 30
0.0
 11
14.7592842481
 21
16.6670432822
 31
0.0
  0
LINE
  5
4D0
330
1F
100
AcDbEntity
  8
0
  6
CONTINUOUS
100
AcDbLine
 10
14.7592842481
 20
16.6670432822
 30
0.0
 11
14.7611733424
 21
16.66883936609998
 31
0.0
  0
LINE
  5
4D1
330
1F
100
AcDbEntity
  8
0
  6
CONTINUOUS
100
AcDbLine
 10
14.7611733424
 20
14.1140337271
 30
0.0
 11
14.7592842481
 21
14.115829811
 31
0.0
  0
LINE
  5
4D2
330
1F
100
AcDbEntity
  8
0
  6
CONTINUOUS
100
AcDbLine
 10
14.7592842481
 20
14.115829811
 30
0.0
 11
14.7575244369
 21
14.11828299509999
 31
0.0
  0
LINE
  5
4D3
330
1F
100
AcDbEntity
  8
0
  6
CONTINUOUS
100
AcDbLine
 10
14.7575244369
 20
14.11828299509999
 30
0.0
 11
14.755897145
 21
14.1213887683
 31
0.0
  0
LINE
  5
4D4
330
1F
100
AcDbEntity
  8
0
  6
CONTINUOUS
100
AcDbLine
 10
14.755897145
 20
14.1213887683
 30
0.0
 11
14.7544053646
 21
14.1251414195
 31
0.0
  0
LINE
  5
4D5
330
1F
100
AcDbEntity
  8
0
  6
CONTINUOUS
100
AcDbLine
 10
14.7544053646
 20
14.1251414195
 30
0.0
 11
14.7530518389
 21
14.1295340481
 31
0.0
  0
LINE
  5
4D6
330
1F
100
AcDbEntity
  8
0
  6
CONTINUOUS
100
AcDbLine
 10
14.7530518389
 20
14.1295340481
 30
0.0
 11
14.75183905699999
 21
14.13455857679999
 31
0.0
  0
LINE
  5
4D7
330
1F
100
AcDbEntity
  8
0
  6
CONTINUOUS
100
AcDbLine
 10
14.75183905699999
 20
14.13455857679999
 30
0.0
 11
14.7507692489
 21
14.1402057659
 31
0.0
  0
LINE
  5
4D8
330
1F
100
AcDbEntity
  8
0
  6
CONTINUOUS
100
AcDbLine
 10
14.7507692489
 20
14.1402057659
 30
0.0
 11
14.7498443818
 21
14.1464652313
 31
0.0
  0
LINE
  5
4D9
330
1F
100
AcDbEntity
  8
0
  6
CONTINUOUS
100
AcDbLine
 10
14.7498443818
 20
14.1464652313
 30
0.0
 11
14.7490661565
 21
14.1533254626
 31
0.0
  0
LINE
  5
4DA
330
1F
100
AcDbEntity
  8
0
  6
CONTINUOUS
100
AcDbLine
 10
14.7490661565
 20
14.1533254626
 30
0.0
 11
14.748436004
 21
14.1607738447
 31
0.0
  0
LINE
  5
4DB
330
1F
100
AcDbEntity
  8
0
  6
CONTINUOUS
100
AcDbLine
 10
14.748436004
 20
14.1607738447
 30
0.0
 11
14.74795508299999
 21
14.16879668109999
 31
0.0
  0
LINE
  5
4DC
330
1F
100
AcDbEntity
  8
0
  6
CONTINUOUS
100
AcDbLine
 10
14.74795508299999
 20
14.16879668109999
 30
0.0
 11
14.74762427799999
 21
14.177379219
 31
0.0
  0
LINE
  5
4DD
330
1F
100
AcDbEntity
  8
0
  6
CONTINUOUS
100
AcDbLine
 10
14.74762427799999
 20
14.177379219
 30
0.0
 11
14.7474441972
 21
14.1865056762
 31
0.0
  0
LINE
  5
4DE
330
1F
100
AcDbEntity
  8
0
  6
CONTINUOUS
100
AcDbLine
 10
14.7474441972
 20
14.1865056762
 30
0.0
 11
14.7474151717
 21
14.19615927049999
 31
0.0
  0
LINE
  5
4DF
330
1F
100
AcDbEntity
  8
0
  6
CONTINUOUS
100
AcDbLine
 10
14.7474151717
 20
14.19615927049999
 30
0.0
 11
14.747537255
 21
14.2063222502
 31
0.0
  0
LINE
  5
4E0
330
1F
100
AcDbEntity
  8
0
  6
CONTINUOUS
100
AcDbLine
 10
14.747537255
 20
14.2063222502
 30
0.0
 11
14.7478102225
 21
14.2169759271
 31
0.0
  0
LINE
  5
4E1
330
1F
100
AcDbEntity
  8
0
  6
CONTINUOUS
100
AcDbLine
 10
14.7478102225
 20
14.2169759271
 30
0.0
 11
14.7482335724
 21
14.22810071039999
 31
0.0
  0
LINE
  5
4E2
330
1F
100
AcDbEntity
  8
0
  6
CONTINUOUS
100
AcDbLine
 10
14.7482335724
 20
14.22810071039999
 30
0.0
 11
14.748806526
 21
14.23967614329999
 31
0.0
  0
LINE
  5
4E3
330
1F
100
AcDbEntity
  8
0
  6
CONTINUOUS
100
AcDbLine
 10
14.748806526
 20
14.23967614329999
 30
0.0
 11
14.7495280299
 21
14.25168094009999
 31
0.0
  0
LINE
  5
4E4
330
1F
100
AcDbEntity
  8
0
  6
CONTINUOUS
100
AcDbLine
 10
14.7495280299
 20
14.25168094009999
 30
0.0
 11
14.7503967572
 21
14.26409302569999
 31
0.0
  0
LINE
  5
4E5
330
1F
100
AcDbEntity
  8
0
  6
CONTINUOUS
100
AcDbLine
 10
14.7503967572
 20
14.26409302569999
 30
0.0
 11
14.7514111106
 21
14.276889576
 31
0.0
  0
LINE
  5
4E6
330
1F
100
AcDbEntity
  8
0
  6
CONTINUOUS
100
AcDbLine
 10
14.7514111106
 20
14.276889576
 30
0.0
 11
14.7525692247
 21
14.2900470599
 31
0.0
  0
LINE
  5
4E7
330
1F
100
AcDbEntity
  8
0
  6
CONTINUOUS
100
AcDbLine
 10
14.7525692247
 20
14.2900470599
 30
0.0
 11
14.75386896999999
 21
14.3035412826
 31
0.0
  0
LINE
  5
4E8
330
1F
100
AcDbEntity
  8
0
  6
CONTINUOUS
100
AcDbLine
 10
14.75386896999999
 20
14.3035412826
 30
0.0
 11
14.7553079563
 21
14.31734743009999
 31
0.0
  0
LINE
  5
4E9
330
1F
100
AcDbEntity
  8
0
  6
CONTINUOUS
100
AcDbLine
 10
14.7553079563
 20
14.31734743009999
 30
0.0
 11
14.7568835377
 21
14.3314401148
 31
0.0
  0
LINE
  5
4EA
330
1F
100
AcDbEntity
  8
0
  6
CONTINUOUS
100
AcDbLine
 10
14.7568835377
 20
14.3314401148
 30
0.0
 11
14.7585928168
 21
14.3457934222
 31
0.0
  0
LINE
  5
4EB
330
1F
100
AcDbEntity
  8
0
  6
CONTINUOUS
100
AcDbLine
 10
14.7585928168
 20
14.3457934222
 30
0.0
 11
14.7604326505
 21
14.36038095859998
 31
0.0
  0
LINE
  5
4EC
330
1F
100
AcDbEntity
  8
0
  6
CONTINUOUS
100
AcDbLine
 10
14.7604326505
 20
14.36038095859998
 30
0.0
 11
14.7623996556
 21
14.3751758995
 31
0.0
  0
LINE
  5
4ED
330
1F
100
AcDbEntity
  8
0
  6
CONTINUOUS
100
AcDbLine
 10
14.7623996556
 20
14.3751758995
 30
0.0
 11
14.764490215
 21
14.3901510391
 31
0.0
  0
LINE
  5
4EE
330
1F
100
AcDbEntity
  8
0
  6
CONTINUOUS
100
AcDbLine
 10
14.764490215
 20
14.3901510391
 30
0.0
 11
14.7667004846
 21
14.40527884009999
 31
0.0
  0
LINE
  5
4EF
330
1F
100
AcDbEntity
  8
0
  6
CONTINUOUS
100
AcDbLine
 10
14.7667004846
 20
14.40527884009999
 30
0.0
 11
14.7690263998
 21
14.4205314847
 31
0.0
  0
LINE
  5
4F0
330
1F
100
AcDbEntity
  8
0
  6
CONTINUOUS
100
AcDbLine
 10
14.7690263998
 20
14.4205314847
 30
0.0
 11
14.7714636838
 21
14.43588092529999
 31
0.0
  0
LINE
  5
4F1
330
1F
100
AcDbEntity
  8
0
  6
CONTINUOUS
100
AcDbLine
 10
14.7714636838
 20
14.43588092529999
 30
0.0
 11
14.7740078546
 21
14.4512989365
 31
0.0
  0
LINE
  5
4F2
330
1F
100
AcDbEntity
  8
0
  6
CONTINUOUS
100
AcDbLine
 10
14.7740078546
 20
14.4512989365
 30
0.0
 11
14.7766542338
 21
14.4667571666
 31
0.0
  0
LINE
  5
4F3
330
1F
100
AcDbEntity
  8
0
  6
CONTINUOUS
100
AcDbLine
 10
14.7766542338
 20
14.4667571666
 30
0.0
 11
14.7793979553
 21
14.4822271902
 31
0.0
  0
LINE
  5
4F4
330
1F
100
AcDbEntity
  8
0
  6
CONTINUOUS
100
AcDbLine
 10
14.7793979553
 20
14.4822271902
 30
0.0
 11
14.78223397349998
 21
14.4976805599
 31
0.0
  0
LINE
  5
4F5
330
1F
100
AcDbEntity
  8
0
  6
CONTINUOUS
100
AcDbLine
 10
14.78223397349998
 20
14.4976805599
 30
0.0
 11
14.78515707359998
 21
14.5130888592
 31
0.0
  0
LINE
  5
4F6
330
1F
100
AcDbEntity
  8
0
  6
CONTINUOUS
100
AcDbLine
 10
14.78515707359998
 20
14.5130888592
 30
0.0
 11
14.7881618803
 21
14.5284237544
 31
0.0
  0
LINE
  5
4F7
330
1F
100
AcDbEntity
  8
0
  6
CONTINUOUS
100
AcDbLine
 10
14.7881618803
 20
14.5284237544
 30
0.0
 11
14.7912428681
 21
14.54365704669999
 31
0.0
  0
LINE
  5
4F8
330
1F
100
AcDbEntity
  8
0
  6
CONTINUOUS
100
AcDbLine
 10
14.7912428681
 20
14.54365704669999
 30
0.0
 11
14.7943943717
 21
14.5587607242
 31
0.0
  0
LINE
  5
4F9
330
1F
100
AcDbEntity
  8
0
  6
CONTINUOUS
100
AcDbLine
 10
14.7943943717
 20
14.5587607242
 30
0.0
 11
14.7976105957
 21
14.5737070134
 31
0.0
  0
LINE
  5
4FA
330
1F
100
AcDbEntity
  8
0
  6
CONTINUOUS
100
AcDbLine
 10
14.7976105957
 20
14.5737070134
 30
0.0
 11
14.80088562599998
 21
14.58846843
 31
0.0
  0
LINE
  5
4FB
330
1F
100
AcDbEntity
  8
0
  6
CONTINUOUS
100
AcDbLine
 10
14.80088562599998
 20
14.58846843
 30
0.0
 11
14.80421344039998
 21
14.6030178299
 31
0.0
  0
LINE
  5
4FC
330
1F
100
AcDbEntity
  8
0
  6
CONTINUOUS
100
AcDbLine
 10
14.80421344039998
 20
14.6030178299
 30
0.0
 11
14.8075879193
 21
14.6173284587
 31
0.0
  0
LINE
  5
4FD
330
1F
100
AcDbEntity
  8
0
  6
CONTINUOUS
100
AcDbLine
 10
14.8075879193
 20
14.6173284587
 30
0.0
 11
14.8110028576
 21
14.63137400119999
 31
0.0
  0
LINE
  5
4FE
330
1F
100
AcDbEntity
  8
0
  6
CONTINUOUS
100
AcDbLine
 10
14.8110028576
 20
14.63137400119999
 30
0.0
 11
14.8144519757
 21
14.6451286297
 31
0.0
  0
LINE
  5
4FF
330
1F
100
AcDbEntity
  8
0
  6
CONTINUOUS
100
AcDbLine
 10
14.8144519757
 20
14.6451286297
 30
0.0
 11
14.81792893119998
 21
14.6585670511
 31
0.0
  0
LINE
  5
500
330
1F
100
AcDbEntity
  8
0
  6
CONTINUOUS
100
AcDbLine
 10
14.81792893119998
 20
14.6585670511
 30
0.0
 11
14.82142733039998
 21
14.6716645542
 31
0.0
  0
LINE
  5
501
330
1F
100
AcDbEntity
  8
0
  6
CONTINUOUS
100
AcDbLine
 10
14.82142733039998
 20
14.6716645542
 30
0.0
 11
14.8249407402
 21
14.68439705439999
 31
0.0
  0
LINE
  5
502
330
1F
100
AcDbEntity
  8
0
  6
CONTINUOUS
100
AcDbLine
 10
14.8249407402
 20
14.68439705439999
 30
0.0
 11
14.82846269999999
 21
14.6967411385
 31
0.0
  0
LINE
  5
503
330
1F
100
AcDbEntity
  8
0
  6
CONTINUOUS
100
AcDbLine
 10
14.82846269999999
 20
14.6967411385
 30
0.0
 11
14.83198673329999
 21
14.7086741073
 31
0.0
  0
LINE
  5
504
330
1F
100
AcDbEntity
  8
0
  6
CONTINUOUS
100
AcDbLine
 10
14.83198673329999
 20
14.7086741073
 30
0.0
 11
14.8355063601
 21
14.7201740178
 31
0.0
  0
LINE
  5
505
330
1F
100
AcDbEntity
  8
0
  6
CONTINUOUS
100
AcDbLine
 10
14.8355063601
 20
14.7201740178
 30
0.0
 11
14.83901510799999
 21
14.73121972329999
 31
0.0
  0
LINE
  5
506
330
1F
100
AcDbEntity
  8
0
  6
CONTINUOUS
100
AcDbLine
 10
14.83901510799999
 20
14.73121972329999
 30
0.0
 11
14.8425065251
 21
14.7417909123
 31
0.0
  0
LINE
  5
507
330
1F
100
AcDbEntity
  8
0
  6
CONTINUOUS
100
AcDbLine
 10
14.8425065251
 20
14.7417909123
 30
0.0
 11
14.84597419119999
 21
14.75186814569998
 31
0.0
  0
LINE
  5
508
330
1F
100
AcDbEntity
  8
0
  6
CONTINUOUS
100
AcDbLine
 10
14.84597419119999
 20
14.75186814569998
 30
0.0
 11
14.8494117296
 21
14.761432893
 31
0.0
  0
LINE
  5
509
330
1F
100
AcDbEntity
  8
0
  6
CONTINUOUS
100
AcDbLine
 10
14.8494117296
 20
14.761432893
 30
0.0
 11
14.8528128192
 21
14.7704675659
 31
0.0
  0
LINE
  5
50A
330
1F
100
AcDbEntity
  8
0
  6
CONTINUOUS
100
AcDbLine
 10
14.8528128192
 20
14.7704675659
 30
0.0
 11
14.85617120589999
 21
14.77895555089999
 31
0.0
  0
LINE
  5
50B
330
1F
100
AcDbEntity
  8
0
  6
CONTINUOUS
100
AcDbLine
 10
14.85617120589999
 20
14.77895555089999
 30
0.0
 11
14.859480714
 21
14.7868812398
 31
0.0
  0
LINE
  5
50C
330
1F
100
AcDbEntity
  8
0
  6
CONTINUOUS
100
AcDbLine
 10
14.859480714
 20
14.7868812398
 30
0.0
 11
14.86273525789999
 21
14.7942300583
 31
0.0
  0
LINE
  5
50D
330
1F
100
AcDbEntity
  8
0
  6
CONTINUOUS
100
AcDbLine
 10
14.86273525789999
 20
14.7942300583
 30
0.0
 11
14.8659288529
 21
14.800988493
 31
0.0
  0
LINE
  5
50E
330
1F
100
AcDbEntity
  8
0
  6
CONTINUOUS
100
AcDbLine
 10
14.8659288529
 20
14.800988493
 30
0.0
 11
14.8690556264
 21
14.807144116
 31
0.0
  0
LINE
  5
50F
330
1F
100
AcDbEntity
  8
0
  6
CONTINUOUS
100
AcDbLine
 10
14.8690556264
 20
14.807144116
 30
0.0
 11
14.87210982869998
 21
14.8126856081
 31
0.0
  0
LINE
  5
510
330
1F
100
AcDbEntity
  8
0
  6
CONTINUOUS
100
AcDbLine
 10
14.87210982869998
 20
14.8126856081
 30
0.0
 11
14.87508584359999
 21
14.8176027791
 31
0.0
  0
LINE
  5
511
330
1F
100
AcDbEntity
  8
0
  6
CONTINUOUS
100
AcDbLine
 10
14.87508584359999
 20
14.8176027791
 30
0.0
 11
14.87797819849999
 21
14.8218865871
 31
0.0
  0
LINE
  5
512
330
1F
100
AcDbEntity
  8
0
  6
CONTINUOUS
100
AcDbLine
 10
14.87797819849999
 20
14.8218865871
 30
0.0
 11
14.8807815748
 21
14.8255291547
 31
0.0
  0
LINE
  5
513
330
1F
100
AcDbEntity
  8
0
  6
CONTINUOUS
100
AcDbLine
 10
14.8807815748
 20
14.8255291547
 30
0.0
 11
14.8834908176
 21
14.8285237839
 31
0.0
  0
LINE
  5
514
330
1F
100
AcDbEntity
  8
0
  6
CONTINUOUS
100
AcDbLine
 10
14.8834908176
 20
14.8285237839
 30
0.0
 11
14.8861009448
 21
14.8308649678
 31
0.0
  0
LINE
  5
515
330
1F
100
AcDbEntity
  8
0
  6
CONTINUOUS
100
AcDbLine
 10
14.8861009448
 20
14.8308649678
 30
0.0
 11
14.8886071569
 21
14.8325484013
 31
0.0
  0
LINE
  5
516
330
1F
100
AcDbEntity
  8
0
  6
CONTINUOUS
100
AcDbLine
 10
14.8886071569
 20
14.8325484013
 30
0.0
 11
14.89100484529999
 21
14.8335709889
 31
0.0
  0
LINE
  5
517
330
1F
100
AcDbEntity
  8
0
  6
CONTINUOUS
100
AcDbLine
 10
14.7773721374
 20
8.2657212902
 30
0.0
 11
14.7743093493
 21
8.2401077587
 31
0.0
  0
LINE
  5
518
330
1F
100
AcDbEntity
  8
0
  6
CONTINUOUS
100
AcDbLine
 10
14.7743093493
 20
8.2401077587
 30
0.0
 11
14.7715793957
 21
8.214646683599999
 31
0.0
  0
LINE
  5
519
330
1F
100
AcDbEntity
  8
0
  6
CONTINUOUS
100
AcDbLine
 10
14.7715793957
 20
8.214646683599999
 30
0.0
 11
14.76919840299999
 21
8.1895081724
 31
0.0
  0
LINE
  5
51A
330
1F
100
AcDbEntity
  8
0
  6
CONTINUOUS
100
AcDbLine
 10
14.76919840299999
 20
8.1895081724
 30
0.0
 11
14.7671824975
 21
8.1648623329
 31
0.0
  0
LINE
  5
51B
330
1F
100
AcDbEntity
  8
0
  6
CONTINUOUS
100
AcDbLine
 10
14.7671824975
 20
8.1648623329
 30
0.0
 11
14.76554780549999
 21
8.140879272899999
 31
0.0
  0
LINE
  5
51C
330
1F
100
AcDbEntity
  8
0
  6
CONTINUOUS
100
AcDbLine
 10
14.76554780549999
 20
8.140879272899999
 30
0.0
 11
14.7643003665
 21
8.1175948433
 31
0.0
  0
LINE
  5
51D
330
1F
100
AcDbEntity
  8
0
  6
CONTINUOUS
100
AcDbLine
 10
14.7643003665
 20
8.1175948433
 30
0.0
 11
14.7634376626
 21
8.095029940899999
 31
0.0
  0
LINE
  5
51E
330
1F
100
AcDbEntity
  8
0
  6
CONTINUOUS
100
AcDbLine
 10
14.7634376626
 20
8.095029940899999
 30
0.0
 11
14.76296294299999
 21
8.0733315698
 31
0.0
  0
LINE
  5
51F
330
1F
100
AcDbEntity
  8
0
  6
CONTINUOUS
100
AcDbLine
 10
14.76296294299999
 20
8.0733315698
 30
0.0
 11
14.7628794568
 21
8.052646733799999
 31
0.0
  0
LINE
  5
520
330
1F
100
AcDbEntity
  8
0
  6
CONTINUOUS
100
AcDbLine
 10
14.7628794568
 20
8.052646733799999
 30
0.0
 11
14.7631904534
 21
8.033122436900001
 31
0.0
  0
LINE
  5
521
330
1F
100
AcDbEntity
  8
0
  6
CONTINUOUS
100
AcDbLine
 10
14.7631904534
 20
8.033122436900001
 30
0.0
 11
14.76389951869998
 21
8.014800026799999
 31
0.0
  0
LINE
  5
522
330
1F
100
AcDbEntity
  8
0
  6
CONTINUOUS
100
AcDbLine
 10
14.76389951869998
 20
8.014800026799999
 30
0.0
 11
14.765001692
 21
7.9976830774
 31
0.0
  0
LINE
  5
523
330
1F
100
AcDbEntity
  8
0
  6
CONTINUOUS
100
AcDbLine
 10
14.765001692
 20
7.9976830774
 30
0.0
 11
14.76648694819999
 21
7.981878765599999
 31
0.0
  0
LINE
  5
524
330
1F
100
AcDbEntity
  8
0
  6
CONTINUOUS
100
AcDbLine
 10
14.76648694819999
 20
7.981878765599999
 30
0.0
 11
14.768345262
 21
7.9674942684
 31
0.0
  0
LINE
  5
525
330
1F
100
AcDbEntity
  8
0
  6
CONTINUOUS
100
AcDbLine
 10
14.768345262
 20
7.9674942684
 30
0.0
 11
14.77056660839999
 21
7.954636762399998
 31
0.0
  0
LINE
  5
526
330
1F
100
AcDbEntity
  8
0
  6
CONTINUOUS
100
AcDbLine
 10
14.77056660839999
 20
7.954636762399998
 30
0.0
 11
14.77315086039999
 21
7.9433432419
 31
0.0
  0
LINE
  5
527
330
1F
100
AcDbEntity
  8
0
  6
CONTINUOUS
100
AcDbLine
 10
14.77315086039999
 20
7.9433432419
 30
0.0
 11
14.77609209539999
 21
7.933604457899999
 31
0.0
  0
LINE
  5
528
330
1F
100
AcDbEntity
  8
0
  6
CONTINUOUS
100
AcDbLine
 10
14.77609209539999
 20
7.933604457899999
 30
0.0
 11
14.7793681453
 21
7.925475554099998
 31
0.0
  0
LINE
  5
529
330
1F
100
AcDbEntity
  8
0
  6
CONTINUOUS
100
AcDbLine
 10
14.7793681453
 20
7.925475554099998
 30
0.0
 11
14.7829568422
 21
7.919011674199999
 31
0.0
  0
LINE
  5
52A
330
1F
100
AcDbEntity
  8
0
  6
CONTINUOUS
100
AcDbLine
 10
14.7829568422
 20
7.919011674199999
 30
0.0
 11
14.7868360181
 21
7.914267961799999
 31
0.0
  0
LINE
  5
52B
330
1F
100
AcDbEntity
  8
0
  6
CONTINUOUS
100
AcDbLine
 10
14.7868360181
 20
7.914267961799999
 30
0.0
 11
14.79100235079998
 21
7.911269365599999
 31
0.0
  0
LINE
  5
52C
330
1F
100
AcDbEntity
  8
0
  6
CONTINUOUS
100
AcDbLine
 10
14.79100235079998
 20
7.911269365599999
 30
0.0
 11
14.7954493024
 21
7.909998941299998
 31
0.0
  0
LINE
  5
52D
330
1F
100
AcDbEntity
  8
0
  6
CONTINUOUS
100
AcDbLine
 10
14.7954493024
 20
7.909998941299998
 30
0.0
 11
14.8001450874
 21
7.910453605399999
 31
0.0
  0
LINE
  5
52E
330
1F
100
AcDbEntity
  8
0
  6
CONTINUOUS
100
AcDbLine
 10
14.8001450874
 20
7.910453605399999
 30
0.0
 11
14.80505792059999
 21
7.912630274899998
 31
0.0
  0
LINE
  5
52F
330
1F
100
AcDbEntity
  8
0
  6
CONTINUOUS
100
AcDbLine
 10
14.80505792059999
 20
7.912630274899998
 30
0.0
 11
14.8101560164
 21
7.916525866499998
 31
0.0
  0
LINE
  5
530
330
1F
100
AcDbEntity
  8
0
  6
CONTINUOUS
100
AcDbLine
 10
14.8101560164
 20
7.916525866499998
 30
0.0
 11
14.81543435789999
 21
7.9221528996
 31
0.0
  0
LINE
  5
531
330
1F
100
AcDbEntity
  8
0
  6
CONTINUOUS
100
AcDbLine
 10
14.81543435789999
 20
7.9221528996
 30
0.0
 11
14.820885459
 21
7.929486796799999
 31
0.0
  0
LINE
  5
532
330
1F
100
AcDbEntity
  8
0
  6
CONTINUOUS
100
AcDbLine
 10
14.820885459
 20
7.929486796799999
 30
0.0
 11
14.8264715258
 21
7.938466714099998
 31
0.0
  0
LINE
  5
533
330
1F
100
AcDbEntity
  8
0
  6
CONTINUOUS
100
AcDbLine
 10
14.8264715258
 20
7.938466714099998
 30
0.0
 11
14.8321547646
 21
7.949031807499999
 31
0.0
  0
LINE
  5
534
330
1F
100
AcDbEntity
  8
0
  6
CONTINUOUS
100
AcDbLine
 10
14.8321547646
 20
7.949031807499999
 30
0.0
 11
14.8378973816
 21
7.961121232999999
 31
0.0
  0
LINE
  5
535
330
1F
100
AcDbEntity
  8
0
  6
CONTINUOUS
100
AcDbLine
 10
14.8378973816
 20
7.961121232999999
 30
0.0
 11
14.843693988
 21
7.974738721399998
 31
0.0
  0
LINE
  5
536
330
1F
100
AcDbEntity
  8
0
  6
CONTINUOUS
100
AcDbLine
 10
14.843693988
 20
7.974738721399998
 30
0.0
 11
14.8495361618
 21
7.9898499748
 31
0.0
  0
LINE
  5
537
330
1F
100
AcDbEntity
  8
0
  6
CONTINUOUS
100
AcDbLine
 10
14.8495361618
 20
7.9898499748
 30
0.0
 11
14.8553843639
 21
8.0063433543
 31
0.0
  0
LINE
  5
538
330
1F
100
AcDbEntity
  8
0
  6
CONTINUOUS
100
AcDbLine
 10
14.8553843639
 20
8.0063433543
 30
0.0
 11
14.8611990553
 21
8.024107220800001
 31
0.0
  0
LINE
  5
539
330
1F
100
AcDbEntity
  8
0
  6
CONTINUOUS
100
AcDbLine
 10
14.8611990553
 20
8.024107220800001
 30
0.0
 11
14.866940697
 21
8.043029935499999
 31
0.0
  0
LINE
  5
53A
330
1F
100
AcDbEntity
  8
0
  6
CONTINUOUS
100
AcDbLine
 10
14.866940697
 20
8.043029935499999
 30
0.0
 11
14.8726038538
 21
8.063109141199998
 31
0.0
  0
LINE
  5
53B
330
1F
100
AcDbEntity
  8
0
  6
CONTINUOUS
100
AcDbLine
 10
14.8726038538
 20
8.063109141199998
 30
0.0
 11
14.8781802636
 21
8.084301208099999
 31
0.0
  0
LINE
  5
53C
330
1F
100
AcDbEntity
  8
0
  6
CONTINUOUS
100
AcDbLine
 10
14.8781802636
 20
8.084301208099999
 30
0.0
 11
14.8836330767
 21
8.1064562869
 31
0.0
  0
LINE
  5
53D
330
1F
100
AcDbEntity
  8
0
  6
CONTINUOUS
100
AcDbLine
 10
14.8836330767
 20
8.1064562869
 30
0.0
 11
14.8889254433
 21
8.129424528399999
 31
0.0
  0
LINE
  5
53E
330
1F
100
AcDbEntity
  8
0
  6
CONTINUOUS
100
AcDbLine
 10
14.8889254433
 20
8.129424528399999
 30
0.0
 11
14.8940205138
 21
8.1530560833
 31
0.0
  0
LINE
  5
53F
330
1F
100
AcDbEntity
  8
0
  6
CONTINUOUS
100
AcDbLine
 10
14.8940205138
 20
8.1530560833
 30
0.0
 11
14.8995031226
 21
8.1803843451
 31
0.0
  0
LINE
  5
540
330
1F
100
AcDbEntity
  8
0
  6
CONTINUOUS
100
AcDbLine
 10
14.8995031226
 20
8.1803843451
 30
0.0
 11
14.9047139956
 21
8.2084325634
 31
0.0
  0
LINE
  5
541
330
1F
100
AcDbEntity
  8
0
  6
CONTINUOUS
100
AcDbLine
 10
14.9047139956
 20
8.2084325634
 30
0.0
 11
14.90960993859999
 21
8.2369588433
 31
0.0
  0
LINE
  5
542
330
1F
100
AcDbEntity
  8
0
  6
CONTINUOUS
100
AcDbLine
 10
14.90960993859999
 20
8.2369588433
 30
0.0
 11
14.9141477574
 21
8.2657212902
 31
0.0
  0
LINE
  5
543
330
1F
100
AcDbEntity
  8
0
  6
CONTINUOUS
100
AcDbLine
 10
14.5152211035
 20
9.048813982999998
 30
0.0
 11
14.5548948898
 21
9.048790786599999
 31
0.0
  0
LINE
  5
544
330
1F
100
AcDbEntity
  8
0
  6
CONTINUOUS
100
AcDbLine
 10
14.5548948898
 20
9.048790786599999
 30
0.0
 11
14.5933258537
 21
9.048765411399999
 31
0.0
  0
LINE
  5
545
330
1F
100
AcDbEntity
  8
0
  6
CONTINUOUS
100
AcDbLine
 10
14.5933258537
 20
9.048765411399999
 30
0.0
 11
14.63038202799999
 21
9.0487408222
 31
0.0
  0
LINE
  5
546
330
1F
100
AcDbEntity
  8
0
  6
CONTINUOUS
100
AcDbLine
 10
14.63038202799999
 20
9.0487408222
 30
0.0
 11
14.6661005759
 21
9.0487180612
 31
0.0
  0
LINE
  5
547
330
1F
100
AcDbEntity
  8
0
  6
CONTINUOUS
100
AcDbLine
 10
14.6661005759
 20
9.0487180612
 30
0.0
 11
14.700419331
 21
9.048696315399999
 31
0.0
  0
LINE
  5
548
330
1F
100
AcDbEntity
  8
0
  6
CONTINUOUS
100
AcDbLine
 10
14.700419331
 20
9.048696315399999
 30
0.0
 11
14.73332363859999
 21
9.048675597799999
 31
0.0
  0
LINE
  5
549
330
1F
100
AcDbEntity
  8
0
  6
CONTINUOUS
100
AcDbLine
 10
14.73332363859999
 20
9.048675597799999
 30
0.0
 11
14.7717684573
 21
9.048651582299999
 31
0.0
  0
LINE
  5
54A
330
1F
100
AcDbEntity
  8
0
  6
CONTINUOUS
100
AcDbLine
 10
14.7717684573
 20
9.048651582299999
 30
0.0
 11
14.8080626304
 21
9.0486291171
 31
0.0
  0
LINE
  5
54B
330
1F
100
AcDbEntity
  8
0
  6
CONTINUOUS
100
AcDbLine
 10
14.8080626304
 20
9.0486291171
 30
0.0
 11
14.842183497
 21
9.048608197
 31
0.0
  0
LINE
  5
54C
330
1F
100
AcDbEntity
  8
0
  6
CONTINUOUS
100
AcDbLine
 10
14.842183497
 20
9.048608197
 30
0.0
 11
14.87410839609998
 21
9.048588816599998
 31
0.0
  0
LINE
  5
54D
330
1F
100
AcDbEntity
  8
0
  6
CONTINUOUS
100
AcDbLine
 10
14.87410839609998
 20
9.048588816599998
 30
0.0
 11
14.9038288069
 21
9.048570957599999
 31
0.0
  0
LINE
  5
54E
330
1F
100
AcDbEntity
  8
0
  6
CONTINUOUS
100
AcDbLine
 10
14.9038288069
 20
9.048570957599999
 30
0.0
 11
14.9313399801
 21
9.0485545907
 31
0.0
  0
LINE
  5
54F
330
1F
100
AcDbEntity
  8
0
  6
CONTINUOUS
100
AcDbLine
 10
14.9313399801
 20
9.0485545907
 30
0.0
 11
14.9566249173
 21
9.0485396947
 31
0.0
  0
LINE
  5
550
330
1F
100
AcDbEntity
  8
0
  6
CONTINUOUS
100
AcDbLine
 10
14.9566249173
 20
9.0485396947
 30
0.0
 11
14.9796666203
 21
9.048526248499999
 31
0.0
  0
LINE
  5
551
330
1F
100
AcDbEntity
  8
0
  6
CONTINUOUS
100
AcDbLine
 10
14.9796666203
 20
9.048526248499999
 30
0.0
 11
15.0004584392
 21
9.048514223599999
 31
0.0
  0
LINE
  5
552
330
1F
100
AcDbEntity
  8
0
  6
CONTINUOUS
100
AcDbLine
 10
15.0004584392
 20
9.048514223599999
 30
0.0
 11
15.0189975788
 21
9.048503591499999
 31
0.0
  0
LINE
  5
553
330
1F
100
AcDbEntity
  8
0
  6
CONTINUOUS
100
AcDbLine
 10
15.0189975788
 20
9.048503591499999
 30
0.0
 11
15.0352728265
 21
9.0484943309
 31
0.0
  0
LINE
  5
554
330
1F
100
AcDbEntity
  8
0
  6
CONTINUOUS
100
AcDbLine
 10
15.0352728265
 20
9.0484943309
 30
0.0
 11
15.0492729702
 21
9.048486420099999
 31
0.0
  0
LINE
  5
555
330
1F
100
AcDbEntity
  8
0
  6
CONTINUOUS
100
AcDbLine
 10
15.0492729702
 20
9.048486420099999
 30
0.0
 11
15.0617511253
 21
9.048479410399998
 31
0.0
  0
LINE
  5
556
330
1F
100
AcDbEntity
  8
0
  6
CONTINUOUS
100
AcDbLine
 10
15.0617511253
 20
9.048479410399998
 30
0.0
 11
15.0716070578
 21
9.048473903299999
 31
0.0
  0
LINE
  5
557
330
1F
100
AcDbEntity
  8
0
  6
CONTINUOUS
100
AcDbLine
 10
15.0716070578
 20
9.048473903299999
 30
0.0
 11
15.0788344416
 21
9.048469884400001
 31
0.0
  0
LINE
  5
558
330
1F
100
AcDbEntity
  8
0
  6
CONTINUOUS
100
AcDbLine
 10
15.0788344416
 20
9.048469884400001
 30
0.0
 11
15.0834269504
 21
9.0484673391
 31
0.0
  0
LINE
  5
559
330
1F
100
AcDbEntity
  8
0
  6
CONTINUOUS
100
AcDbLine
 10
15.0834269504
 20
9.0484673391
 30
0.0
 11
15.0853326018
 21
9.048466282199999
 31
0.0
  0
LINE
  5
55A
330
1F
100
AcDbEntity
  8
0
  6
CONTINUOUS
100
AcDbLine
 10
15.0853326018
 20
9.048466282199999
 30
0.0
 11
15.085204143
 21
9.0484663529
 31
0.0
  0
LINE
  5
55B
330
1F
100
AcDbEntity
  8
0
  6
CONTINUOUS
100
AcDbLine
 10
14.7173737856
 20
9.0558205744
 30
0.0
 11
14.7575437481
 21
9.0558192086
 31
0.0
  0
LINE
  5
55C
330
1F
100
AcDbEntity
  8
0
  6
CONTINUOUS
100
AcDbLine
 10
14.7575437481
 20
9.0558192086
 30
0.0
 11
14.79646582109999
 21
9.055814935599999
 31
0.0
  0
LINE
  5
55D
330
1F
100
AcDbEntity
  8
0
  6
CONTINUOUS
100
AcDbLine
 10
14.79646582109999
 20
9.055814935599999
 30
0.0
 11
14.8340065894
 21
9.0558106559
 31
0.0
  0
LINE
  5
55E
330
1F
100
AcDbEntity
  8
0
  6
CONTINUOUS
100
AcDbLine
 10
14.8340065894
 20
9.0558106559
 30
0.0
 11
14.8702043201
 21
9.0558074201
 31
0.0
  0
LINE
  5
55F
330
1F
100
AcDbEntity
  8
0
  6
CONTINUOUS
100
AcDbLine
 10
14.8702043201
 20
9.0558074201
 30
0.0
 11
14.9049926058
 21
9.055804358099999
 31
0.0
  0
LINE
  5
560
330
1F
100
AcDbEntity
  8
0
  6
CONTINUOUS
100
AcDbLine
 10
14.9049926058
 20
9.055804358099999
 30
0.0
 11
14.9383552468
 21
9.055801465
 31
0.0
  0
LINE
  5
561
330
1F
100
AcDbEntity
  8
0
  6
CONTINUOUS
100
AcDbLine
 10
14.9383552468
 20
9.055801465
 30
0.0
 11
14.9768716738
 21
9.055798176999999
 31
0.0
  0
LINE
  5
562
330
1F
100
AcDbEntity
  8
0
  6
CONTINUOUS
100
AcDbLine
 10
14.9768716738
 20
9.055798176999999
 30
0.0
 11
15.0132711252
 21
9.055795120499999
 31
0.0
  0
LINE
  5
563
330
1F
100
AcDbEntity
  8
0
  6
CONTINUOUS
100
AcDbLine
 10
15.0132711252
 20
9.055795120499999
 30
0.0
 11
15.0475298706
 21
9.055792288500001
 31
0.0
  0
LINE
  5
564
330
1F
100
AcDbEntity
  8
0
  6
CONTINUOUS
100
AcDbLine
 10
15.0475298706
 20
9.055792288500001
 30
0.0
 11
15.07962417949999
 21
9.055789674099999
 31
0.0
  0
LINE
  5
565
330
1F
100
AcDbEntity
  8
0
  6
CONTINUOUS
100
AcDbLine
 10
15.07962417949999
 20
9.055789674099999
 30
0.0
 11
15.1095447444
 21
9.055787269599999
 31
0.0
  0
LINE
  5
566
330
1F
100
AcDbEntity
  8
0
  6
CONTINUOUS
100
AcDbLine
 10
15.1095447444
 20
9.055787269599999
 30
0.0
 11
15.13728626239999
 21
9.0557850685
 31
0.0
  0
LINE
  5
567
330
1F
100
AcDbEntity
  8
0
  6
CONTINUOUS
100
AcDbLine
 10
15.13728626239999
 20
9.0557850685
 30
0.0
 11
15.1628312427
 21
9.055783066
 31
0.0
  0
LINE
  5
568
330
1F
100
AcDbEntity
  8
0
  6
CONTINUOUS
100
AcDbLine
 10
15.1628312427
 20
9.055783066
 30
0.0
 11
15.1861621946
 21
9.055781256900001
 31
0.0
  0
LINE
  5
569
330
1F
100
AcDbEntity
  8
0
  6
CONTINUOUS
100
AcDbLine
 10
15.1861621946
 20
9.055781256900001
 30
0.0
 11
15.2072722135
 21
9.0557796359
 31
0.0
  0
LINE
  5
56A
330
1F
100
AcDbEntity
  8
0
  6
CONTINUOUS
100
AcDbLine
 10
15.2072722135
 20
9.0557796359
 30
0.0
 11
15.226158401
 21
9.0557781985
 31
0.0
  0
LINE
  5
56B
330
1F
100
AcDbEntity
  8
0
  6
CONTINUOUS
100
AcDbLine
 10
15.226158401
 20
9.0557781985
 30
0.0
 11
15.24280931769999
 21
9.055776941599999
 31
0.0
  0
LINE
  5
56C
330
1F
100
AcDbEntity
  8
0
  6
CONTINUOUS
100
AcDbLine
 10
15.24280931769999
 20
9.055776941599999
 30
0.0
 11
15.2572135242
 21
9.055775862
 31
0.0
  0
LINE
  5
56D
330
1F
100
AcDbEntity
  8
0
  6
CONTINUOUS
100
AcDbLine
 10
15.2572135242
 20
9.055775862
 30
0.0
 11
15.2701565497
 21
9.0557748973
 31
0.0
  0
LINE
  5
56E
330
1F
100
AcDbEntity
  8
0
  6
CONTINUOUS
100
AcDbLine
 10
15.2701565497
 20
9.0557748973
 30
0.0
 11
15.28050992609998
 21
9.055774129799999
 31
0.0
  0
LINE
  5
56F
330
1F
100
AcDbEntity
  8
0
  6
CONTINUOUS
100
AcDbLine
 10
15.28050992609998
 20
9.055774129799999
 30
0.0
 11
15.2882670391
 21
9.0557735574
 31
0.0
  0
LINE
  5
570
330
1F
100
AcDbEntity
  8
0
  6
CONTINUOUS
100
AcDbLine
 10
15.2882670391
 20
9.0557735574
 30
0.0
 11
15.2934212742
 21
9.0557731783
 31
0.0
  0
LINE
  5
571
330
1F
100
AcDbEntity
  8
0
  6
CONTINUOUS
100
AcDbLine
 10
15.2934212742
 20
9.0557731783
 30
0.0
 11
15.29587962239999
 21
9.0557729974
 31
0.0
  0
LINE
  5
572
330
1F
100
AcDbEntity
  8
0
  6
CONTINUOUS
100
AcDbLine
 10
15.29587962239999
 20
9.0557729974
 30
0.0
 11
15.2959925243
 21
9.055772989099999
 31
0.0
  0
LINE
  5
57F
330
1F
100
AcDbEntity
  8
0
  6
CONTINUOUS
100
AcDbLine
 10
5.007838645799998
 20
6.965721290199998
 30
0.0
 11
5.0118941368
 21
6.940107758699999
 31
0.0
  0
LINE
  5
580
330
1F
100
AcDbEntity
  8
0
  6
CONTINUOUS
100
AcDbLine
 10
5.0118941368
 20
6.940107758699999
 30
0.0
 11
5.016269194499999
 21
6.9146466836
 31
0.0
  0
LINE
  5
581
330
1F
100
AcDbEntity
  8
0
  6
CONTINUOUS
100
AcDbLine
 10
5.016269194499999
 20
6.9146466836
 30
0.0
 11
5.0209322806
 21
6.8895081724
 31
0.0
  0
LINE
  5
582
330
1F
100
AcDbEntity
  8
0
  6
CONTINUOUS
100
AcDbLine
 10
5.0209322806
 20
6.8895081724
 30
0.0
 11
5.0258518569
 21
6.864862332899999
 31
0.0
  0
LINE
  5
583
330
1F
100
AcDbEntity
  8
0
  6
CONTINUOUS
100
AcDbLine
 10
5.0258518569
 20
6.864862332899999
 30
0.0
 11
5.030996384899999
 21
6.840879272899999
 31
0.0
  0
LINE
  5
584
330
1F
100
AcDbEntity
  8
0
  6
CONTINUOUS
100
AcDbLine
 10
5.030996384899999
 20
6.840879272899999
 30
0.0
 11
5.0363621031
 21
6.8175948433
 31
0.0
  0
LINE
  5
585
330
1F
100
AcDbEntity
  8
0
  6
CONTINUOUS
100
AcDbLine
 10
5.0363621031
 20
6.8175948433
 30
0.0
 11
5.0419402218
 21
6.7950299409
 31
0.0
  0
LINE
  5
586
330
1F
100
AcDbEntity
  8
0
  6
CONTINUOUS
100
AcDbLine
 10
5.0419402218
 20
6.7950299409
 30
0.0
 11
5.047691810799999
 21
6.773331569799998
 31
0.0
  0
LINE
  5
587
330
1F
100
AcDbEntity
  8
0
  6
CONTINUOUS
100
AcDbLine
 10
5.047691810799999
 20
6.773331569799998
 30
0.0
 11
5.0535779398
 21
6.752646733799998
 31
0.0
  0
LINE
  5
588
330
1F
100
AcDbEntity
  8
0
  6
CONTINUOUS
100
AcDbLine
 10
5.0535779398
 20
6.752646733799998
 30
0.0
 11
5.0595596786
 21
6.7331224369
 31
0.0
  0
LINE
  5
589
330
1F
100
AcDbEntity
  8
0
  6
CONTINUOUS
100
AcDbLine
 10
5.0595596786
 20
6.7331224369
 30
0.0
 11
5.0656289968
 21
6.714800026799999
 31
0.0
  0
LINE
  5
58A
330
1F
100
AcDbEntity
  8
0
  6
CONTINUOUS
100
AcDbLine
 10
5.0656289968
 20
6.714800026799999
 30
0.0
 11
5.0717794418
 21
6.697683077399998
 31
0.0
  0
LINE
  5
58B
330
1F
100
AcDbEntity
  8
0
  6
CONTINUOUS
100
AcDbLine
 10
5.0717794418
 20
6.697683077399998
 30
0.0
 11
5.077969089999998
 21
6.681878765599999
 31
0.0
  0
LINE
  5
58C
330
1F
100
AcDbEntity
  8
0
  6
CONTINUOUS
100
AcDbLine
 10
5.077969089999998
 20
6.681878765599999
 30
0.0
 11
5.084156017899998
 21
6.6674942684
 31
0.0
  0
LINE
  5
58D
330
1F
100
AcDbEntity
  8
0
  6
CONTINUOUS
100
AcDbLine
 10
5.084156017899998
 20
6.6674942684
 30
0.0
 11
5.090298301699998
 21
6.6546367624
 31
0.0
  0
LINE
  5
58E
330
1F
100
AcDbEntity
  8
0
  6
CONTINUOUS
100
AcDbLine
 10
5.090298301699998
 20
6.6546367624
 30
0.0
 11
5.0963851127
 21
6.6433432419
 31
0.0
  0
LINE
  5
58F
330
1F
100
AcDbEntity
  8
0
  6
CONTINUOUS
100
AcDbLine
 10
5.0963851127
 20
6.6433432419
 30
0.0
 11
5.102412653
 21
6.633604457899999
 31
0.0
  0
LINE
  5
590
330
1F
100
AcDbEntity
  8
0
  6
CONTINUOUS
100
AcDbLine
 10
5.102412653
 20
6.633604457899999
 30
0.0
 11
5.108340768899998
 21
6.625475554099998
 31
0.0
  0
LINE
  5
591
330
1F
100
AcDbEntity
  8
0
  6
CONTINUOUS
100
AcDbLine
 10
5.108340768899998
 20
6.625475554099998
 30
0.0
 11
5.114129307099998
 21
6.619011674199999
 31
0.0
  0
LINE
  5
592
330
1F
100
AcDbEntity
  8
0
  6
CONTINUOUS
100
AcDbLine
 10
5.114129307099998
 20
6.619011674199999
 30
0.0
 11
5.119738113899999
 21
6.614267961799999
 31
0.0
  0
LINE
  5
593
330
1F
100
AcDbEntity
  8
0
  6
CONTINUOUS
100
AcDbLine
 10
5.119738113899999
 20
6.614267961799999
 30
0.0
 11
5.1251563504
 21
6.611269365599999
 31
0.0
  0
LINE
  5
594
330
1F
100
AcDbEntity
  8
0
  6
CONTINUOUS
100
AcDbLine
 10
5.1251563504
 20
6.611269365599999
 30
0.0
 11
5.130381770299998
 21
6.609998941299998
 31
0.0
  0
LINE
  5
595
330
1F
100
AcDbEntity
  8
0
  6
CONTINUOUS
100
AcDbLine
 10
5.130381770299998
 20
6.609998941299998
 30
0.0
 11
5.135380538999998
 21
6.6104536054
 31
0.0
  0
LINE
  5
596
330
1F
100
AcDbEntity
  8
0
  6
CONTINUOUS
100
AcDbLine
 10
5.135380538999998
 20
6.6104536054
 30
0.0
 11
5.140118821799998
 21
6.612630274899998
 31
0.0
  0
LINE
  5
597
330
1F
100
AcDbEntity
  8
0
  6
CONTINUOUS
100
AcDbLine
 10
5.140118821799998
 20
6.612630274899998
 30
0.0
 11
5.1445627842
 21
6.616525866499998
 31
0.0
  0
LINE
  5
598
330
1F
100
AcDbEntity
  8
0
  6
CONTINUOUS
100
AcDbLine
 10
5.1445627842
 20
6.616525866499998
 30
0.0
 11
5.148703327299998
 21
6.6221528996
 31
0.0
  0
LINE
  5
599
330
1F
100
AcDbEntity
  8
0
  6
CONTINUOUS
100
AcDbLine
 10
5.148703327299998
 20
6.6221528996
 30
0.0
 11
5.152539374599999
 21
6.629486796799999
 31
0.0
  0
LINE
  5
59A
330
1F
100
AcDbEntity
  8
0
  6
CONTINUOUS
100
AcDbLine
 10
5.152539374599999
 20
6.629486796799999
 30
0.0
 11
5.1560472186
 21
6.638466714099998
 31
0.0
  0
LINE
  5
59B
330
1F
100
AcDbEntity
  8
0
  6
CONTINUOUS
100
AcDbLine
 10
5.1560472186
 20
6.638466714099998
 30
0.0
 11
5.159203151699998
 21
6.6490318075
 31
0.0
  0
LINE
  5
59C
330
1F
100
AcDbEntity
  8
0
  6
CONTINUOUS
100
AcDbLine
 10
5.159203151699998
 20
6.6490318075
 30
0.0
 11
5.161983466299998
 21
6.661121232999999
 31
0.0
  0
LINE
  5
59D
330
1F
100
AcDbEntity
  8
0
  6
CONTINUOUS
100
AcDbLine
 10
5.161983466299998
 20
6.661121232999999
 30
0.0
 11
5.164381197099999
 21
6.674738721399998
 31
0.0
  0
LINE
  5
59E
330
1F
100
AcDbEntity
  8
0
  6
CONTINUOUS
100
AcDbLine
 10
5.164381197099999
 20
6.674738721399998
 30
0.0
 11
5.166397054099999
 21
6.6898499748
 31
0.0
  0
LINE
  5
59F
330
1F
100
AcDbEntity
  8
0
  6
CONTINUOUS
100
AcDbLine
 10
5.166397054099999
 20
6.6898499748
 30
0.0
 11
5.168020101399998
 21
6.706343354299999
 31
0.0
  0
LINE
  5
5A0
330
1F
100
AcDbEntity
  8
0
  6
CONTINUOUS
100
AcDbLine
 10
5.168020101399998
 20
6.706343354299999
 30
0.0
 11
5.169239403099998
 21
6.7241072208
 31
0.0
  0
LINE
  5
5A1
330
1F
100
AcDbEntity
  8
0
  6
CONTINUOUS
100
AcDbLine
 10
5.169239403099998
 20
6.7241072208
 30
0.0
 11
5.170044023099999
 21
6.743029935499999
 31
0.0
  0
LINE
  5
5A2
330
1F
100
AcDbEntity
  8
0
  6
CONTINUOUS
100
AcDbLine
 10
5.170044023099999
 20
6.743029935499999
 30
0.0
 11
5.170428704899999
 21
6.7631091412
 31
0.0
  0
LINE
  5
5A3
330
1F
100
AcDbEntity
  8
0
  6
CONTINUOUS
100
AcDbLine
 10
5.170428704899999
 20
6.7631091412
 30
0.0
 11
5.1703970296
 21
6.784301208099999
 31
0.0
  0
LINE
  5
5A4
330
1F
100
AcDbEntity
  8
0
  6
CONTINUOUS
100
AcDbLine
 10
5.1703970296
 20
6.784301208099999
 30
0.0
 11
5.1699520413
 21
6.8064562869
 31
0.0
  0
LINE
  5
5A5
330
1F
100
AcDbEntity
  8
0
  6
CONTINUOUS
100
AcDbLine
 10
5.1699520413
 20
6.8064562869
 30
0.0
 11
5.169096783699998
 21
6.8294245284
 31
0.0
  0
LINE
  5
5A6
330
1F
100
AcDbEntity
  8
0
  6
CONTINUOUS
100
AcDbLine
 10
5.169096783699998
 20
6.8294245284
 30
0.0
 11
5.1678343007
 21
6.8530560833
 31
0.0
  0
LINE
  5
5A7
330
1F
100
AcDbEntity
  8
0
  6
CONTINUOUS
100
AcDbLine
 10
5.1678343007
 20
6.8530560833
 30
0.0
 11
5.1659269593
 21
6.880384345099998
 31
0.0
  0
LINE
  5
5A8
330
1F
100
AcDbEntity
  8
0
  6
CONTINUOUS
100
AcDbLine
 10
5.1659269593
 20
6.880384345099998
 30
0.0
 11
5.1635146988
 21
6.908432563399999
 31
0.0
  0
LINE
  5
5A9
330
1F
100
AcDbEntity
  8
0
  6
CONTINUOUS
100
AcDbLine
 10
5.1635146988
 20
6.908432563399999
 30
0.0
 11
5.160620230299999
 21
6.9369588433
 31
0.0
  0
LINE
  5
5AA
330
1F
100
AcDbEntity
  8
0
  6
CONTINUOUS
100
AcDbLine
 10
5.160620230299999
 20
6.9369588433
 30
0.0
 11
5.1572662649
 21
6.965721290199998
 31
0.0
  0
LINE
  5
5AB
330
1F
100
AcDbEntity
  8
0
  6
CONTINUOUS
100
AcDbLine
 10
5.3073247217
 20
6.606864528099999
 30
0.0
 11
5.3076220567
 21
6.6068176838
 31
0.0
  0
LINE
  5
5AC
330
1F
100
AcDbEntity
  8
0
  6
CONTINUOUS
100
AcDbLine
 10
5.3076220567
 20
6.6068176838
 30
0.0
 11
5.312413167599999
 21
6.607674136099999
 31
0.0
  0
LINE
  5
5AD
330
1F
100
AcDbEntity
  8
0
  6
CONTINUOUS
100
AcDbLine
 10
5.312413167599999
 20
6.607674136099999
 30
0.0
 11
5.316758530299998
 21
6.6102005085
 31
0.0
  0
LINE
  5
5AE
330
1F
100
AcDbEntity
  8
0
  6
CONTINUOUS
100
AcDbLine
 10
5.316758530299998
 20
6.6102005085
 30
0.0
 11
5.3206246709
 21
6.614390490899999
 31
0.0
  0
LINE
  5
5AF
330
1F
100
AcDbEntity
  8
0
  6
CONTINUOUS
100
AcDbLine
 10
5.3206246709
 20
6.614390490899999
 30
0.0
 11
5.3239887962
 21
6.6202332071
 31
0.0
  0
LINE
  5
5B0
330
1F
100
AcDbEntity
  8
0
  6
CONTINUOUS
100
AcDbLine
 10
5.3239887962
 20
6.6202332071
 30
0.0
 11
5.326858012299998
 21
6.627710605199998
 31
0.0
  0
LINE
  5
5B1
330
1F
100
AcDbEntity
  8
0
  6
CONTINUOUS
100
AcDbLine
 10
5.326858012299998
 20
6.627710605199998
 30
0.0
 11
5.329208605199998
 21
6.636756891799999
 31
0.0
  0
LINE
  5
5B2
330
1F
100
AcDbEntity
  8
0
  6
CONTINUOUS
100
AcDbLine
 10
5.329208605199998
 20
6.636756891799999
 30
0.0
 11
5.3310168608
 21
6.647306273499999
 31
0.0
  0
LINE
  5
5B3
330
1F
100
AcDbEntity
  8
0
  6
CONTINUOUS
100
AcDbLine
 10
5.3310168608
 20
6.647306273499999
 30
0.0
 11
5.332259064999998
 21
6.659292957
 31
0.0
  0
LINE
  5
5B4
330
1F
100
AcDbEntity
  8
0
  6
CONTINUOUS
100
AcDbLine
 10
5.332259064999998
 20
6.659292957
 30
0.0
 11
5.332919847
 21
6.6727715434
 31
0.0
  0
LINE
  5
5B5
330
1F
100
AcDbEntity
  8
0
  6
CONTINUOUS
100
AcDbLine
 10
5.332919847
 20
6.6727715434
 30
0.0
 11
5.332987094299999
 21
6.6876536308
 31
0.0
  0
LINE
  5
5B6
330
1F
100
AcDbEntity
  8
0
  6
CONTINUOUS
100
AcDbLine
 10
5.332987094299999
 20
6.6876536308
 30
0.0
 11
5.3324543634
 21
6.703824027599998
 31
0.0
  0
LINE
  5
5B7
330
1F
100
AcDbEntity
  8
0
  6
CONTINUOUS
100
AcDbLine
 10
5.3324543634
 20
6.703824027599998
 30
0.0
 11
5.331315210499998
 21
6.721167542399999
 31
0.0
  0
LINE
  5
5B8
330
1F
100
AcDbEntity
  8
0
  6
CONTINUOUS
100
AcDbLine
 10
5.331315210499998
 20
6.721167542399999
 30
0.0
 11
5.3295631921
 21
6.739568983699999
 31
0.0
  0
LINE
  5
5B9
330
1F
100
AcDbEntity
  8
0
  6
CONTINUOUS
100
AcDbLine
 10
5.3295631921
 20
6.739568983699999
 30
0.0
 11
5.327144742699998
 21
6.7592972783
 31
0.0
  0
LINE
  5
5BA
330
1F
100
AcDbEntity
  8
0
  6
CONTINUOUS
100
AcDbLine
 10
5.327144742699998
 20
6.7592972783
 30
0.0
 11
5.324082149599998
 21
6.7800483811
 31
0.0
  0
LINE
  5
5BB
330
1F
100
AcDbEntity
  8
0
  6
CONTINUOUS
100
AcDbLine
 10
5.324082149599998
 20
6.7800483811
 30
0.0
 11
5.3203924943
 21
6.8016751098
 31
0.0
  0
LINE
  5
5BC
330
1F
100
AcDbEntity
  8
0
  6
CONTINUOUS
100
AcDbLine
 10
5.3203924943
 20
6.8016751098
 30
0.0
 11
5.316092858
 21
6.8240302821
 31
0.0
  0
LINE
  5
5BD
330
1F
100
AcDbEntity
  8
0
  6
CONTINUOUS
100
AcDbLine
 10
5.316092858
 20
6.8240302821
 30
0.0
 11
5.3112003225
 21
6.8469667157
 31
0.0
  0
LINE
  5
5BE
330
1F
100
AcDbEntity
  8
0
  6
CONTINUOUS
100
AcDbLine
 10
5.3112003225
 20
6.8469667157
 30
0.0
 11
5.304378417399998
 21
6.875870212
 31
0.0
  0
LINE
  5
5BF
330
1F
100
AcDbEntity
  8
0
  6
CONTINUOUS
100
AcDbLine
 10
5.304378417399998
 20
6.875870212
 30
0.0
 11
5.296684802699998
 21
6.9054974888
 31
0.0
  0
LINE
  5
5C0
330
1F
100
AcDbEntity
  8
0
  6
CONTINUOUS
100
AcDbLine
 10
5.296684802699998
 20
6.9054974888
 30
0.0
 11
5.2881907299
 21
6.935574169199999
 31
0.0
  0
LINE
  5
5C1
330
1F
100
AcDbEntity
  8
0
  6
CONTINUOUS
100
AcDbLine
 10
5.2881907299
 20
6.935574169199999
 30
0.0
 11
5.2789674504
 21
6.9658258762
 31
0.0
  0
LINE
  5
5CC
330
1F
100
AcDbEntity
  8
0
  6
CONTINUOUS
100
AcDbLine
 10
4.911716638299998
 20
7.5998982047
 30
0.0
 11
4.921854028299999
 21
7.582913712299998
 31
0.0
  0
LINE
  5
5CD
330
1F
100
AcDbEntity
  8
0
  6
CONTINUOUS
100
AcDbLine
 10
4.921854028299999
 20
7.582913712299998
 30
0.0
 11
4.931914827199999
 21
7.567348121599998
 31
0.0
  0
LINE
  5
5CE
330
1F
100
AcDbEntity
  8
0
  6
CONTINUOUS
100
AcDbLine
 10
4.931914827199999
 20
7.567348121599998
 30
0.0
 11
4.941873569
 21
7.553300347799998
 31
0.0
  0
LINE
  5
5CF
330
1F
100
AcDbEntity
  8
0
  6
CONTINUOUS
100
AcDbLine
 10
4.941873569
 20
7.553300347799998
 30
0.0
 11
4.951704787899998
 21
7.540869306399998
 31
0.0
  0
LINE
  5
5D0
330
1F
100
AcDbEntity
  8
0
  6
CONTINUOUS
100
AcDbLine
 10
4.951704787899998
 20
7.540869306399998
 30
0.0
 11
4.9616468513
 21
7.529882130999999
 31
0.0
  0
LINE
  5
5D1
330
1F
100
AcDbEntity
  8
0
  6
CONTINUOUS
100
AcDbLine
 10
4.9616468513
 20
7.529882130999999
 30
0.0
 11
4.971426104199998
 21
7.5207523485
 31
0.0
  0
LINE
  5
5D2
330
1F
100
AcDbEntity
  8
0
  6
CONTINUOUS
100
AcDbLine
 10
4.971426104199998
 20
7.5207523485
 30
0.0
 11
4.9810086923
 21
7.5135563134
 31
0.0
  0
LINE
  5
5D3
330
1F
100
AcDbEntity
  8
0
  6
CONTINUOUS
100
AcDbLine
 10
4.9810086923
 20
7.5135563134
 30
0.0
 11
4.990360761199998
 21
7.508370379999998
 31
0.0
  0
LINE
  5
5D4
330
1F
100
AcDbEntity
  8
0
  6
CONTINUOUS
100
AcDbLine
 10
4.990360761199998
 20
7.508370379999998
 30
0.0
 11
4.9992533307
 21
7.505303406499998
 31
0.0
  0
LINE
  5
5D5
330
1F
100
AcDbEntity
  8
0
  6
CONTINUOUS
100
AcDbLine
 10
4.9992533307
 20
7.505303406499998
 30
0.0
 11
5.007900433199998
 21
7.5042165684
 31
0.0
  0
LINE
  5
5D6
330
1F
100
AcDbEntity
  8
0
  6
CONTINUOUS
100
AcDbLine
 10
5.007900433199998
 20
7.5042165684
 30
0.0
 11
5.016275247799999
 21
7.505110844899999
 31
0.0
  0
LINE
  5
5D7
330
1F
100
AcDbEntity
  8
0
  6
CONTINUOUS
100
AcDbLine
 10
5.016275247799999
 20
7.505110844899999
 30
0.0
 11
5.024350953999999
 21
7.507987215499999
 31
0.0
  0
LINE
  5
5D8
330
1F
100
AcDbEntity
  8
0
  6
CONTINUOUS
100
AcDbLine
 10
5.024350953999999
 20
7.507987215499999
 30
0.0
 11
5.0323818818
 21
7.513042272499999
 31
0.0
  0
LINE
  5
5D9
330
1F
100
AcDbEntity
  8
0
  6
CONTINUOUS
100
AcDbLine
 10
5.0323818818
 20
7.513042272499999
 30
0.0
 11
5.0400834504
 21
7.5201526569
 31
0.0
  0
LINE
  5
5DA
330
1F
100
AcDbEntity
  8
0
  6
CONTINUOUS
100
AcDbLine
 10
5.0400834504
 20
7.5201526569
 30
0.0
 11
5.0474421316
 21
7.5292408215
 31
0.0
  0
LINE
  5
5DB
330
1F
100
AcDbEntity
  8
0
  6
CONTINUOUS
100
AcDbLine
 10
5.0474421316
 20
7.5292408215
 30
0.0
 11
5.0544443975
 21
7.540229218899998
 31
0.0
  0
LINE
  5
5DC
330
1F
100
AcDbEntity
  8
0
  6
CONTINUOUS
100
AcDbLine
 10
5.0544443975
 20
7.540229218899998
 30
0.0
 11
5.060936732
 21
7.55271451
 31
0.0
  0
LINE
  5
5DD
330
1F
100
AcDbEntity
  8
0
  6
CONTINUOUS
100
AcDbLine
 10
5.060936732
 20
7.55271451
 30
0.0
 11
5.067099184399999
 21
7.5668465196
 31
0.0
  0
LINE
  5
5DE
330
1F
100
AcDbEntity
  8
0
  6
CONTINUOUS
100
AcDbLine
 10
5.067099184399999
 20
7.5668465196
 30
0.0
 11
5.0729698551
 21
7.582632497699998
 31
0.0
  0
LINE
  5
5DF
330
1F
100
AcDbEntity
  8
0
  6
CONTINUOUS
100
AcDbLine
 10
5.0729698551
 20
7.582632497699998
 30
0.0
 11
5.078519137999998
 21
7.599898643999998
 31
0.0
  0
LINE
  5
5E0
330
1F
100
AcDbEntity
  8
0
  6
CONTINUOUS
100
AcDbLine
 10
4.3919789679
 20
9.0484663529
 30
0.0
 11
4.3922380781
 21
9.048466495499999
 31
0.0
  0
LINE
  5
5E1
330
1F
100
AcDbEntity
  8
0
  6
CONTINUOUS
100
AcDbLine
 10
4.3922380781
 20
9.048466495499999
 30
0.0
 11
4.3949178794
 21
9.048467981299999
 31
0.0
  0
LINE
  5
5E2
330
1F
100
AcDbEntity
  8
0
  6
CONTINUOUS
100
AcDbLine
 10
4.3949178794
 20
9.048467981299999
 30
0.0
 11
4.399888924799999
 21
9.048470741900001
 31
0.0
  0
LINE
  5
5E3
330
1F
100
AcDbEntity
  8
0
  6
CONTINUOUS
100
AcDbLine
 10
4.399888924799999
 20
9.048470741900001
 30
0.0
 11
4.4071518618
 21
9.048474783899999
 31
0.0
  0
LINE
  5
5E4
330
1F
100
AcDbEntity
  8
0
  6
CONTINUOUS
100
AcDbLine
 10
4.4071518618
 20
9.048474783899999
 30
0.0
 11
4.416703404299998
 21
9.048480122
 31
0.0
  0
LINE
  5
5E5
330
1F
100
AcDbEntity
  8
0
  6
CONTINUOUS
100
AcDbLine
 10
4.416703404299998
 20
9.048480122
 30
0.0
 11
4.4285366642
 21
9.0484867717
 31
0.0
  0
LINE
  5
5E6
330
1F
100
AcDbEntity
  8
0
  6
CONTINUOUS
100
AcDbLine
 10
4.4285366642
 20
9.0484867717
 30
0.0
 11
4.442644753299998
 21
9.048494748200001
 31
0.0
  0
LINE
  5
5E7
330
1F
100
AcDbEntity
  8
0
  6
CONTINUOUS
100
AcDbLine
 10
4.442644753299998
 20
9.048494748200001
 30
0.0
 11
4.459026334299998
 21
9.0485040727
 31
0.0
  0
LINE
  5
5E8
330
1F
100
AcDbEntity
  8
0
  6
CONTINUOUS
100
AcDbLine
 10
4.459026334299998
 20
9.0485040727
 30
0.0
 11
4.477676171199998
 21
9.0485147713
 31
0.0
  0
LINE
  5
5E9
330
1F
100
AcDbEntity
  8
0
  6
CONTINUOUS
100
AcDbLine
 10
4.477676171199998
 20
9.0485147713
 30
0.0
 11
4.498581525799998
 21
9.048526866699999
 31
0.0
  0
LINE
  5
5EA
330
1F
100
AcDbEntity
  8
0
  6
CONTINUOUS
100
AcDbLine
 10
4.498581525799998
 20
9.048526866699999
 30
0.0
 11
4.5217296597
 21
9.0485403813
 31
0.0
  0
LINE
  5
5EB
330
1F
100
AcDbEntity
  8
0
  6
CONTINUOUS
100
AcDbLine
 10
4.5217296597
 20
9.0485403813
 30
0.0
 11
4.5490375565
 21
9.048556482999998
 31
0.0
  0
LINE
  5
5EC
330
1F
100
AcDbEntity
  8
0
  6
CONTINUOUS
100
AcDbLine
 10
4.5490375565
 20
9.048556482999998
 30
0.0
 11
4.578911484299998
 21
9.0485742847
 31
0.0
  0
LINE
  5
5ED
330
1F
100
AcDbEntity
  8
0
  6
CONTINUOUS
100
AcDbLine
 10
4.578911484299998
 20
9.0485742847
 30
0.0
 11
4.6113283898
 21
9.048593808999999
 31
0.0
  0
LINE
  5
5EE
330
1F
100
AcDbEntity
  8
0
  6
CONTINUOUS
100
AcDbLine
 10
4.6113283898
 20
9.048593808999999
 30
0.0
 11
4.6462652197
 21
9.048615078600001
 31
0.0
  0
LINE
  5
5EF
330
1F
100
AcDbEntity
  8
0
  6
CONTINUOUS
100
AcDbLine
 10
4.6462652197
 20
9.048615078600001
 30
0.0
 11
4.678967555399998
 21
9.0486351897
 31
0.0
  0
LINE
  5
5F0
330
1F
100
AcDbEntity
  8
0
  6
CONTINUOUS
100
AcDbLine
 10
4.678967555399998
 20
9.0486351897
 30
0.0
 11
4.7135943492
 21
9.048656676
 31
0.0
  0
LINE
  5
5F1
330
1F
100
AcDbEntity
  8
0
  6
CONTINUOUS
100
AcDbLine
 10
4.7135943492
 20
9.048656676
 30
0.0
 11
4.7501253618
 21
9.048679534399999
 31
0.0
  0
LINE
  5
5F2
330
1F
100
AcDbEntity
  8
0
  6
CONTINUOUS
100
AcDbLine
 10
4.7501253618
 20
9.048679534399999
 30
0.0
 11
4.7885403544
 21
9.048703761799998
 31
0.0
  0
LINE
  5
5F3
330
1F
100
AcDbEntity
  8
0
  6
CONTINUOUS
100
AcDbLine
 10
4.7885403544
 20
9.048703761799998
 30
0.0
 11
4.829123597999998
 21
9.0487304733
 31
0.0
  0
LINE
  5
5F4
330
1F
100
AcDbEntity
  8
0
  6
CONTINUOUS
100
AcDbLine
 10
4.829123597999998
 20
9.0487304733
 30
0.0
 11
4.8716229119
 21
9.048759114299999
 31
0.0
  0
LINE
  5
5F5
330
1F
100
AcDbEntity
  8
0
  6
CONTINUOUS
100
AcDbLine
 10
4.8716229119
 20
9.048759114299999
 30
0.0
 11
4.915936360299999
 21
9.048787634299999
 31
0.0
  0
LINE
  5
5F6
330
1F
100
AcDbEntity
  8
0
  6
CONTINUOUS
100
AcDbLine
 10
4.915936360299999
 20
9.048787634299999
 30
0.0
 11
4.9619620073
 21
9.048813982999998
 31
0.0
  0
LINE
  5
5F7
330
1F
100
AcDbEntity
  8
0
  6
CONTINUOUS
100
AcDbLine
 10
4.7598093253
 20
9.0558205744
 30
0.0
 11
4.719639362799998
 21
9.0558192086
 31
0.0
  0
LINE
  5
5F8
330
1F
100
AcDbEntity
  8
0
  6
CONTINUOUS
100
AcDbLine
 10
4.719639362799998
 20
9.0558192086
 30
0.0
 11
4.6807172897
 21
9.055814935599999
 31
0.0
  0
LINE
  5
5F9
330
1F
100
AcDbEntity
  8
0
  6
CONTINUOUS
100
AcDbLine
 10
4.6807172897
 20
9.055814935599999
 30
0.0
 11
4.6431765215
 21
9.0558106559
 31
0.0
  0
LINE
  5
5FA
330
1F
100
AcDbEntity
  8
0
  6
CONTINUOUS
100
AcDbLine
 10
4.6431765215
 20
9.0558106559
 30
0.0
 11
4.606978790799999
 21
9.0558074201
 31
0.0
  0
LINE
  5
5FB
330
1F
100
AcDbEntity
  8
0
  6
CONTINUOUS
100
AcDbLine
 10
4.606978790799999
 20
9.0558074201
 30
0.0
 11
4.5721905051
 21
9.055804358099999
 31
0.0
  0
LINE
  5
5FC
330
1F
100
AcDbEntity
  8
0
  6
CONTINUOUS
100
AcDbLine
 10
4.5721905051
 20
9.055804358099999
 30
0.0
 11
4.538827864099999
 21
9.055801465
 31
0.0
  0
LINE
  5
5FD
330
1F
100
AcDbEntity
  8
0
  6
CONTINUOUS
100
AcDbLine
 10
4.538827864099999
 20
9.055801465
 30
0.0
 11
4.500311437099998
 21
9.055798176999999
 31
0.0
  0
LINE
  5
5FE
330
1F
100
AcDbEntity
  8
0
  6
CONTINUOUS
100
AcDbLine
 10
4.500311437099998
 20
9.055798176999999
 30
0.0
 11
4.4639119857
 21
9.055795120499999
 31
0.0
  0
LINE
  5
5FF
330
1F
100
AcDbEntity
  8
0
  6
CONTINUOUS
100
AcDbLine
 10
4.4639119857
 20
9.055795120499999
 30
0.0
 11
4.429653240299999
 21
9.055792288500001
 31
0.0
  0
LINE
  5
600
330
1F
100
AcDbEntity
  8
0
  6
CONTINUOUS
100
AcDbLine
 10
4.429653240299999
 20
9.055792288500001
 30
0.0
 11
4.397558931399998
 21
9.055789674099999
 31
0.0
  0
LINE
  5
601
330
1F
100
AcDbEntity
  8
0
  6
CONTINUOUS
100
AcDbLine
 10
4.397558931399998
 20
9.055789674099999
 30
0.0
 11
4.367638366499998
 21
9.055787269599999
 31
0.0
  0
LINE
  5
602
330
1F
100
AcDbEntity
  8
0
  6
CONTINUOUS
100
AcDbLine
 10
4.367638366499998
 20
9.055787269599999
 30
0.0
 11
4.3398968485
 21
9.0557850685
 31
0.0
  0
LINE
  5
603
330
1F
100
AcDbEntity
  8
0
  6
CONTINUOUS
100
AcDbLine
 10
4.3398968485
 20
9.0557850685
 30
0.0
 11
4.3143518682
 21
9.055783066
 31
0.0
  0
LINE
  5
604
330
1F
100
AcDbEntity
  8
0
  6
CONTINUOUS
100
AcDbLine
 10
4.3143518682
 20
9.055783066
 30
0.0
 11
4.291020916299999
 21
9.055781256900001
 31
0.0
  0
LINE
  5
605
330
1F
100
AcDbEntity
  8
0
  6
CONTINUOUS
100
AcDbLine
 10
4.291020916299999
 20
9.055781256900001
 30
0.0
 11
4.269910897399998
 21
9.0557796359
 31
0.0
  0
LINE
  5
606
330
1F
100
AcDbEntity
  8
0
  6
CONTINUOUS
100
AcDbLine
 10
4.269910897399998
 20
9.0557796359
 30
0.0
 11
4.2510247099
 21
9.0557781985
 31
0.0
  0
LINE
  5
607
330
1F
100
AcDbEntity
  8
0
  6
CONTINUOUS
100
AcDbLine
 10
4.2510247099
 20
9.0557781985
 30
0.0
 11
4.234373793199998
 21
9.055776941599999
 31
0.0
  0
LINE
  5
608
330
1F
100
AcDbEntity
  8
0
  6
CONTINUOUS
100
AcDbLine
 10
4.234373793199998
 20
9.055776941599999
 30
0.0
 11
4.2199695867
 21
9.055775862
 31
0.0
  0
LINE
  5
609
330
1F
100
AcDbEntity
  8
0
  6
CONTINUOUS
100
AcDbLine
 10
4.2199695867
 20
9.055775862
 30
0.0
 11
4.2070265611
 21
9.0557748973
 31
0.0
  0
LINE
  5
60A
330
1F
100
AcDbEntity
  8
0
  6
CONTINUOUS
100
AcDbLine
 10
4.2070265611
 20
9.0557748973
 30
0.0
 11
4.1966731847
 21
9.055774129799999
 31
0.0
  0
LINE
  5
60B
330
1F
100
AcDbEntity
  8
0
  6
CONTINUOUS
100
AcDbLine
 10
4.1966731847
 20
9.055774129799999
 30
0.0
 11
4.1889160718
 21
9.0557735574
 31
0.0
  0
LINE
  5
60C
330
1F
100
AcDbEntity
  8
0
  6
CONTINUOUS
100
AcDbLine
 10
4.1889160718
 20
9.0557735574
 30
0.0
 11
4.1837618366
 21
9.0557731783
 31
0.0
  0
LINE
  5
60D
330
1F
100
AcDbEntity
  8
0
  6
CONTINUOUS
100
AcDbLine
 10
4.1837618366
 20
9.0557731783
 30
0.0
 11
4.1813034885
 21
9.0557729974
 31
0.0
  0
LINE
  5
60E
330
1F
100
AcDbEntity
  8
0
  6
CONTINUOUS
100
AcDbLine
 10
4.1813034885
 20
9.0557729974
 30
0.0
 11
4.1811905866
 21
9.055772989099999
 31
0.0
  0
LINE
  5
64F
330
1F
100
AcDbEntity
  8
0
  6
CONTINUOUS
100
AcDbLine
 10
10.98712687109998
 20
6.1508921247
 30
0.0
 11
10.8697680598
 21
6.1529008907
 31
0.0
  0
LINE
  5
650
330
1F
100
AcDbEntity
  8
0
  6
CONTINUOUS
100
AcDbLine
 10
10.8697680598
 20
6.1529008907
 30
0.0
 11
10.75245722789998
 21
6.1553008115
 31
0.0
  0
LINE
  5
651
330
1F
100
AcDbEntity
  8
0
  6
CONTINUOUS
100
AcDbLine
 10
14.36113173779999
 20
6.9658258984
 30
0.0
 11
14.35395901579999
 21
6.944297970599999
 31
0.0
  0
LINE
  5
652
330
1F
100
AcDbEntity
  8
0
  6
CONTINUOUS
100
AcDbLine
 10
14.35395901579999
 20
6.944297970599999
 30
0.0
 11
14.34691888999999
 21
6.9228610639
 31
0.0
  0
LINE
  5
653
330
1F
100
AcDbEntity
  8
0
  6
CONTINUOUS
100
AcDbLine
 10
14.34691888999999
 20
6.9228610639
 30
0.0
 11
14.3400417396
 21
6.9016123657
 31
0.0
  0
LINE
  5
654
330
1F
100
AcDbEntity
  8
0
  6
CONTINUOUS
100
AcDbLine
 10
14.3400417396
 20
6.9016123657
 30
0.0
 11
14.3331535385
 21
6.8800059747
 31
0.0
  0
LINE
  5
655
330
1F
100
AcDbEntity
  8
0
  6
CONTINUOUS
100
AcDbLine
 10
14.3331535385
 20
6.8800059747
 30
0.0
 11
14.3264663311
 21
6.8587075733
 31
0.0
  0
LINE
  5
656
330
1F
100
AcDbEntity
  8
0
  6
CONTINUOUS
100
AcDbLine
 10
14.3264663311
 20
6.8587075733
 30
0.0
 11
14.320009447
 21
6.8378258033
 31
0.0
  0
LINE
  5
657
330
1F
100
AcDbEntity
  8
0
  6
CONTINUOUS
100
AcDbLine
 10
14.320009447
 20
6.8378258033
 30
0.0
 11
14.3139631158
 21
6.8179721284
 31
0.0
  0
LINE
  5
658
330
1F
100
AcDbEntity
  8
0
  6
CONTINUOUS
100
AcDbLine
 10
14.3139631158
 20
6.8179721284
 30
0.0
 11
14.3081556419
 21
6.7986189046
 31
0.0
  0
LINE
  5
659
330
1F
100
AcDbEntity
  8
0
  6
CONTINUOUS
100
AcDbLine
 10
14.3081556419
 20
6.7986189046
 30
0.0
 11
14.3026098188
 21
6.7798653137
 31
0.0
  0
LINE
  5
65A
330
1F
100
AcDbEntity
  8
0
  6
CONTINUOUS
100
AcDbLine
 10
14.3026098188
 20
6.7798653137
 30
0.0
 11
14.2971753491
 21
6.761215047799998
 31
0.0
  0
LINE
  5
65B
330
1F
100
AcDbEntity
  8
0
  6
CONTINUOUS
100
AcDbLine
 10
14.2971753491
 20
6.761215047799998
 30
0.0
 11
14.2920344899
 21
6.7433137452
 31
0.0
  0
LINE
  5
65C
330
1F
100
AcDbEntity
  8
0
  6
CONTINUOUS
100
AcDbLine
 10
14.2920344899
 20
6.7433137452
 30
0.0
 11
14.28720702809999
 21
6.726263955199998
 31
0.0
  0
LINE
  5
65D
330
1F
100
AcDbEntity
  8
0
  6
CONTINUOUS
100
AcDbLine
 10
14.28720702809999
 20
6.726263955199998
 30
0.0
 11
14.2829686089
 21
6.7110928448
 31
0.0
  0
LINE
  5
65E
330
1F
100
AcDbEntity
  8
0
  6
CONTINUOUS
100
AcDbLine
 10
14.2829686089
 20
6.7110928448
 30
0.0
 11
14.2790137335
 21
6.696760497599998
 31
0.0
  0
LINE
  5
65F
330
1F
100
AcDbEntity
  8
0
  6
CONTINUOUS
100
AcDbLine
 10
14.2790137335
 20
6.696760497599998
 30
0.0
 11
14.2753544321
 21
6.6833418348
 31
0.0
  0
LINE
  5
660
330
1F
100
AcDbEntity
  8
0
  6
CONTINUOUS
100
AcDbLine
 10
14.2753544321
 20
6.6833418348
 30
0.0
 11
14.27189499829998
 21
6.6705111044
 31
0.0
  0
LINE
  5
661
330
1F
100
AcDbEntity
  8
0
  6
CONTINUOUS
100
AcDbLine
 10
14.27189499829998
 20
6.6705111044
 30
0.0
 11
14.2687528427
 21
6.658730856
 31
0.0
  0
LINE
  5
662
330
1F
100
AcDbEntity
  8
0
  6
CONTINUOUS
100
AcDbLine
 10
14.2687528427
 20
6.658730856
 30
0.0
 11
14.2659368941
 21
6.648067950099998
 31
0.0
  0
LINE
  5
663
330
1F
100
AcDbEntity
  8
0
  6
CONTINUOUS
100
AcDbLine
 10
14.2659368941
 20
6.648067950099998
 30
0.0
 11
14.2635806717
 21
6.6390671833
 31
0.0
  0
LINE
  5
664
330
1F
100
AcDbEntity
  8
0
  6
CONTINUOUS
100
AcDbLine
 10
14.2635806717
 20
6.6390671833
 30
0.0
 11
14.26151488609999
 21
6.631114823699999
 31
0.0
  0
LINE
  5
665
330
1F
100
AcDbEntity
  8
0
  6
CONTINUOUS
100
AcDbLine
 10
14.26151488609999
 20
6.631114823699999
 30
0.0
 11
14.2597441065
 21
6.6242514946
 31
0.0
  0
LINE
  5
666
330
1F
100
AcDbEntity
  8
0
  6
CONTINUOUS
100
AcDbLine
 10
14.2597441065
 20
6.6242514946
 30
0.0
 11
14.2582291628
 21
6.618346023099999
 31
0.0
  0
LINE
  5
667
330
1F
100
AcDbEntity
  8
0
  6
CONTINUOUS
100
AcDbLine
 10
14.2582291628
 20
6.618346023099999
 30
0.0
 11
14.2570261574
 21
6.6136329598
 31
0.0
  0
LINE
  5
668
330
1F
100
AcDbEntity
  8
0
  6
CONTINUOUS
100
AcDbLine
 10
14.2570261574
 20
6.6136329598
 30
0.0
 11
14.2561376165
 21
6.610137952699998
 31
0.0
  0
LINE
  5
669
330
1F
100
AcDbEntity
  8
0
  6
CONTINUOUS
100
AcDbLine
 10
14.2561376165
 20
6.610137952699998
 30
0.0
 11
14.25558151049999
 21
6.6079457107
 31
0.0
  0
LINE
  5
66A
330
1F
100
AcDbEntity
  8
0
  6
CONTINUOUS
100
AcDbLine
 10
14.25558151049999
 20
6.6079457107
 30
0.0
 11
14.25531347699999
 21
6.6068871907
 31
0.0
  0
LINE
  5
66B
330
1F
100
AcDbEntity
  8
0
  6
CONTINUOUS
100
AcDbLine
 10
14.25531347699999
 20
6.6068871907
 30
0.0
 11
14.2553222584
 21
6.6069216283
 31
0.0
  0
LINE
  5
66C
330
1F
100
AcDbEntity
  8
0
  6
CONTINUOUS
100
AcDbLine
 10
14.6552093046
 20
8.2658259775
 30
0.0
 11
14.647098574
 21
8.2396397486
 31
0.0
  0
LINE
  5
66D
330
1F
100
AcDbEntity
  8
0
  6
CONTINUOUS
100
AcDbLine
 10
14.647098574
 20
8.2396397486
 30
0.0
 11
14.639483149
 21
8.2135497771
 31
0.0
  0
LINE
  5
66E
330
1F
100
AcDbEntity
  8
0
  6
CONTINUOUS
100
AcDbLine
 10
14.639483149
 20
8.2135497771
 30
0.0
 11
14.6324092901
 21
8.1877335001
 31
0.0
  0
LINE
  5
66F
330
1F
100
AcDbEntity
  8
0
  6
CONTINUOUS
100
AcDbLine
 10
14.6324092901
 20
8.1877335001
 30
0.0
 11
14.6259232583
 21
8.162368354799998
 31
0.0
  0
LINE
  5
670
330
1F
100
AcDbEntity
  8
0
  6
CONTINUOUS
100
AcDbLine
 10
14.6259232583
 20
8.162368354799998
 30
0.0
 11
14.6200713143
 21
8.137631778499999
 31
0.0
  0
LINE
  5
671
330
1F
100
AcDbEntity
  8
0
  6
CONTINUOUS
100
AcDbLine
 10
14.6200713143
 20
8.137631778499999
 30
0.0
 11
14.6148591241
 21
8.113536665899999
 31
0.0
  0
LINE
  5
672
330
1F
100
AcDbEntity
  8
0
  6
CONTINUOUS
100
AcDbLine
 10
14.6148591241
 20
8.113536665899999
 30
0.0
 11
14.61028817759999
 21
8.090150104500001
 31
0.0
  0
LINE
  5
673
330
1F
100
AcDbEntity
  8
0
  6
CONTINUOUS
100
AcDbLine
 10
14.61028817759999
 20
8.090150104500001
 30
0.0
 11
14.6063793026
 21
8.067646208899999
 31
0.0
  0
LINE
  5
674
330
1F
100
AcDbEntity
  8
0
  6
CONTINUOUS
100
AcDbLine
 10
14.6063793026
 20
8.067646208899999
 30
0.0
 11
14.6031533269
 21
8.0461990935
 31
0.0
  0
LINE
  5
675
330
1F
100
AcDbEntity
  8
0
  6
CONTINUOUS
100
AcDbLine
 10
14.6031533269
 20
8.0461990935
 30
0.0
 11
14.60063107809999
 21
8.0259828727
 31
0.0
  0
LINE
  5
676
330
1F
100
AcDbEntity
  8
0
  6
CONTINUOUS
100
AcDbLine
 10
14.60063107809999
 20
8.0259828727
 30
0.0
 11
14.5988628374
 21
8.0076484558
 31
0.0
  0
LINE
  5
677
330
1F
100
AcDbEntity
  8
0
  6
CONTINUOUS
100
AcDbLine
 10
14.5988628374
 20
8.0076484558
 30
0.0
 11
14.59773952619999
 21
7.990537953099999
 31
0.0
  0
LINE
  5
678
330
1F
100
AcDbEntity
  8
0
  6
CONTINUOUS
100
AcDbLine
 10
14.59773952619999
 20
7.990537953099999
 30
0.0
 11
14.59725464599999
 21
7.9747747211
 31
0.0
  0
LINE
  5
679
330
1F
100
AcDbEntity
  8
0
  6
CONTINUOUS
100
AcDbLine
 10
14.59725464599999
 20
7.9747747211
 30
0.0
 11
14.59740169799998
 21
7.960482116
 31
0.0
  0
LINE
  5
67A
330
1F
100
AcDbEntity
  8
0
  6
CONTINUOUS
100
AcDbLine
 10
14.59740169799998
 20
7.960482116
 30
0.0
 11
14.5981741837
 21
7.947783494099998
 31
0.0
  0
LINE
  5
67B
330
1F
100
AcDbEntity
  8
0
  6
CONTINUOUS
100
AcDbLine
 10
14.5981741837
 20
7.947783494099998
 30
0.0
 11
14.5995173112
 21
7.937025554799999
 31
0.0
  0
LINE
  5
67C
330
1F
100
AcDbEntity
  8
0
  6
CONTINUOUS
100
AcDbLine
 10
14.5995173112
 20
7.937025554799999
 30
0.0
 11
14.6014287183
 21
7.9278130921
 31
0.0
  0
LINE
  5
67D
330
1F
100
AcDbEntity
  8
0
  6
CONTINUOUS
100
AcDbLine
 10
14.6014287183
 20
7.9278130921
 30
0.0
 11
14.60388491079998
 21
7.9202039708
 31
0.0
  0
LINE
  5
67E
330
1F
100
AcDbEntity
  8
0
  6
CONTINUOUS
100
AcDbLine
 10
14.60388491079998
 20
7.9202039708
 30
0.0
 11
14.6068623944
 21
7.9142560561
 31
0.0
  0
LINE
  5
67F
330
1F
100
AcDbEntity
  8
0
  6
CONTINUOUS
100
AcDbLine
 10
14.6068623944
 20
7.9142560561
 30
0.0
 11
14.6103376748
 21
7.910027212899999
 31
0.0
  0
LINE
  5
680
330
1F
100
AcDbEntity
  8
0
  6
CONTINUOUS
100
AcDbLine
 10
14.6103376748
 20
7.910027212899999
 30
0.0
 11
14.6142418324
 21
7.907569901699999
 31
0.0
  0
LINE
  5
681
330
1F
100
AcDbEntity
  8
0
  6
CONTINUOUS
100
AcDbLine
 10
14.6142418324
 20
7.907569901699999
 30
0.0
 11
14.6186134588
 21
7.906791566799999
 31
0.0
  0
LINE
  5
682
330
1F
100
AcDbEntity
  8
0
  6
CONTINUOUS
100
AcDbLine
 10
14.6186134588
 20
7.906791566799999
 30
0.0
 11
14.6187125199
 21
7.9068099897
 31
0.0
  0
LINE
  5
6A3
330
1F
100
AcDbEntity
  8
0
  6
CONTINUOUS
100
AcDbLine
 10
5.1020884601
 20
12.959994188
 30
0.0
 11
4.874905240199999
 21
12.95994124729999
 31
0.0
  0
LINE
  5
6A4
330
1F
100
AcDbEntity
  8
0
  6
CONTINUOUS
100
AcDbLine
 10
4.874905240199999
 20
12.95994124729999
 30
0.0
 11
4.647722020399998
 21
12.95978328869999
 31
0.0
  0
LINE
  5
6A5
330
1F
100
AcDbEntity
  8
0
  6
CONTINUOUS
100
AcDbLine
 10
4.568969239599999
 20
15.7570148864
 30
0.0
 11
4.571147243399999
 21
15.7555827921
 31
0.0
  0
LINE
  5
6A6
330
1F
100
AcDbEntity
  8
0
  6
CONTINUOUS
100
AcDbLine
 10
4.571147243399999
 20
15.7555827921
 30
0.0
 11
4.5733146999
 21
15.7534810833
 31
0.0
  0
LINE
  5
6A7
330
1F
100
AcDbEntity
  8
0
  6
CONTINUOUS
100
AcDbLine
 10
4.5733146999
 20
15.7534810833
 30
0.0
 11
4.575467623299998
 21
15.7507136247
 31
0.0
  0
LINE
  5
6A8
330
1F
100
AcDbEntity
  8
0
  6
CONTINUOUS
100
AcDbLine
 10
4.575467623299998
 20
15.7507136247
 30
0.0
 11
4.577602054899998
 21
15.74728550549999
 31
0.0
  0
LINE
  5
6A9
330
1F
100
AcDbEntity
  8
0
  6
CONTINUOUS
100
AcDbLine
 10
4.577602054899998
 20
15.74728550549999
 30
0.0
 11
4.5797140697
 21
15.7432030293
 31
0.0
  0
LINE
  5
6AA
330
1F
100
AcDbEntity
  8
0
  6
CONTINUOUS
100
AcDbLine
 10
4.5797140697
 20
15.7432030293
 30
0.0
 11
4.581799783999999
 21
15.7384737034
 31
0.0
  0
LINE
  5
6AB
330
1F
100
AcDbEntity
  8
0
  6
CONTINUOUS
100
AcDbLine
 10
4.581799783999999
 20
15.7384737034
 30
0.0
 11
4.5838553624
 21
15.7331062242
 31
0.0
  0
LINE
  5
6AC
330
1F
100
AcDbEntity
  8
0
  6
CONTINUOUS
100
AcDbLine
 10
4.5838553624
 20
15.7331062242
 30
0.0
 11
4.585877025
 21
15.7271104619
 31
0.0
  0
LINE
  5
6AD
330
1F
100
AcDbEntity
  8
0
  6
CONTINUOUS
100
AcDbLine
 10
4.585877025
 20
15.7271104619
 30
0.0
 11
4.5878610542
 21
15.7204974417
 31
0.0
  0
LINE
  5
6AE
330
1F
100
AcDbEntity
  8
0
  6
CONTINUOUS
100
AcDbLine
 10
4.5878610542
 20
15.7204974417
 30
0.0
 11
4.5898038018
 21
15.7132793242
 31
0.0
  0
LINE
  5
6AF
330
1F
100
AcDbEntity
  8
0
  6
CONTINUOUS
100
AcDbLine
 10
4.5898038018
 20
15.7132793242
 30
0.0
 11
4.591701695199999
 21
15.7054693825
 31
0.0
  0
LINE
  5
6B0
330
1F
100
AcDbEntity
  8
0
  6
CONTINUOUS
100
AcDbLine
 10
4.591701695199999
 20
15.7054693825
 30
0.0
 11
4.593551244499999
 21
15.69708197789998
 31
0.0
  0
LINE
  5
6B1
330
1F
100
AcDbEntity
  8
0
  6
CONTINUOUS
100
AcDbLine
 10
4.593551244499999
 20
15.69708197789998
 30
0.0
 11
4.5953490487
 21
15.6881325337
 31
0.0
  0
LINE
  5
6B2
330
1F
100
AcDbEntity
  8
0
  6
CONTINUOUS
100
AcDbLine
 10
4.5953490487
 20
15.6881325337
 30
0.0
 11
4.5970918017
 21
15.6786375068
 31
0.0
  0
LINE
  5
6B3
330
1F
100
AcDbEntity
  8
0
  6
CONTINUOUS
100
AcDbLine
 10
4.5970918017
 20
15.6786375068
 30
0.0
 11
4.598776299099998
 21
15.6686143571
 31
0.0
  0
LINE
  5
6B4
330
1F
100
AcDbEntity
  8
0
  6
CONTINUOUS
100
AcDbLine
 10
4.598776299099998
 20
15.6686143571
 30
0.0
 11
4.600399442999998
 21
15.65808151579999
 31
0.0
  0
LINE
  5
6B5
330
1F
100
AcDbEntity
  8
0
  6
CONTINUOUS
100
AcDbLine
 10
4.600399442999998
 20
15.65808151579999
 30
0.0
 11
4.601958248999999
 21
15.6470583514
 31
0.0
  0
LINE
  5
6B6
330
1F
100
AcDbEntity
  8
0
  6
CONTINUOUS
100
AcDbLine
 10
4.601958248999999
 20
15.6470583514
 30
0.0
 11
4.6034498504
 21
15.6355651339
 31
0.0
  0
LINE
  5
6B7
330
1F
100
AcDbEntity
  8
0
  6
CONTINUOUS
100
AcDbLine
 10
4.6034498504
 20
15.6355651339
 30
0.0
 11
4.6048715045
 21
15.6236229979
 31
0.0
  0
LINE
  5
6B8
330
1F
100
AcDbEntity
  8
0
  6
CONTINUOUS
100
AcDbLine
 10
4.6048715045
 20
15.6236229979
 30
0.0
 11
4.6062205971
 21
15.61125390309999
 31
0.0
  0
LINE
  5
6B9
330
1F
100
AcDbEntity
  8
0
  6
CONTINUOUS
100
AcDbLine
 10
4.6062205971
 20
15.61125390309999
 30
0.0
 11
4.6074946473
 21
15.5984805947
 31
0.0
  0
LINE
  5
6BA
330
1F
100
AcDbEntity
  8
0
  6
CONTINUOUS
100
AcDbLine
 10
4.6074946473
 20
15.5984805947
 30
0.0
 11
4.6086913123
 21
15.58532656089998
 31
0.0
  0
LINE
  5
6BB
330
1F
100
AcDbEntity
  8
0
  6
CONTINUOUS
100
AcDbLine
 10
4.6086913123
 20
15.58532656089998
 30
0.0
 11
4.6098083917
 21
15.57181599039999
 31
0.0
  0
LINE
  5
6BC
330
1F
100
AcDbEntity
  8
0
  6
CONTINUOUS
100
AcDbLine
 10
4.6098083917
 20
15.57181599039999
 30
0.0
 11
4.610843831299998
 21
15.557973727
 31
0.0
  0
LINE
  5
6BD
330
1F
100
AcDbEntity
  8
0
  6
CONTINUOUS
100
AcDbLine
 10
4.610843831299998
 20
15.557973727
 30
0.0
 11
4.611795726999999
 21
15.5438252248
 31
0.0
  0
LINE
  5
6BE
330
1F
100
AcDbEntity
  8
0
  6
CONTINUOUS
100
AcDbLine
 10
4.611795726999999
 20
15.5438252248
 30
0.0
 11
4.612662328499999
 21
15.52939650099999
 31
0.0
  0
LINE
  5
6BF
330
1F
100
AcDbEntity
  8
0
  6
CONTINUOUS
100
AcDbLine
 10
4.612662328499999
 20
15.52939650099999
 30
0.0
 11
4.613442042199999
 21
15.514714088
 31
0.0
  0
LINE
  5
6C0
330
1F
100
AcDbEntity
  8
0
  6
CONTINUOUS
100
AcDbLine
 10
4.613442042199999
 20
15.514714088
 30
0.0
 11
4.6141334343
 21
15.4998049847
 31
0.0
  0
LINE
  5
6C1
330
1F
100
AcDbEntity
  8
0
  6
CONTINUOUS
100
AcDbLine
 10
4.6141334343
 20
15.4998049847
 30
0.0
 11
4.6147352335
 21
15.4846966068
 31
0.0
  0
LINE
  5
6C2
330
1F
100
AcDbEntity
  8
0
  6
CONTINUOUS
100
AcDbLine
 10
4.6147352335
 20
15.4846966068
 30
0.0
 11
4.615246332999999
 21
15.4694167366
 31
0.0
  0
LINE
  5
6C3
330
1F
100
AcDbEntity
  8
0
  6
CONTINUOUS
100
AcDbLine
 10
4.615246332999999
 20
15.4694167366
 30
0.0
 11
4.615665793099998
 21
15.4539934716
 31
0.0
  0
LINE
  5
6C4
330
1F
100
AcDbEntity
  8
0
  6
CONTINUOUS
100
AcDbLine
 10
4.615665793099998
 20
15.4539934716
 30
0.0
 11
4.615992842499998
 21
15.4384551732
 31
0.0
  0
LINE
  5
6C5
330
1F
100
AcDbEntity
  8
0
  6
CONTINUOUS
100
AcDbLine
 10
4.615992842499998
 20
15.4384551732
 30
0.0
 11
4.6162268797
 21
15.422830414
 31
0.0
  0
LINE
  5
6C6
330
1F
100
AcDbEntity
  8
0
  6
CONTINUOUS
100
AcDbLine
 10
4.6162268797
 20
15.422830414
 30
0.0
 11
4.616367474399998
 21
15.4071479258
 31
0.0
  0
LINE
  5
6C7
330
1F
100
AcDbEntity
  8
0
  6
CONTINUOUS
100
AcDbLine
 10
4.616367474399998
 20
15.4071479258
 30
0.0
 11
4.6164143681
 21
15.3914365466
 31
0.0
  0
LINE
  5
6C8
330
1F
100
AcDbEntity
  8
0
  6
CONTINUOUS
100
AcDbLine
 10
4.6164143681
 20
15.3914365466
 30
0.0
 11
4.616367474399998
 21
15.3757251674
 31
0.0
  0
LINE
  5
6C9
330
1F
100
AcDbEntity
  8
0
  6
CONTINUOUS
100
AcDbLine
 10
4.616367474399998
 20
15.3757251674
 30
0.0
 11
4.6162268797
 21
15.3600426792
 31
0.0
  0
LINE
  5
6CA
330
1F
100
AcDbEntity
  8
0
  6
CONTINUOUS
100
AcDbLine
 10
4.6162268797
 20
15.3600426792
 30
0.0
 11
4.615992842499998
 21
15.34441791999999
 31
0.0
  0
LINE
  5
6CB
330
1F
100
AcDbEntity
  8
0
  6
CONTINUOUS
100
AcDbLine
 10
4.615992842499998
 20
15.34441791999999
 30
0.0
 11
4.615665793099998
 21
15.3288796215
 31
0.0
  0
LINE
  5
6CC
330
1F
100
AcDbEntity
  8
0
  6
CONTINUOUS
100
AcDbLine
 10
4.615665793099998
 20
15.3288796215
 30
0.0
 11
4.615246332999999
 21
15.3134563566
 31
0.0
  0
LINE
  5
6CD
330
1F
100
AcDbEntity
  8
0
  6
CONTINUOUS
100
AcDbLine
 10
4.615246332999999
 20
15.3134563566
 30
0.0
 11
4.6147352335
 21
15.2981764864
 31
0.0
  0
LINE
  5
6CE
330
1F
100
AcDbEntity
  8
0
  6
CONTINUOUS
100
AcDbLine
 10
4.6147352335
 20
15.2981764864
 30
0.0
 11
4.6141334343
 21
15.2830681085
 31
0.0
  0
LINE
  5
6CF
330
1F
100
AcDbEntity
  8
0
  6
CONTINUOUS
100
AcDbLine
 10
4.6141334343
 20
15.2830681085
 30
0.0
 11
4.613442042199999
 21
15.26815900519999
 31
0.0
  0
LINE
  5
6D0
330
1F
100
AcDbEntity
  8
0
  6
CONTINUOUS
100
AcDbLine
 10
4.613442042199999
 20
15.26815900519999
 30
0.0
 11
4.612662328499999
 21
15.2534765921
 31
0.0
  0
LINE
  5
6D1
330
1F
100
AcDbEntity
  8
0
  6
CONTINUOUS
100
AcDbLine
 10
4.612662328499999
 20
15.2534765921
 30
0.0
 11
4.611795726999999
 21
15.2390478683
 31
0.0
  0
LINE
  5
6D2
330
1F
100
AcDbEntity
  8
0
  6
CONTINUOUS
100
AcDbLine
 10
4.611795726999999
 20
15.2390478683
 30
0.0
 11
4.610843831299998
 21
15.22489936619999
 31
0.0
  0
LINE
  5
6D3
330
1F
100
AcDbEntity
  8
0
  6
CONTINUOUS
100
AcDbLine
 10
4.610843831299998
 20
15.22489936619999
 30
0.0
 11
4.6098083917
 21
15.2110571028
 31
0.0
  0
LINE
  5
6D4
330
1F
100
AcDbEntity
  8
0
  6
CONTINUOUS
100
AcDbLine
 10
4.6098083917
 20
15.2110571028
 30
0.0
 11
4.6086913123
 21
15.1975465322
 31
0.0
  0
LINE
  5
6D5
330
1F
100
AcDbEntity
  8
0
  6
CONTINUOUS
100
AcDbLine
 10
4.6086913123
 20
15.1975465322
 30
0.0
 11
4.6074946473
 21
15.1843924985
 31
0.0
  0
LINE
  5
6D6
330
1F
100
AcDbEntity
  8
0
  6
CONTINUOUS
100
AcDbLine
 10
4.6074946473
 20
15.1843924985
 30
0.0
 11
4.6062205971
 21
15.1716191901
 31
0.0
  0
LINE
  5
6D7
330
1F
100
AcDbEntity
  8
0
  6
CONTINUOUS
100
AcDbLine
 10
4.6062205971
 20
15.1716191901
 30
0.0
 11
4.6048715045
 21
15.1592500953
 31
0.0
  0
LINE
  5
6D8
330
1F
100
AcDbEntity
  8
0
  6
CONTINUOUS
100
AcDbLine
 10
4.6048715045
 20
15.1592500953
 30
0.0
 11
4.6034498504
 21
15.1473079592
 31
0.0
  0
LINE
  5
6D9
330
1F
100
AcDbEntity
  8
0
  6
CONTINUOUS
100
AcDbLine
 10
4.6034498504
 20
15.1473079592
 30
0.0
 11
4.601958248999999
 21
15.1358147418
 31
0.0
  0
LINE
  5
6DA
330
1F
100
AcDbEntity
  8
0
  6
CONTINUOUS
100
AcDbLine
 10
4.601958248999999
 20
15.1358147418
 30
0.0
 11
4.600399442999998
 21
15.1247915774
 31
0.0
  0
LINE
  5
6DB
330
1F
100
AcDbEntity
  8
0
  6
CONTINUOUS
100
AcDbLine
 10
4.600399442999998
 20
15.1247915774
 30
0.0
 11
4.598776299099998
 21
15.11425873609999
 31
0.0
  0
LINE
  5
6DC
330
1F
100
AcDbEntity
  8
0
  6
CONTINUOUS
100
AcDbLine
 10
4.598776299099998
 20
15.11425873609999
 30
0.0
 11
4.5970918017
 21
15.1042355864
 31
0.0
  0
LINE
  5
6DD
330
1F
100
AcDbEntity
  8
0
  6
CONTINUOUS
100
AcDbLine
 10
4.5970918017
 20
15.1042355864
 30
0.0
 11
4.5953490487
 21
15.0947405594
 31
0.0
  0
LINE
  5
6DE
330
1F
100
AcDbEntity
  8
0
  6
CONTINUOUS
100
AcDbLine
 10
4.5953490487
 20
15.0947405594
 30
0.0
 11
4.593551244499999
 21
15.0857911153
 31
0.0
  0
LINE
  5
6DF
330
1F
100
AcDbEntity
  8
0
  6
CONTINUOUS
100
AcDbLine
 10
4.593551244499999
 20
15.0857911153
 30
0.0
 11
4.591701695199999
 21
15.07740371069998
 31
0.0
  0
LINE
  5
6E0
330
1F
100
AcDbEntity
  8
0
  6
CONTINUOUS
100
AcDbLine
 10
4.591701695199999
 20
15.07740371069998
 30
0.0
 11
4.5898038018
 21
15.0695937689
 31
0.0
  0
LINE
  5
6E1
330
1F
100
AcDbEntity
  8
0
  6
CONTINUOUS
100
AcDbLine
 10
4.5898038018
 20
15.0695937689
 30
0.0
 11
4.5878610542
 21
15.0623756514
 31
0.0
  0
LINE
  5
6E2
330
1F
100
AcDbEntity
  8
0
  6
CONTINUOUS
100
AcDbLine
 10
4.5878610542
 20
15.0623756514
 30
0.0
 11
4.585877025
 21
15.0557626313
 31
0.0
  0
LINE
  5
6E3
330
1F
100
AcDbEntity
  8
0
  6
CONTINUOUS
100
AcDbLine
 10
4.585877025
 20
15.0557626313
 30
0.0
 11
4.5838553624
 21
15.049766869
 31
0.0
  0
LINE
  5
6E4
330
1F
100
AcDbEntity
  8
0
  6
CONTINUOUS
100
AcDbLine
 10
4.5838553624
 20
15.049766869
 30
0.0
 11
4.581799783999999
 21
15.0443993898
 31
0.0
  0
LINE
  5
6E5
330
1F
100
AcDbEntity
  8
0
  6
CONTINUOUS
100
AcDbLine
 10
4.581799783999999
 20
15.0443993898
 30
0.0
 11
4.5797140697
 21
15.0396700638
 31
0.0
  0
LINE
  5
6E6
330
1F
100
AcDbEntity
  8
0
  6
CONTINUOUS
100
AcDbLine
 10
4.5797140697
 20
15.0396700638
 30
0.0
 11
4.577602054899998
 21
15.0355875877
 31
0.0
  0
LINE
  5
6E7
330
1F
100
AcDbEntity
  8
0
  6
CONTINUOUS
100
AcDbLine
 10
4.577602054899998
 20
15.0355875877
 30
0.0
 11
4.575467623299998
 21
15.0321594684
 31
0.0
  0
LINE
  5
6E8
330
1F
100
AcDbEntity
  8
0
  6
CONTINUOUS
100
AcDbLine
 10
4.575467623299998
 20
15.0321594684
 30
0.0
 11
4.5733146999
 21
15.0293920099
 31
0.0
  0
LINE
  5
6E9
330
1F
100
AcDbEntity
  8
0
  6
CONTINUOUS
100
AcDbLine
 10
4.5733146999
 20
15.0293920099
 30
0.0
 11
4.571147243399999
 21
15.0272903011
 31
0.0
  0
LINE
  5
6EA
330
1F
100
AcDbEntity
  8
0
  6
CONTINUOUS
100
AcDbLine
 10
4.571147243399999
 20
15.0272903011
 30
0.0
 11
4.568969239599999
 21
15.0258582067
 31
0.0
  0
LINE
  5
6EB
330
1F
100
AcDbEntity
  8
0
  6
CONTINUOUS
100
AcDbLine
 10
4.691851527499999
 20
15.759456248
 30
0.0
 11
4.698681998699998
 21
15.7575033238
 31
0.0
  0
LINE
  5
6EC
330
1F
100
AcDbEntity
  8
0
  6
CONTINUOUS
100
AcDbLine
 10
4.698681998699998
 20
15.7575033238
 30
0.0
 11
4.705397787099999
 21
15.7543817951
 31
0.0
  0
LINE
  5
6ED
330
1F
100
AcDbEntity
  8
0
  6
CONTINUOUS
100
AcDbLine
 10
4.705397787099999
 20
15.7543817951
 30
0.0
 11
4.711969867799998
 21
15.75009921819999
 31
0.0
  0
LINE
  5
6EE
330
1F
100
AcDbEntity
  8
0
  6
CONTINUOUS
100
AcDbLine
 10
4.711969867799998
 20
15.75009921819999
 30
0.0
 11
4.718564676299998
 21
15.7444821392
 31
0.0
  0
LINE
  5
6EF
330
1F
100
AcDbEntity
  8
0
  6
CONTINUOUS
100
AcDbLine
 10
4.718564676299998
 20
15.7444821392
 30
0.0
 11
4.724979673099999
 21
15.737645571
 31
0.0
  0
LINE
  5
6F0
330
1F
100
AcDbEntity
  8
0
  6
CONTINUOUS
100
AcDbLine
 10
4.724979673099999
 20
15.737645571
 30
0.0
 11
4.7311863447
 21
15.7296149167
 31
0.0
  0
LINE
  5
6F1
330
1F
100
AcDbEntity
  8
0
  6
CONTINUOUS
100
AcDbLine
 10
4.7311863447
 20
15.7296149167
 30
0.0
 11
4.737010668799999
 21
15.7206660291
 31
0.0
  0
LINE
  5
6F2
330
1F
100
AcDbEntity
  8
0
  6
CONTINUOUS
100
AcDbLine
 10
4.737010668799999
 20
15.7206660291
 30
0.0
 11
4.742616510199999
 21
15.7106127983
 31
0.0
  0
LINE
  5
6F3
330
1F
100
AcDbEntity
  8
0
  6
CONTINUOUS
100
AcDbLine
 10
4.742616510199999
 20
15.7106127983
 30
0.0
 11
4.747981113199998
 21
15.69949650509999
 31
0.0
  0
LINE
  5
6F4
330
1F
100
AcDbEntity
  8
0
  6
CONTINUOUS
100
AcDbLine
 10
4.747981113199998
 20
15.69949650509999
 30
0.0
 11
4.7532488788
 21
15.6869410498
 31
0.0
  0
LINE
  5
6F5
330
1F
100
AcDbEntity
  8
0
  6
CONTINUOUS
100
AcDbLine
 10
4.7532488788
 20
15.6869410498
 30
0.0
 11
4.758243091699998
 21
15.6733035998
 31
0.0
  0
LINE
  5
6F6
330
1F
100
AcDbEntity
  8
0
  6
CONTINUOUS
100
AcDbLine
 10
4.758243091699998
 20
15.6733035998
 30
0.0
 11
4.7629432507
 21
15.6586501589
 31
0.0
  0
LINE
  5
6F7
330
1F
100
AcDbEntity
  8
0
  6
CONTINUOUS
100
AcDbLine
 10
4.7629432507
 20
15.6586501589
 30
0.0
 11
4.7670869483
 21
15.6439741173
 31
0.0
  0
LINE
  5
6F8
330
1F
100
AcDbEntity
  8
0
  6
CONTINUOUS
100
AcDbLine
 10
4.7670869483
 20
15.6439741173
 30
0.0
 11
4.7709606537
 21
15.6284608864
 31
0.0
  0
LINE
  5
6F9
330
1F
100
AcDbEntity
  8
0
  6
CONTINUOUS
100
AcDbLine
 10
4.7709606537
 20
15.6284608864
 30
0.0
 11
4.774551201399999
 21
15.61218176
 31
0.0
  0
LINE
  5
6FA
330
1F
100
AcDbEntity
  8
0
  6
CONTINUOUS
100
AcDbLine
 10
4.774551201399999
 20
15.61218176
 30
0.0
 11
4.7779516914
 21
15.59463416359998
 31
0.0
  0
LINE
  5
6FB
330
1F
100
AcDbEntity
  8
0
  6
CONTINUOUS
100
AcDbLine
 10
4.7779516914
 20
15.59463416359998
 30
0.0
 11
4.781045071399999
 21
15.5763545666
 31
0.0
  0
LINE
  5
6FC
330
1F
100
AcDbEntity
  8
0
  6
CONTINUOUS
100
AcDbLine
 10
4.781045071399999
 20
15.5763545666
 30
0.0
 11
4.783820990699998
 21
15.55743658759999
 31
0.0
  0
LINE
  5
6FD
330
1F
100
AcDbEntity
  8
0
  6
CONTINUOUS
100
AcDbLine
 10
4.783820990699998
 20
15.55743658759999
 30
0.0
 11
4.7871963837
 21
15.52971798779999
 31
0.0
  0
LINE
  5
6FE
330
1F
100
AcDbEntity
  8
0
  6
CONTINUOUS
100
AcDbLine
 10
4.7871963837
 20
15.52971798779999
 30
0.0
 11
4.789926358799998
 21
15.50101576589999
 31
0.0
  0
LINE
  5
6FF
330
1F
100
AcDbEntity
  8
0
  6
CONTINUOUS
100
AcDbLine
 10
4.789926358799998
 20
15.50101576589999
 30
0.0
 11
4.7914218626
 21
15.4808446368
 31
0.0
  0
LINE
  5
700
330
1F
100
AcDbEntity
  8
0
  6
CONTINUOUS
100
AcDbLine
 10
4.7914218626
 20
15.4808446368
 30
0.0
 11
4.792609076399998
 21
15.4603546706
 31
0.0
  0
LINE
  5
701
330
1F
100
AcDbEntity
  8
0
  6
CONTINUOUS
100
AcDbLine
 10
4.792609076399998
 20
15.4603546706
 30
0.0
 11
4.793484742699999
 21
15.4396491753
 31
0.0
  0
LINE
  5
702
330
1F
100
AcDbEntity
  8
0
  6
CONTINUOUS
100
AcDbLine
 10
4.793484742699999
 20
15.4396491753
 30
0.0
 11
4.7941952847
 21
15.4096895414
 31
0.0
  0
LINE
  5
703
330
1F
100
AcDbEntity
  8
0
  6
CONTINUOUS
100
AcDbLine
 10
4.7941952847
 20
15.4096895414
 30
0.0
 11
4.7942643106
 21
15.37960299749999
 31
0.0
  0
LINE
  5
704
330
1F
100
AcDbEntity
  8
0
  6
CONTINUOUS
100
AcDbLine
 10
4.7942643106
 20
15.37960299749999
 30
0.0
 11
4.7939393663
 21
15.3589979147
 31
0.0
  0
LINE
  5
705
330
1F
100
AcDbEntity
  8
0
  6
CONTINUOUS
100
AcDbLine
 10
4.7939393663
 20
15.3589979147
 30
0.0
 11
4.793312056
 21
15.3384822699
 31
0.0
  0
LINE
  5
706
330
1F
100
AcDbEntity
  8
0
  6
CONTINUOUS
100
AcDbLine
 10
4.793312056
 20
15.3384822699
 30
0.0
 11
4.792384008199999
 21
15.31815666349999
 31
0.0
  0
LINE
  5
707
330
1F
100
AcDbEntity
  8
0
  6
CONTINUOUS
100
AcDbLine
 10
4.792384008199999
 20
15.31815666349999
 30
0.0
 11
4.790500968799999
 21
15.2890927375
 31
0.0
  0
LINE
  5
708
330
1F
100
AcDbEntity
  8
0
  6
CONTINUOUS
100
AcDbLine
 10
4.790500968799999
 20
15.2890927375
 30
0.0
 11
4.787989422499999
 21
15.2607316319
 31
0.0
  0
LINE
  5
709
330
1F
100
AcDbEntity
  8
0
  6
CONTINUOUS
100
AcDbLine
 10
4.787989422499999
 20
15.2607316319
 30
0.0
 11
4.784754203999999
 21
15.23249406559999
 31
0.0
  0
LINE
  5
70A
330
1F
100
AcDbEntity
  8
0
  6
CONTINUOUS
100
AcDbLine
 10
4.784754203999999
 20
15.23249406559999
 30
0.0
 11
4.780869126499998
 21
15.2054031571
 31
0.0
  0
LINE
  5
70B
330
1F
100
AcDbEntity
  8
0
  6
CONTINUOUS
100
AcDbLine
 10
4.780869126499998
 20
15.2054031571
 30
0.0
 11
4.7764519447
 21
15.1802124469
 31
0.0
  0
LINE
  5
70C
330
1F
100
AcDbEntity
  8
0
  6
CONTINUOUS
100
AcDbLine
 10
4.7764519447
 20
15.1802124469
 30
0.0
 11
4.771438716899998
 21
15.1564621681
 31
0.0
  0
LINE
  5
70D
330
1F
100
AcDbEntity
  8
0
  6
CONTINUOUS
100
AcDbLine
 10
4.771438716899998
 20
15.1564621681
 30
0.0
 11
4.765679206999998
 21
15.1337105043
 31
0.0
  0
LINE
  5
70E
330
1F
100
AcDbEntity
  8
0
  6
CONTINUOUS
100
AcDbLine
 10
4.765679206999998
 20
15.1337105043
 30
0.0
 11
4.7593305061
 21
15.1127881339
 31
0.0
  0
LINE
  5
70F
330
1F
100
AcDbEntity
  8
0
  6
CONTINUOUS
100
AcDbLine
 10
4.7593305061
 20
15.1127881339
 30
0.0
 11
4.7524933591
 21
15.0940225925
 31
0.0
  0
LINE
  5
710
330
1F
100
AcDbEntity
  8
0
  6
CONTINUOUS
100
AcDbLine
 10
4.7524933591
 20
15.0940225925
 30
0.0
 11
4.7451356953
 21
15.07728455619998
 31
0.0
  0
LINE
  5
711
330
1F
100
AcDbEntity
  8
0
  6
CONTINUOUS
100
AcDbLine
 10
4.7451356953
 20
15.07728455619998
 30
0.0
 11
4.7370682741
 21
15.062303162
 31
0.0
  0
LINE
  5
712
330
1F
100
AcDbEntity
  8
0
  6
CONTINUOUS
100
AcDbLine
 10
4.7370682741
 20
15.062303162
 30
0.0
 11
4.7285291742
 21
15.04963899849999
 31
0.0
  0
LINE
  5
713
330
1F
100
AcDbEntity
  8
0
  6
CONTINUOUS
100
AcDbLine
 10
4.7285291742
 20
15.04963899849999
 30
0.0
 11
4.719950482599998
 21
15.0397483702
 31
0.0
  0
LINE
  5
714
330
1F
100
AcDbEntity
  8
0
  6
CONTINUOUS
100
AcDbLine
 10
4.719950482599998
 20
15.0397483702
 30
0.0
 11
4.711025129599999
 21
15.0320798389
 31
0.0
  0
LINE
  5
715
330
1F
100
AcDbEntity
  8
0
  6
CONTINUOUS
100
AcDbLine
 10
4.711025129599999
 20
15.0320798389
 30
0.0
 11
4.7015685814
 21
15.0265611983
 31
0.0
  0
LINE
  5
716
330
1F
100
AcDbEntity
  8
0
  6
CONTINUOUS
100
AcDbLine
 10
4.7015685814
 20
15.0265611983
 30
0.0
 11
4.691851527499999
 21
15.0234168451
 31
0.0
  0
LINE
  5
717
330
1F
100
AcDbEntity
  8
0
  6
CONTINUOUS
100
AcDbLine
 10
5.0312406503
 20
14.8338877885
 30
0.0
 11
5.0336550972
 21
14.83290542359998
 31
0.0
  0
LINE
  5
718
330
1F
100
AcDbEntity
  8
0
  6
CONTINUOUS
100
AcDbLine
 10
5.0336550972
 20
14.83290542359998
 30
0.0
 11
5.036189099399998
 21
14.8312641192
 31
0.0
  0
LINE
  5
719
330
1F
100
AcDbEntity
  8
0
  6
CONTINUOUS
100
AcDbLine
 10
5.036189099399998
 20
14.8312641192
 30
0.0
 11
5.038837997199999
 21
14.82896689329999
 31
0.0
  0
LINE
  5
71A
330
1F
100
AcDbEntity
  8
0
  6
CONTINUOUS
100
AcDbLine
 10
5.038837997199999
 20
14.82896689329999
 30
0.0
 11
5.041596919699999
 21
14.8260179704
 31
0.0
  0
LINE
  5
71B
330
1F
100
AcDbEntity
  8
0
  6
CONTINUOUS
100
AcDbLine
 10
5.041596919699999
 20
14.8260179704
 30
0.0
 11
5.044460793599998
 21
14.822422773
 31
0.0
  0
LINE
  5
71C
330
1F
100
AcDbEntity
  8
0
  6
CONTINUOUS
100
AcDbLine
 10
5.044460793599998
 20
14.822422773
 30
0.0
 11
5.0474243526
 21
14.8181879122
 31
0.0
  0
LINE
  5
71D
330
1F
100
AcDbEntity
  8
0
  6
CONTINUOUS
100
AcDbLine
 10
5.0474243526
 20
14.8181879122
 30
0.0
 11
5.050482147099999
 21
14.8133211753
 31
0.0
  0
LINE
  5
71E
330
1F
100
AcDbEntity
  8
0
  6
CONTINUOUS
100
AcDbLine
 10
5.050482147099999
 20
14.8133211753
 30
0.0
 11
5.0536285543
 21
14.8078315116
 31
0.0
  0
LINE
  5
71F
330
1F
100
AcDbEntity
  8
0
  6
CONTINUOUS
100
AcDbLine
 10
5.0536285543
 20
14.8078315116
 30
0.0
 11
5.056857788399999
 21
14.8017290159
 31
0.0
  0
LINE
  5
720
330
1F
100
AcDbEntity
  8
0
  6
CONTINUOUS
100
AcDbLine
 10
5.056857788399999
 20
14.8017290159
 30
0.0
 11
5.0601639113
 21
14.7950249097
 31
0.0
  0
LINE
  5
721
330
1F
100
AcDbEntity
  8
0
  6
CONTINUOUS
100
AcDbLine
 10
5.0601639113
 20
14.7950249097
 30
0.0
 11
5.063540843399999
 21
14.7877315209
 31
0.0
  0
LINE
  5
722
330
1F
100
AcDbEntity
  8
0
  6
CONTINUOUS
100
AcDbLine
 10
5.063540843399999
 20
14.7877315209
 30
0.0
 11
5.0669823751
 21
14.77986226119998
 31
0.0
  0
LINE
  5
723
330
1F
100
AcDbEntity
  8
0
  6
CONTINUOUS
100
AcDbLine
 10
5.0669823751
 20
14.77986226119998
 30
0.0
 11
5.070482177799998
 21
14.77143160099998
 31
0.0
  0
LINE
  5
724
330
1F
100
AcDbEntity
  8
0
  6
CONTINUOUS
100
AcDbLine
 10
5.070482177799998
 20
14.77143160099998
 30
0.0
 11
5.0740338159
 21
14.7624550431
 31
0.0
  0
LINE
  5
725
330
1F
100
AcDbEntity
  8
0
  6
CONTINUOUS
100
AcDbLine
 10
5.0740338159
 20
14.7624550431
 30
0.0
 11
5.0776307585
 21
14.7529490942
 31
0.0
  0
LINE
  5
726
330
1F
100
AcDbEntity
  8
0
  6
CONTINUOUS
100
AcDbLine
 10
5.0776307585
 20
14.7529490942
 30
0.0
 11
5.081266391199998
 21
14.7429312343
 31
0.0
  0
LINE
  5
727
330
1F
100
AcDbEntity
  8
0
  6
CONTINUOUS
100
AcDbLine
 10
5.081266391199998
 20
14.7429312343
 30
0.0
 11
5.0849340287
 21
14.732419885
 31
0.0
  0
LINE
  5
728
330
1F
100
AcDbEntity
  8
0
  6
CONTINUOUS
100
AcDbLine
 10
5.0849340287
 20
14.732419885
 30
0.0
 11
5.088626926599999
 21
14.72143437509999
 31
0.0
  0
LINE
  5
729
330
1F
100
AcDbEntity
  8
0
  6
CONTINUOUS
100
AcDbLine
 10
5.088626926599999
 20
14.72143437509999
 30
0.0
 11
5.0923382942
 21
14.7099949055
 31
0.0
  0
LINE
  5
72A
330
1F
100
AcDbEntity
  8
0
  6
CONTINUOUS
100
AcDbLine
 10
5.0923382942
 20
14.7099949055
 30
0.0
 11
5.0960613068
 21
14.6981225117
 31
0.0
  0
LINE
  5
72B
330
1F
100
AcDbEntity
  8
0
  6
CONTINUOUS
100
AcDbLine
 10
5.0960613068
 20
14.6981225117
 30
0.0
 11
5.099789118399999
 21
14.68583902559998
 31
0.0
  0
LINE
  5
72C
330
1F
100
AcDbEntity
  8
0
  6
CONTINUOUS
100
AcDbLine
 10
5.099789118399999
 20
14.68583902559998
 30
0.0
 11
5.103514874
 21
14.6731670346
 31
0.0
  0
LINE
  5
72D
330
1F
100
AcDbEntity
  8
0
  6
CONTINUOUS
100
AcDbLine
 10
5.103514874
 20
14.6731670346
 30
0.0
 11
5.107231722399999
 21
14.66012984079998
 31
0.0
  0
LINE
  5
72E
330
1F
100
AcDbEntity
  8
0
  6
CONTINUOUS
100
AcDbLine
 10
5.107231722399999
 20
14.66012984079998
 30
0.0
 11
5.1109328289
 21
14.64675141779999
 31
0.0
  0
LINE
  5
72F
330
1F
100
AcDbEntity
  8
0
  6
CONTINUOUS
100
AcDbLine
 10
5.1109328289
 20
14.64675141779999
 30
0.0
 11
5.1146113877
 21
14.6330563668
 31
0.0
  0
LINE
  5
730
330
1F
100
AcDbEntity
  8
0
  6
CONTINUOUS
100
AcDbLine
 10
5.1146113877
 20
14.6330563668
 30
0.0
 11
5.1182606344
 21
14.61906987089998
 31
0.0
  0
LINE
  5
731
330
1F
100
AcDbEntity
  8
0
  6
CONTINUOUS
100
AcDbLine
 10
5.1182606344
 20
14.61906987089998
 30
0.0
 11
5.121873858499998
 21
14.6048176494
 31
0.0
  0
LINE
  5
732
330
1F
100
AcDbEntity
  8
0
  6
CONTINUOUS
100
AcDbLine
 10
5.121873858499998
 20
14.6048176494
 30
0.0
 11
5.125444415899998
 21
14.5903259102
 31
0.0
  0
LINE
  5
733
330
1F
100
AcDbEntity
  8
0
  6
CONTINUOUS
100
AcDbLine
 10
5.125444415899998
 20
14.5903259102
 30
0.0
 11
5.128965740699999
 21
14.5756213015
 31
0.0
  0
LINE
  5
734
330
1F
100
AcDbEntity
  8
0
  6
CONTINUOUS
100
AcDbLine
 10
5.128965740699999
 20
14.5756213015
 30
0.0
 11
5.132431357699998
 21
14.56073086319999
 31
0.0
  0
LINE
  5
735
330
1F
100
AcDbEntity
  8
0
  6
CONTINUOUS
100
AcDbLine
 10
5.132431357699998
 20
14.56073086319999
 30
0.0
 11
5.1358348942
 21
14.5456819765
 31
0.0
  0
LINE
  5
736
330
1F
100
AcDbEntity
  8
0
  6
CONTINUOUS
100
AcDbLine
 10
5.1358348942
 20
14.5456819765
 30
0.0
 11
5.139170091499999
 21
14.53050231449999
 31
0.0
  0
LINE
  5
737
330
1F
100
AcDbEntity
  8
0
  6
CONTINUOUS
100
AcDbLine
 10
5.139170091499999
 20
14.53050231449999
 30
0.0
 11
5.1424308167
 21
14.51521979029999
 31
0.0
  0
LINE
  5
738
330
1F
100
AcDbEntity
  8
0
  6
CONTINUOUS
100
AcDbLine
 10
5.1424308167
 20
14.51521979029999
 30
0.0
 11
5.1456110737
 21
14.4998625065
 31
0.0
  0
LINE
  5
739
330
1F
100
AcDbEntity
  8
0
  6
CONTINUOUS
100
AcDbLine
 10
5.1456110737
 20
14.4998625065
 30
0.0
 11
5.148705014499999
 21
14.4844587029
 31
0.0
  0
LINE
  5
73A
330
1F
100
AcDbEntity
  8
0
  6
CONTINUOUS
100
AcDbLine
 10
5.148705014499999
 20
14.4844587029
 30
0.0
 11
5.1517069497
 21
14.4690367049
 31
0.0
  0
LINE
  5
73B
330
1F
100
AcDbEntity
  8
0
  6
CONTINUOUS
100
AcDbLine
 10
5.1517069497
 20
14.4690367049
 30
0.0
 11
5.1546113592
 21
14.4536248715
 31
0.0
  0
LINE
  5
73C
330
1F
100
AcDbEntity
  8
0
  6
CONTINUOUS
100
AcDbLine
 10
5.1546113592
 20
14.4536248715
 30
0.0
 11
5.157412902199999
 21
14.43825154299998
 31
0.0
  0
LINE
  5
73D
330
1F
100
AcDbEntity
  8
0
  6
CONTINUOUS
100
AcDbLine
 10
5.157412902199999
 20
14.43825154299998
 30
0.0
 11
5.160106427099998
 21
14.42294498869999
 31
0.0
  0
LINE
  5
73E
330
1F
100
AcDbEntity
  8
0
  6
CONTINUOUS
100
AcDbLine
 10
5.160106427099998
 20
14.42294498869999
 30
0.0
 11
5.1626869808
 21
14.4077333553
 31
0.0
  0
LINE
  5
73F
330
1F
100
AcDbEntity
  8
0
  6
CONTINUOUS
100
AcDbLine
 10
5.1626869808
 20
14.4077333553
 30
0.0
 11
5.165149818099998
 21
14.3926446148
 31
0.0
  0
LINE
  5
740
330
1F
100
AcDbEntity
  8
0
  6
CONTINUOUS
100
AcDbLine
 10
5.165149818099998
 20
14.3926446148
 30
0.0
 11
5.1674904101
 21
14.3777065134
 31
0.0
  0
LINE
  5
741
330
1F
100
AcDbEntity
  8
0
  6
CONTINUOUS
100
AcDbLine
 10
5.1674904101
 20
14.3777065134
 30
0.0
 11
5.169704452799998
 21
14.36294652019999
 31
0.0
  0
LINE
  5
742
330
1F
100
AcDbEntity
  8
0
  6
CONTINUOUS
100
AcDbLine
 10
5.169704452799998
 20
14.36294652019999
 30
0.0
 11
5.171787874899998
 21
14.3483917767
 31
0.0
  0
LINE
  5
743
330
1F
100
AcDbEntity
  8
0
  6
CONTINUOUS
100
AcDbLine
 10
5.171787874899998
 20
14.3483917767
 30
0.0
 11
5.173736845299998
 21
14.33406904709999
 31
0.0
  0
LINE
  5
744
330
1F
100
AcDbEntity
  8
0
  6
CONTINUOUS
100
AcDbLine
 10
5.173736845299998
 20
14.33406904709999
 30
0.0
 11
5.175547779999998
 21
14.3200046689
 31
0.0
  0
LINE
  5
745
330
1F
100
AcDbEntity
  8
0
  6
CONTINUOUS
100
AcDbLine
 10
5.175547779999998
 20
14.3200046689
 30
0.0
 11
5.1772173491
 21
14.3062245046
 31
0.0
  0
LINE
  5
746
330
1F
100
AcDbEntity
  8
0
  6
CONTINUOUS
100
AcDbLine
 10
5.1772173491
 20
14.3062245046
 30
0.0
 11
5.178742482399998
 21
14.2927538939
 31
0.0
  0
LINE
  5
747
330
1F
100
AcDbEntity
  8
0
  6
CONTINUOUS
100
AcDbLine
 10
5.178742482399998
 20
14.2927538939
 30
0.0
 11
5.1801203754
 21
14.2796176075
 31
0.0
  0
LINE
  5
748
330
1F
100
AcDbEntity
  8
0
  6
CONTINUOUS
100
AcDbLine
 10
5.1801203754
 20
14.2796176075
 30
0.0
 11
5.181348494299998
 21
14.26683980109999
 31
0.0
  0
LINE
  5
749
330
1F
100
AcDbEntity
  8
0
  6
CONTINUOUS
100
AcDbLine
 10
5.181348494299998
 20
14.26683980109999
 30
0.0
 11
5.182424580899999
 21
14.2544439714
 31
0.0
  0
LINE
  5
74A
330
1F
100
AcDbEntity
  8
0
  6
CONTINUOUS
100
AcDbLine
 10
5.182424580899999
 20
14.2544439714
 30
0.0
 11
5.1833466563
 21
14.2424529126
 31
0.0
  0
LINE
  5
74B
330
1F
100
AcDbEntity
  8
0
  6
CONTINUOUS
100
AcDbLine
 10
5.1833466563
 20
14.2424529126
 30
0.0
 11
5.184113025
 21
14.2308886745
 31
0.0
  0
LINE
  5
74C
330
1F
100
AcDbEntity
  8
0
  6
CONTINUOUS
100
AcDbLine
 10
5.184113025
 20
14.2308886745
 30
0.0
 11
5.184722277799998
 21
14.2197725223
 31
0.0
  0
LINE
  5
74D
330
1F
100
AcDbEntity
  8
0
  6
CONTINUOUS
100
AcDbLine
 10
5.184722277799998
 20
14.2197725223
 30
0.0
 11
5.1851732942
 21
14.2091248969
 31
0.0
  0
LINE
  5
74E
330
1F
100
AcDbEntity
  8
0
  6
CONTINUOUS
100
AcDbLine
 10
5.1851732942
 20
14.2091248969
 30
0.0
 11
5.1854652449
 21
14.19896537799998
 31
0.0
  0
LINE
  5
74F
330
1F
100
AcDbEntity
  8
0
  6
CONTINUOUS
100
AcDbLine
 10
5.1854652449
 20
14.19896537799998
 30
0.0
 11
5.185597593199998
 21
14.1893126473
 31
0.0
  0
LINE
  5
750
330
1F
100
AcDbEntity
  8
0
  6
CONTINUOUS
100
AcDbLine
 10
5.185597593199998
 20
14.1893126473
 30
0.0
 11
5.1855700955
 21
14.180184455
 31
0.0
  0
LINE
  5
751
330
1F
100
AcDbEntity
  8
0
  6
CONTINUOUS
100
AcDbLine
 10
5.1855700955
 20
14.180184455
 30
0.0
 11
5.1853828025
 21
14.1715975866
 31
0.0
  0
LINE
  5
752
330
1F
100
AcDbEntity
  8
0
  6
CONTINUOUS
100
AcDbLine
 10
5.1853828025
 20
14.1715975866
 30
0.0
 11
5.185036058599998
 21
14.163567832
 31
0.0
  0
LINE
  5
753
330
1F
100
AcDbEntity
  8
0
  6
CONTINUOUS
100
AcDbLine
 10
5.185036058599998
 20
14.163567832
 30
0.0
 11
5.1845305014
 21
14.15610995699999
 31
0.0
  0
LINE
  5
754
330
1F
100
AcDbEntity
  8
0
  6
CONTINUOUS
100
AcDbLine
 10
5.1845305014
 20
14.15610995699999
 30
0.0
 11
5.183867060599999
 21
14.1492376754
 31
0.0
  0
LINE
  5
755
330
1F
100
AcDbEntity
  8
0
  6
CONTINUOUS
100
AcDbLine
 10
5.183867060599999
 20
14.1492376754
 30
0.0
 11
5.183046956
 21
14.1429636246
 31
0.0
  0
LINE
  5
756
330
1F
100
AcDbEntity
  8
0
  6
CONTINUOUS
100
AcDbLine
 10
5.183046956
 20
14.1429636246
 30
0.0
 11
5.182071695899999
 21
14.1372993415
 31
0.0
  0
LINE
  5
757
330
1F
100
AcDbEntity
  8
0
  6
CONTINUOUS
100
AcDbLine
 10
5.182071695899999
 20
14.1372993415
 30
0.0
 11
5.180943073499999
 21
14.132255242
 31
0.0
  0
LINE
  5
758
330
1F
100
AcDbEntity
  8
0
  6
CONTINUOUS
100
AcDbLine
 10
5.180943073499999
 20
14.132255242
 30
0.0
 11
5.179663164199999
 21
14.1278406016
 31
0.0
  0
LINE
  5
759
330
1F
100
AcDbEntity
  8
0
  6
CONTINUOUS
100
AcDbLine
 10
5.179663164199999
 20
14.1278406016
 30
0.0
 11
5.1782343216
 21
14.12406353799999
 31
0.0
  0
LINE
  5
75A
330
1F
100
AcDbEntity
  8
0
  6
CONTINUOUS
100
AcDbLine
 10
5.1782343216
 20
14.12406353799999
 30
0.0
 11
5.1766591732
 21
14.120930997
 31
0.0
  0
LINE
  5
75B
330
1F
100
AcDbEntity
  8
0
  6
CONTINUOUS
100
AcDbLine
 10
5.1766591732
 20
14.120930997
 30
0.0
 11
5.1749406154
 21
14.11844873859998
 31
0.0
  0
LINE
  5
75C
330
1F
100
AcDbEntity
  8
0
  6
CONTINUOUS
100
AcDbLine
 10
5.1749406154
 20
14.11844873859998
 30
0.0
 11
5.1730818084
 21
14.1166213275
 31
0.0
  0
LINE
  5
75D
330
1F
100
AcDbEntity
  8
0
  6
CONTINUOUS
100
AcDbLine
 10
5.1511310728
 20
14.860081237
 30
0.0
 11
5.159716884299998
 21
14.85919825619999
 31
0.0
  0
LINE
  5
75E
330
1F
100
AcDbEntity
  8
0
  6
CONTINUOUS
100
AcDbLine
 10
5.159716884299998
 20
14.85919825619999
 30
0.0
 11
5.1684757312
 21
14.8565780298
 31
0.0
  0
LINE
  5
75F
330
1F
100
AcDbEntity
  8
0
  6
CONTINUOUS
100
AcDbLine
 10
5.1684757312
 20
14.8565780298
 30
0.0
 11
5.177354221899999
 21
14.8522376389
 31
0.0
  0
LINE
  5
760
330
1F
100
AcDbEntity
  8
0
  6
CONTINUOUS
100
AcDbLine
 10
5.177354221899999
 20
14.8522376389
 30
0.0
 11
5.186298964899998
 21
14.8461941649
 31
0.0
  0
LINE
  5
761
330
1F
100
AcDbEntity
  8
0
  6
CONTINUOUS
100
AcDbLine
 10
5.186298964899998
 20
14.8461941649
 30
0.0
 11
5.1952565686
 21
14.8384646889
 31
0.0
  0
LINE
  5
762
330
1F
100
AcDbEntity
  8
0
  6
CONTINUOUS
100
AcDbLine
 10
5.1952565686
 20
14.8384646889
 30
0.0
 11
5.2042357386
 21
14.8290127088
 31
0.0
  0
LINE
  5
763
330
1F
100
AcDbEntity
  8
0
  6
CONTINUOUS
100
AcDbLine
 10
5.2042357386
 20
14.8290127088
 30
0.0
 11
5.213224950299998
 21
14.81786540839999
 31
0.0
  0
LINE
  5
764
330
1F
100
AcDbEntity
  8
0
  6
CONTINUOUS
100
AcDbLine
 10
5.213224950299998
 20
14.81786540839999
 30
0.0
 11
5.222171387099999
 21
14.8051057898
 31
0.0
  0
LINE
  5
765
330
1F
100
AcDbEntity
  8
0
  6
CONTINUOUS
100
AcDbLine
 10
5.222171387099999
 20
14.8051057898
 30
0.0
 11
5.231022231999999
 21
14.79081685509999
 31
0.0
  0
LINE
  5
766
330
1F
100
AcDbEntity
  8
0
  6
CONTINUOUS
100
AcDbLine
 10
5.231022231999999
 20
14.79081685509999
 30
0.0
 11
5.2397246683
 21
14.7750816063
 31
0.0
  0
LINE
  5
767
330
1F
100
AcDbEntity
  8
0
  6
CONTINUOUS
100
AcDbLine
 10
5.2397246683
 20
14.7750816063
 30
0.0
 11
5.2480151775
 21
14.7584521965
 31
0.0
  0
LINE
  5
768
330
1F
100
AcDbEntity
  8
0
  6
CONTINUOUS
100
AcDbLine
 10
5.2480151775
 20
14.7584521965
 30
0.0
 11
5.2561702064
 21
14.7404946382
 31
0.0
  0
LINE
  5
769
330
1F
100
AcDbEntity
  8
0
  6
CONTINUOUS
100
AcDbLine
 10
5.2561702064
 20
14.7404946382
 30
0.0
 11
5.2641444014
 21
14.72134401759999
 31
0.0
  0
LINE
  5
76A
330
1F
100
AcDbEntity
  8
0
  6
CONTINUOUS
100
AcDbLine
 10
5.2641444014
 20
14.72134401759999
 30
0.0
 11
5.2718924091
 21
14.7011354213
 31
0.0
  0
LINE
  5
76B
330
1F
100
AcDbEntity
  8
0
  6
CONTINUOUS
100
AcDbLine
 10
5.2718924091
 20
14.7011354213
 30
0.0
 11
5.279368876
 21
14.68000393569998
 31
0.0
  0
LINE
  5
76C
330
1F
100
AcDbEntity
  8
0
  6
CONTINUOUS
100
AcDbLine
 10
5.279368876
 20
14.68000393569998
 30
0.0
 11
5.2863729234
 21
14.65860260109999
 31
0.0
  0
LINE
  5
76D
330
1F
100
AcDbEntity
  8
0
  6
CONTINUOUS
100
AcDbLine
 10
5.2863729234
 20
14.65860260109999
 30
0.0
 11
5.2931227176
 21
14.6363824188
 31
0.0
  0
LINE
  5
76E
330
1F
100
AcDbEntity
  8
0
  6
CONTINUOUS
100
AcDbLine
 10
5.2931227176
 20
14.6363824188
 30
0.0
 11
5.299580076899998
 21
14.61350322839999
 31
0.0
  0
LINE
  5
76F
330
1F
100
AcDbEntity
  8
0
  6
CONTINUOUS
100
AcDbLine
 10
5.299580076899998
 20
14.61350322839999
 30
0.0
 11
5.3057068197
 21
14.5901248697
 31
0.0
  0
LINE
  5
770
330
1F
100
AcDbEntity
  8
0
  6
CONTINUOUS
100
AcDbLine
 10
5.3057068197
 20
14.5901248697
 30
0.0
 11
5.3114647642
 21
14.5664071825
 31
0.0
  0
LINE
  5
771
330
1F
100
AcDbEntity
  8
0
  6
CONTINUOUS
100
AcDbLine
 10
5.3114647642
 20
14.5664071825
 30
0.0
 11
5.318047382599999
 21
14.5367453767
 31
0.0
  0
LINE
  5
772
330
1F
100
AcDbEntity
  8
0
  6
CONTINUOUS
100
AcDbLine
 10
5.318047382599999
 20
14.5367453767
 30
0.0
 11
5.3240465641
 21
14.5067240087
 31
0.0
  0
LINE
  5
773
330
1F
100
AcDbEntity
  8
0
  6
CONTINUOUS
100
AcDbLine
 10
5.3240465641
 20
14.5067240087
 30
0.0
 11
5.329400336299999
 21
14.4766630452
 31
0.0
  0
LINE
  5
774
330
1F
100
AcDbEntity
  8
0
  6
CONTINUOUS
100
AcDbLine
 10
5.329400336299999
 20
14.4766630452
 30
0.0
 11
5.334046726999999
 21
14.4468824532
 31
0.0
  0
LINE
  5
775
330
1F
100
AcDbEntity
  8
0
  6
CONTINUOUS
100
AcDbLine
 10
5.334046726999999
 20
14.4468824532
 30
0.0
 11
5.3379430142
 21
14.41759713249999
 31
0.0
  0
LINE
  5
776
330
1F
100
AcDbEntity
  8
0
  6
CONTINUOUS
100
AcDbLine
 10
5.3379430142
 20
14.41759713249999
 30
0.0
 11
5.3410892366
 21
14.3887975468
 31
0.0
  0
LINE
  5
777
330
1F
100
AcDbEntity
  8
0
  6
CONTINUOUS
100
AcDbLine
 10
5.3410892366
 20
14.3887975468
 30
0.0
 11
5.343442788499999
 21
14.3607765497
 31
0.0
  0
LINE
  5
778
330
1F
100
AcDbEntity
  8
0
  6
CONTINUOUS
100
AcDbLine
 10
5.343442788499999
 20
14.3607765497
 30
0.0
 11
5.344961063899999
 21
14.3338269947
 31
0.0
  0
LINE
  5
779
330
1F
100
AcDbEntity
  8
0
  6
CONTINUOUS
100
AcDbLine
 10
5.344961063899999
 20
14.3338269947
 30
0.0
 11
5.345613469399999
 21
14.30793702959999
 31
0.0
  0
LINE
  5
77A
330
1F
100
AcDbEntity
  8
0
  6
CONTINUOUS
100
AcDbLine
 10
5.345613469399999
 20
14.30793702959999
 30
0.0
 11
5.345380926299998
 21
14.2832985893
 31
0.0
  0
LINE
  5
77B
330
1F
100
AcDbEntity
  8
0
  6
CONTINUOUS
100
AcDbLine
 10
5.345380926299998
 20
14.2832985893
 30
0.0
 11
5.344253222299998
 21
14.2601439434
 31
0.0
  0
LINE
  5
77C
330
1F
100
AcDbEntity
  8
0
  6
CONTINUOUS
100
AcDbLine
 10
5.344253222299998
 20
14.2601439434
 30
0.0
 11
5.3422201447
 21
14.2387053615
 31
0.0
  0
LINE
  5
77D
330
1F
100
AcDbEntity
  8
0
  6
CONTINUOUS
100
AcDbLine
 10
5.3422201447
 20
14.2387053615
 30
0.0
 11
5.339209144799998
 21
14.21877989299999
 31
0.0
  0
LINE
  5
77E
330
1F
100
AcDbEntity
  8
0
  6
CONTINUOUS
100
AcDbLine
 10
5.339209144799998
 20
14.21877989299999
 30
0.0
 11
5.3352518977
 21
14.2007305039
 31
0.0
  0
LINE
  5
77F
330
1F
100
AcDbEntity
  8
0
  6
CONTINUOUS
100
AcDbLine
 10
5.3352518977
 20
14.2007305039
 30
0.0
 11
5.330381264399998
 21
14.18470539859999
 31
0.0
  0
LINE
  5
780
330
1F
100
AcDbEntity
  8
0
  6
CONTINUOUS
100
AcDbLine
 10
5.330381264399998
 20
14.18470539859999
 30
0.0
 11
5.324630105599998
 21
14.1708527815
 31
0.0
  0
LINE
  5
781
330
1F
100
AcDbEntity
  8
0
  6
CONTINUOUS
100
AcDbLine
 10
5.324630105599998
 20
14.1708527815
 30
0.0
 11
5.3181148032
 21
14.1593913865
 31
0.0
  0
LINE
  5
782
330
1F
100
AcDbEntity
  8
0
  6
CONTINUOUS
100
AcDbLine
 10
5.3181148032
 20
14.1593913865
 30
0.0
 11
5.310774993099999
 21
14.15006449359998
 31
0.0
  0
LINE
  5
783
330
1F
100
AcDbEntity
  8
0
  6
CONTINUOUS
100
AcDbLine
 10
5.310774993099999
 20
14.15006449359998
 30
0.0
 11
5.302678980899998
 21
14.1429255693
 31
0.0
  0
LINE
  5
784
330
1F
100
AcDbEntity
  8
0
  6
CONTINUOUS
100
AcDbLine
 10
5.302678980899998
 20
14.1429255693
 30
0.0
 11
5.293895072599998
 21
14.13802808039999
 31
0.0
  0
LINE
  5
785
330
1F
100
AcDbEntity
  8
0
  6
CONTINUOUS
100
AcDbLine
 10
5.1730818084
 20
16.6662517657
 30
0.0
 11
5.1749406154
 21
16.6644243546
 31
0.0
  0
LINE
  5
786
330
1F
100
AcDbEntity
  8
0
  6
CONTINUOUS
100
AcDbLine
 10
5.1749406154
 20
16.6644243546
 30
0.0
 11
5.1766591732
 21
16.66194209619999
 31
0.0
  0
LINE
  5
787
330
1F
100
AcDbEntity
  8
0
  6
CONTINUOUS
100
AcDbLine
 10
5.1766591732
 20
16.66194209619999
 30
0.0
 11
5.1782343216
 21
16.6588095551
 31
0.0
  0
LINE
  5
788
330
1F
100
AcDbEntity
  8
0
  6
CONTINUOUS
100
AcDbLine
 10
5.1782343216
 20
16.6588095551
 30
0.0
 11
5.179663164199999
 21
16.6550324916
 31
0.0
  0
LINE
  5
789
330
1F
100
AcDbEntity
  8
0
  6
CONTINUOUS
100
AcDbLine
 10
5.179663164199999
 20
16.6550324916
 30
0.0
 11
5.180943073499999
 21
16.65061785119998
 31
0.0
  0
LINE
  5
78A
330
1F
100
AcDbEntity
  8
0
  6
CONTINUOUS
100
AcDbLine
 10
5.180943073499999
 20
16.65061785119998
 30
0.0
 11
5.182071695899999
 21
16.6455737517
 31
0.0
  0
LINE
  5
78B
330
1F
100
AcDbEntity
  8
0
  6
CONTINUOUS
100
AcDbLine
 10
5.182071695899999
 20
16.6455737517
 30
0.0
 11
5.183046956
 21
16.6399094686
 31
0.0
  0
LINE
  5
78C
330
1F
100
AcDbEntity
  8
0
  6
CONTINUOUS
100
AcDbLine
 10
5.183046956
 20
16.6399094686
 30
0.0
 11
5.183867060599999
 21
16.63363541769999
 31
0.0
  0
LINE
  5
78D
330
1F
100
AcDbEntity
  8
0
  6
CONTINUOUS
100
AcDbLine
 10
5.183867060599999
 20
16.63363541769999
 30
0.0
 11
5.1845305014
 21
16.62676313619999
 31
0.0
  0
LINE
  5
78E
330
1F
100
AcDbEntity
  8
0
  6
CONTINUOUS
100
AcDbLine
 10
5.1845305014
 20
16.62676313619999
 30
0.0
 11
5.185036058599998
 21
16.61930526119999
 31
0.0
  0
LINE
  5
78F
330
1F
100
AcDbEntity
  8
0
  6
CONTINUOUS
100
AcDbLine
 10
5.185036058599998
 20
16.61930526119999
 30
0.0
 11
5.1853828025
 21
16.6112755066
 31
0.0
  0
LINE
  5
790
330
1F
100
AcDbEntity
  8
0
  6
CONTINUOUS
100
AcDbLine
 10
5.1853828025
 20
16.6112755066
 30
0.0
 11
5.1855700955
 21
16.6026886382
 31
0.0
  0
LINE
  5
791
330
1F
100
AcDbEntity
  8
0
  6
CONTINUOUS
100
AcDbLine
 10
5.1855700955
 20
16.6026886382
 30
0.0
 11
5.185597593199998
 21
16.59356044589999
 31
0.0
  0
LINE
  5
792
330
1F
100
AcDbEntity
  8
0
  6
CONTINUOUS
100
AcDbLine
 10
5.185597593199998
 20
16.59356044589999
 30
0.0
 11
5.1854652449
 21
16.58390771519999
 31
0.0
  0
LINE
  5
793
330
1F
100
AcDbEntity
  8
0
  6
CONTINUOUS
100
AcDbLine
 10
5.1854652449
 20
16.58390771519999
 30
0.0
 11
5.1851732942
 21
16.5737481962
 31
0.0
  0
LINE
  5
794
330
1F
100
AcDbEntity
  8
0
  6
CONTINUOUS
100
AcDbLine
 10
5.1851732942
 20
16.5737481962
 30
0.0
 11
5.184722277799998
 21
16.56310057089999
 31
0.0
  0
LINE
  5
795
330
1F
100
AcDbEntity
  8
0
  6
CONTINUOUS
100
AcDbLine
 10
5.184722277799998
 20
16.56310057089999
 30
0.0
 11
5.184113025
 21
16.5519844186
 31
0.0
  0
LINE
  5
796
330
1F
100
AcDbEntity
  8
0
  6
CONTINUOUS
100
AcDbLine
 10
5.184113025
 20
16.5519844186
 30
0.0
 11
5.1833466563
 21
16.54042018059999
 31
0.0
  0
LINE
  5
797
330
1F
100
AcDbEntity
  8
0
  6
CONTINUOUS
100
AcDbLine
 10
5.1833466563
 20
16.54042018059999
 30
0.0
 11
5.182424580899999
 21
16.5284291218
 31
0.0
  0
LINE
  5
798
330
1F
100
AcDbEntity
  8
0
  6
CONTINUOUS
100
AcDbLine
 10
5.182424580899999
 20
16.5284291218
 30
0.0
 11
5.181348494299998
 21
16.5160332921
 31
0.0
  0
LINE
  5
799
330
1F
100
AcDbEntity
  8
0
  6
CONTINUOUS
100
AcDbLine
 10
5.181348494299998
 20
16.5160332921
 30
0.0
 11
5.1801203754
 21
16.50325548569999
 31
0.0
  0
LINE
  5
79A
330
1F
100
AcDbEntity
  8
0
  6
CONTINUOUS
100
AcDbLine
 10
5.1801203754
 20
16.50325548569999
 30
0.0
 11
5.178742482399998
 21
16.4901191993
 31
0.0
  0
LINE
  5
79B
330
1F
100
AcDbEntity
  8
0
  6
CONTINUOUS
100
AcDbLine
 10
5.178742482399998
 20
16.4901191993
 30
0.0
 11
5.1772173491
 21
16.47664858859998
 31
0.0
  0
LINE
  5
79C
330
1F
100
AcDbEntity
  8
0
  6
CONTINUOUS
100
AcDbLine
 10
5.1772173491
 20
16.47664858859998
 30
0.0
 11
5.175547779999998
 21
16.4628684243
 31
0.0
  0
LINE
  5
79D
330
1F
100
AcDbEntity
  8
0
  6
CONTINUOUS
100
AcDbLine
 10
5.175547779999998
 20
16.4628684243
 30
0.0
 11
5.173736845299998
 21
16.44880404609999
 31
0.0
  0
LINE
  5
79E
330
1F
100
AcDbEntity
  8
0
  6
CONTINUOUS
100
AcDbLine
 10
5.173736845299998
 20
16.44880404609999
 30
0.0
 11
5.171787874899998
 21
16.4344813165
 31
0.0
  0
LINE
  5
79F
330
1F
100
AcDbEntity
  8
0
  6
CONTINUOUS
100
AcDbLine
 10
5.171787874899998
 20
16.4344813165
 30
0.0
 11
5.169704452799998
 21
16.41992657299999
 31
0.0
  0
LINE
  5
7A0
330
1F
100
AcDbEntity
  8
0
  6
CONTINUOUS
100
AcDbLine
 10
5.169704452799998
 20
16.41992657299999
 30
0.0
 11
5.1674904101
 21
16.4051665797
 31
0.0
  0
LINE
  5
7A1
330
1F
100
AcDbEntity
  8
0
  6
CONTINUOUS
100
AcDbLine
 10
5.1674904101
 20
16.4051665797
 30
0.0
 11
5.165149818099998
 21
16.39022847829998
 31
0.0
  0
LINE
  5
7A2
330
1F
100
AcDbEntity
  8
0
  6
CONTINUOUS
100
AcDbLine
 10
5.165149818099998
 20
16.39022847829998
 30
0.0
 11
5.1626869808
 21
16.37513973789999
 31
0.0
  0
LINE
  5
7A3
330
1F
100
AcDbEntity
  8
0
  6
CONTINUOUS
100
AcDbLine
 10
5.1626869808
 20
16.37513973789999
 30
0.0
 11
5.160106427099998
 21
16.3599281045
 31
0.0
  0
LINE
  5
7A4
330
1F
100
AcDbEntity
  8
0
  6
CONTINUOUS
100
AcDbLine
 10
5.160106427099998
 20
16.3599281045
 30
0.0
 11
5.157412902199999
 21
16.3446215502
 31
0.0
  0
LINE
  5
7A5
330
1F
100
AcDbEntity
  8
0
  6
CONTINUOUS
100
AcDbLine
 10
5.157412902199999
 20
16.3446215502
 30
0.0
 11
5.1546113592
 21
16.3292482216
 31
0.0
  0
LINE
  5
7A6
330
1F
100
AcDbEntity
  8
0
  6
CONTINUOUS
100
AcDbLine
 10
5.1546113592
 20
16.3292482216
 30
0.0
 11
5.1517069497
 21
16.3138363883
 31
0.0
  0
LINE
  5
7A7
330
1F
100
AcDbEntity
  8
0
  6
CONTINUOUS
100
AcDbLine
 10
5.1517069497
 20
16.3138363883
 30
0.0
 11
5.148705014499999
 21
16.29841439029998
 31
0.0
  0
LINE
  5
7A8
330
1F
100
AcDbEntity
  8
0
  6
CONTINUOUS
100
AcDbLine
 10
5.148705014499999
 20
16.29841439029998
 30
0.0
 11
5.1456110737
 21
16.2830105867
 31
0.0
  0
LINE
  5
7A9
330
1F
100
AcDbEntity
  8
0
  6
CONTINUOUS
100
AcDbLine
 10
5.1456110737
 20
16.2830105867
 30
0.0
 11
5.1424308167
 21
16.2676533028
 31
0.0
  0
LINE
  5
7AA
330
1F
100
AcDbEntity
  8
0
  6
CONTINUOUS
100
AcDbLine
 10
5.1424308167
 20
16.2676533028
 30
0.0
 11
5.139170091499999
 21
16.2523707786
 31
0.0
  0
LINE
  5
7AB
330
1F
100
AcDbEntity
  8
0
  6
CONTINUOUS
100
AcDbLine
 10
5.139170091499999
 20
16.2523707786
 30
0.0
 11
5.1358348942
 21
16.2371911166
 31
0.0
  0
LINE
  5
7AC
330
1F
100
AcDbEntity
  8
0
  6
CONTINUOUS
100
AcDbLine
 10
5.1358348942
 20
16.2371911166
 30
0.0
 11
5.132431357699998
 21
16.22214223
 31
0.0
  0
LINE
  5
7AD
330
1F
100
AcDbEntity
  8
0
  6
CONTINUOUS
100
AcDbLine
 10
5.132431357699998
 20
16.22214223
 30
0.0
 11
5.128965740699999
 21
16.20725179169999
 31
0.0
  0
LINE
  5
7AE
330
1F
100
AcDbEntity
  8
0
  6
CONTINUOUS
100
AcDbLine
 10
5.128965740699999
 20
16.20725179169999
 30
0.0
 11
5.125444415899998
 21
16.19254718299999
 31
0.0
  0
LINE
  5
7AF
330
1F
100
AcDbEntity
  8
0
  6
CONTINUOUS
100
AcDbLine
 10
5.125444415899998
 20
16.19254718299999
 30
0.0
 11
5.121873858499998
 21
16.1780554438
 31
0.0
  0
LINE
  5
7B0
330
1F
100
AcDbEntity
  8
0
  6
CONTINUOUS
100
AcDbLine
 10
5.121873858499998
 20
16.1780554438
 30
0.0
 11
5.1182606344
 21
16.1638032223
 31
0.0
  0
LINE
  5
7B1
330
1F
100
AcDbEntity
  8
0
  6
CONTINUOUS
100
AcDbLine
 10
5.1182606344
 20
16.1638032223
 30
0.0
 11
5.1146113877
 21
16.1498167264
 31
0.0
  0
LINE
  5
7B2
330
1F
100
AcDbEntity
  8
0
  6
CONTINUOUS
100
AcDbLine
 10
5.1146113877
 20
16.1498167264
 30
0.0
 11
5.1109328289
 21
16.1361216753
 31
0.0
  0
LINE
  5
7B3
330
1F
100
AcDbEntity
  8
0
  6
CONTINUOUS
100
AcDbLine
 10
5.1109328289
 20
16.1361216753
 30
0.0
 11
5.107231722399999
 21
16.1227432524
 31
0.0
  0
LINE
  5
7B4
330
1F
100
AcDbEntity
  8
0
  6
CONTINUOUS
100
AcDbLine
 10
5.107231722399999
 20
16.1227432524
 30
0.0
 11
5.103514874
 21
16.1097060586
 31
0.0
  0
LINE
  5
7B5
330
1F
100
AcDbEntity
  8
0
  6
CONTINUOUS
100
AcDbLine
 10
5.103514874
 20
16.1097060586
 30
0.0
 11
5.099789118399999
 21
16.0970340676
 31
0.0
  0
LINE
  5
7B6
330
1F
100
AcDbEntity
  8
0
  6
CONTINUOUS
100
AcDbLine
 10
5.099789118399999
 20
16.0970340676
 30
0.0
 11
5.0960613068
 21
16.0847505814
 31
0.0
  0
LINE
  5
7B7
330
1F
100
AcDbEntity
  8
0
  6
CONTINUOUS
100
AcDbLine
 10
5.0960613068
 20
16.0847505814
 30
0.0
 11
5.0923382942
 21
16.07287818769999
 31
0.0
  0
LINE
  5
7B8
330
1F
100
AcDbEntity
  8
0
  6
CONTINUOUS
100
AcDbLine
 10
5.0923382942
 20
16.07287818769999
 30
0.0
 11
5.088626926599999
 21
16.0614387181
 31
0.0
  0
LINE
  5
7B9
330
1F
100
AcDbEntity
  8
0
  6
CONTINUOUS
100
AcDbLine
 10
5.088626926599999
 20
16.0614387181
 30
0.0
 11
5.0849340287
 21
16.0504532082
 31
0.0
  0
LINE
  5
7BA
330
1F
100
AcDbEntity
  8
0
  6
CONTINUOUS
100
AcDbLine
 10
5.0849340287
 20
16.0504532082
 30
0.0
 11
5.081266391199998
 21
16.0399418588
 31
0.0
  0
LINE
  5
7BB
330
1F
100
AcDbEntity
  8
0
  6
CONTINUOUS
100
AcDbLine
 10
5.081266391199998
 20
16.0399418588
 30
0.0
 11
5.0776307585
 21
16.029923999
 31
0.0
  0
LINE
  5
7BC
330
1F
100
AcDbEntity
  8
0
  6
CONTINUOUS
100
AcDbLine
 10
5.0776307585
 20
16.029923999
 30
0.0
 11
5.0740338159
 21
16.02041804999998
 31
0.0
  0
LINE
  5
7BD
330
1F
100
AcDbEntity
  8
0
  6
CONTINUOUS
100
AcDbLine
 10
5.0740338159
 20
16.02041804999998
 30
0.0
 11
5.070482177799998
 21
16.0114414921
 31
0.0
  0
LINE
  5
7BE
330
1F
100
AcDbEntity
  8
0
  6
CONTINUOUS
100
AcDbLine
 10
5.070482177799998
 20
16.0114414921
 30
0.0
 11
5.0669823751
 21
16.00301083189999
 31
0.0
  0
LINE
  5
7BF
330
1F
100
AcDbEntity
  8
0
  6
CONTINUOUS
100
AcDbLine
 10
5.0669823751
 20
16.00301083189999
 30
0.0
 11
5.063540843399999
 21
15.99514157219999
 31
0.0
  0
LINE
  5
7C0
330
1F
100
AcDbEntity
  8
0
  6
CONTINUOUS
100
AcDbLine
 10
5.063540843399999
 20
15.99514157219999
 30
0.0
 11
5.0601639113
 21
15.98784818349999
 31
0.0
  0
LINE
  5
7C1
330
1F
100
AcDbEntity
  8
0
  6
CONTINUOUS
100
AcDbLine
 10
5.0601639113
 20
15.98784818349999
 30
0.0
 11
5.056857788399999
 21
15.98114407729999
 31
0.0
  0
LINE
  5
7C2
330
1F
100
AcDbEntity
  8
0
  6
CONTINUOUS
100
AcDbLine
 10
5.056857788399999
 20
15.98114407729999
 30
0.0
 11
5.0536285543
 21
15.9750415816
 31
0.0
  0
LINE
  5
7C3
330
1F
100
AcDbEntity
  8
0
  6
CONTINUOUS
100
AcDbLine
 10
5.0536285543
 20
15.9750415816
 30
0.0
 11
5.050482147099999
 21
15.9695519179
 31
0.0
  0
LINE
  5
7C4
330
1F
100
AcDbEntity
  8
0
  6
CONTINUOUS
100
AcDbLine
 10
5.050482147099999
 20
15.9695519179
 30
0.0
 11
5.0474243526
 21
15.964685181
 31
0.0
  0
LINE
  5
7C5
330
1F
100
AcDbEntity
  8
0
  6
CONTINUOUS
100
AcDbLine
 10
5.0474243526
 20
15.964685181
 30
0.0
 11
5.044460793599998
 21
15.9604503202
 31
0.0
  0
LINE
  5
7C6
330
1F
100
AcDbEntity
  8
0
  6
CONTINUOUS
100
AcDbLine
 10
5.044460793599998
 20
15.9604503202
 30
0.0
 11
5.041596919699999
 21
15.9568551228
 31
0.0
  0
LINE
  5
7C7
330
1F
100
AcDbEntity
  8
0
  6
CONTINUOUS
100
AcDbLine
 10
5.041596919699999
 20
15.9568551228
 30
0.0
 11
5.038837997199999
 21
15.9539061998
 31
0.0
  0
LINE
  5
7C8
330
1F
100
AcDbEntity
  8
0
  6
CONTINUOUS
100
AcDbLine
 10
5.038837997199999
 20
15.9539061998
 30
0.0
 11
5.036189099399998
 21
15.951608974
 31
0.0
  0
LINE
  5
7C9
330
1F
100
AcDbEntity
  8
0
  6
CONTINUOUS
100
AcDbLine
 10
5.036189099399998
 20
15.951608974
 30
0.0
 11
5.0336550972
 21
15.9499676695
 31
0.0
  0
LINE
  5
7CA
330
1F
100
AcDbEntity
  8
0
  6
CONTINUOUS
100
AcDbLine
 10
5.0336550972
 20
15.9499676695
 30
0.0
 11
5.0312406503
 21
15.9489853046
 31
0.0
  0
LINE
  5
7CB
330
1F
100
AcDbEntity
  8
0
  6
CONTINUOUS
100
AcDbLine
 10
5.293895072599998
 20
16.6448450128
 30
0.0
 11
5.301497197599998
 21
16.64076075779999
 31
0.0
  0
LINE
  5
7CC
330
1F
100
AcDbEntity
  8
0
  6
CONTINUOUS
100
AcDbLine
 10
5.301497197599998
 20
16.64076075779999
 30
0.0
 11
5.308598177099999
 21
16.6350041103
 31
0.0
  0
LINE
  5
7CD
330
1F
100
AcDbEntity
  8
0
  6
CONTINUOUS
100
AcDbLine
 10
5.308598177099999
 20
16.6350041103
 30
0.0
 11
5.315155176
 21
16.6276111948
 31
0.0
  0
LINE
  5
7CE
330
1F
100
AcDbEntity
  8
0
  6
CONTINUOUS
100
AcDbLine
 10
5.315155176
 20
16.6276111948
 30
0.0
 11
5.321125359299998
 21
16.6186181361
 31
0.0
  0
LINE
  5
7CF
330
1F
100
AcDbEntity
  8
0
  6
CONTINUOUS
100
AcDbLine
 10
5.321125359299998
 20
16.6186181361
 30
0.0
 11
5.326465891999998
 21
16.6080610588
 31
0.0
  0
LINE
  5
7D0
330
1F
100
AcDbEntity
  8
0
  6
CONTINUOUS
100
AcDbLine
 10
5.326465891999998
 20
16.6080610588
 30
0.0
 11
5.331170960799998
 21
16.59590292839999
 31
0.0
  0
LINE
  5
7D1
330
1F
100
AcDbEntity
  8
0
  6
CONTINUOUS
100
AcDbLine
 10
5.331170960799998
 20
16.59590292839999
 30
0.0
 11
5.335240298
 21
16.58217326469999
 31
0.0
  0
LINE
  5
7D2
330
1F
100
AcDbEntity
  8
0
  6
CONTINUOUS
100
AcDbLine
 10
5.335240298
 20
16.58217326469999
 30
0.0
 11
5.3386566852
 21
16.5669689266
 31
0.0
  0
LINE
  5
7D3
330
1F
100
AcDbEntity
  8
0
  6
CONTINUOUS
100
AcDbLine
 10
5.3386566852
 20
16.5669689266
 30
0.0
 11
5.3414029036
 21
16.5503867728
 31
0.0
  0
LINE
  5
7D4
330
1F
100
AcDbEntity
  8
0
  6
CONTINUOUS
100
AcDbLine
 10
5.3414029036
 20
16.5503867728
 30
0.0
 11
5.343461734899999
 21
16.5325236618
 31
0.0
  0
LINE
  5
7D5
330
1F
100
AcDbEntity
  8
0
  6
CONTINUOUS
100
AcDbLine
 10
5.343461734899999
 20
16.5325236618
 30
0.0
 11
5.344799693899998
 21
16.51398969849999
 31
0.0
  0
LINE
  5
7D6
330
1F
100
AcDbEntity
  8
0
  6
CONTINUOUS
100
AcDbLine
 10
5.344799693899998
 20
16.51398969849999
 30
0.0
 11
5.3455071564
 21
16.4942790391
 31
0.0
  0
LINE
  5
7D7
330
1F
100
AcDbEntity
  8
0
  6
CONTINUOUS
100
AcDbLine
 10
5.3455071564
 20
16.4942790391
 30
0.0
 11
5.3455935905
 21
16.4735338647
 31
0.0
  0
LINE
  5
7D8
330
1F
100
AcDbEntity
  8
0
  6
CONTINUOUS
100
AcDbLine
 10
5.3455935905
 20
16.4735338647
 30
0.0
 11
5.345068464299998
 21
16.4518963563
 31
0.0
  0
LINE
  5
7D9
330
1F
100
AcDbEntity
  8
0
  6
CONTINUOUS
100
AcDbLine
 10
5.345068464299998
 20
16.4518963563
 30
0.0
 11
5.343941245699999
 21
16.42950869499999
 31
0.0
  0
LINE
  5
7DA
330
1F
100
AcDbEntity
  8
0
  6
CONTINUOUS
100
AcDbLine
 10
5.343941245699999
 20
16.42950869499999
 30
0.0
 11
5.342274598
 21
16.4070505314
 31
0.0
  0
LINE
  5
7DB
330
1F
100
AcDbEntity
  8
0
  6
CONTINUOUS
100
AcDbLine
 10
5.342274598
 20
16.4070505314
 30
0.0
 11
5.3400613622
 21
16.3839318068
 31
0.0
  0
LINE
  5
7DC
330
1F
100
AcDbEntity
  8
0
  6
CONTINUOUS
100
AcDbLine
 10
5.3400613622
 20
16.3839318068
 30
0.0
 11
5.337327027099998
 21
16.3603148844
 31
0.0
  0
LINE
  5
7DD
330
1F
100
AcDbEntity
  8
0
  6
CONTINUOUS
100
AcDbLine
 10
5.337327027099998
 20
16.3603148844
 30
0.0
 11
5.3340970813
 21
16.3363621276
 31
0.0
  0
LINE
  5
7DE
330
1F
100
AcDbEntity
  8
0
  6
CONTINUOUS
100
AcDbLine
 10
5.3340970813
 20
16.3363621276
 30
0.0
 11
5.330397013599998
 21
16.3122358996
 31
0.0
  0
LINE
  5
7DF
330
1F
100
AcDbEntity
  8
0
  6
CONTINUOUS
100
AcDbLine
 10
5.330397013599998
 20
16.3122358996
 30
0.0
 11
5.325197893299999
 21
16.28229901549999
 31
0.0
  0
LINE
  5
7E0
330
1F
100
AcDbEntity
  8
0
  6
CONTINUOUS
100
AcDbLine
 10
5.325197893299999
 20
16.28229901549999
 30
0.0
 11
5.319322395699998
 21
16.2522516643
 31
0.0
  0
LINE
  5
7E1
330
1F
100
AcDbEntity
  8
0
  6
CONTINUOUS
100
AcDbLine
 10
5.319322395699998
 20
16.2522516643
 30
0.0
 11
5.3128349029
 21
16.2224133892
 31
0.0
  0
LINE
  5
7E2
330
1F
100
AcDbEntity
  8
0
  6
CONTINUOUS
100
AcDbLine
 10
5.3128349029
 20
16.2224133892
 30
0.0
 11
5.305799797399998
 21
16.19310373339999
 31
0.0
  0
LINE
  5
7E3
330
1F
100
AcDbEntity
  8
0
  6
CONTINUOUS
100
AcDbLine
 10
5.305799797399998
 20
16.19310373339999
 30
0.0
 11
5.298259686
 21
16.16453920449999
 31
0.0
  0
LINE
  5
7E4
330
1F
100
AcDbEntity
  8
0
  6
CONTINUOUS
100
AcDbLine
 10
5.298259686
 20
16.16453920449999
 30
0.0
 11
5.2902105801
 21
16.13670944689999
 31
0.0
  0
LINE
  5
7E5
330
1F
100
AcDbEntity
  8
0
  6
CONTINUOUS
100
AcDbLine
 10
5.2902105801
 20
16.13670944689999
 30
0.0
 11
5.281724485299998
 21
16.10990153119998
 31
0.0
  0
LINE
  5
7E6
330
1F
100
AcDbEntity
  8
0
  6
CONTINUOUS
100
AcDbLine
 10
5.281724485299998
 20
16.10990153119998
 30
0.0
 11
5.272873407099999
 21
16.08440252779999
 31
0.0
  0
LINE
  5
7E7
330
1F
100
AcDbEntity
  8
0
  6
CONTINUOUS
100
AcDbLine
 10
5.272873407099999
 20
16.08440252779999
 30
0.0
 11
5.2636249661
 21
16.06021428
 31
0.0
  0
LINE
  5
7E8
330
1F
100
AcDbEntity
  8
0
  6
CONTINUOUS
100
AcDbLine
 10
5.2636249661
 20
16.06021428
 30
0.0
 11
5.254034139999999
 21
16.0375202576
 31
0.0
  0
LINE
  5
7E9
330
1F
100
AcDbEntity
  8
0
  6
CONTINUOUS
100
AcDbLine
 10
5.254034139999999
 20
16.0375202576
 30
0.0
 11
5.2441798835
 21
16.01653911229999
 31
0.0
  0
LINE
  5
7EA
330
1F
100
AcDbEntity
  8
0
  6
CONTINUOUS
100
AcDbLine
 10
5.2441798835
 20
16.01653911229999
 30
0.0
 11
5.2341411512
 21
15.9974894958
 31
0.0
  0
LINE
  5
7EB
330
1F
100
AcDbEntity
  8
0
  6
CONTINUOUS
100
AcDbLine
 10
5.2341411512
 20
15.9974894958
 30
0.0
 11
5.223773731799998
 21
15.9802115063
 31
0.0
  0
LINE
  5
7EC
330
1F
100
AcDbEntity
  8
0
  6
CONTINUOUS
100
AcDbLine
 10
5.223773731799998
 20
15.9802115063
 30
0.0
 11
5.213244986999999
 21
15.96502846939999
 31
0.0
  0
LINE
  5
7ED
330
1F
100
AcDbEntity
  8
0
  6
CONTINUOUS
100
AcDbLine
 10
5.213244986999999
 20
15.96502846939999
 30
0.0
 11
5.2026417439
 21
15.9520648699
 31
0.0
  0
LINE
  5
7EE
330
1F
100
AcDbEntity
  8
0
  6
CONTINUOUS
100
AcDbLine
 10
5.2026417439
 20
15.9520648699
 30
0.0
 11
5.192050829599999
 21
15.9414451924
 31
0.0
  0
LINE
  5
7EF
330
1F
100
AcDbEntity
  8
0
  6
CONTINUOUS
100
AcDbLine
 10
5.192050829599999
 20
15.9414451924
 30
0.0
 11
5.181662679399998
 21
15.9333270203
 31
0.0
  0
LINE
  5
7F0
330
1F
100
AcDbEntity
  8
0
  6
CONTINUOUS
100
AcDbLine
 10
5.181662679399998
 20
15.9333270203
 30
0.0
 11
5.1713242981
 21
15.9274964672
 31
0.0
  0
LINE
  5
7F1
330
1F
100
AcDbEntity
  8
0
  6
CONTINUOUS
100
AcDbLine
 10
5.1713242981
 20
15.9274964672
 30
0.0
 11
5.161119243299999
 21
15.92397694259999
 31
0.0
  0
LINE
  5
7F2
330
1F
100
AcDbEntity
  8
0
  6
CONTINUOUS
100
AcDbLine
 10
5.161119243299999
 20
15.92397694259999
 30
0.0
 11
5.1511310728
 21
15.92279185609998
 31
0.0
  0
LINE
  5
7FD
330
1F
100
AcDbEntity
  8
0
100
AcDbLine
 10
10.64255364829999
 20
13.3618245473
 30
0.0
 11
8.789510595099999
 21
13.3618245473
 31
0.0
  0
LINE
  5
7FE
330
1F
100
AcDbEntity
  8
0
100
AcDbLine
 10
10.64255364829999
 20
17.42104854589999
 30
0.0
 11
8.789510595099999
 21
17.42104854589999
 31
0.0
  0
LINE
  5
80E
330
1F
100
AcDbEntity
  8
0
  6
CONTINUOUS
100
AcDbLine
 10
8.734629462599999
 20
13.3618245473
 30
0.0
 11
9.239280225099999
 21
13.3622533956
 31
0.0
  0
LINE
  5
80F
330
1F
100
AcDbEntity
  8
0
  6
CONTINUOUS
100
AcDbLine
 10
9.239280225099999
 20
13.3622533956
 30
0.0
 11
9.7439515491
 21
13.3624023842
 31
0.0
  0
LINE
  5
810
330
1F
100
AcDbEntity
  8
0
  6
CONTINUOUS
100
AcDbLine
 10
9.7439515491
 20
13.3624023842
 30
0.0
 11
10.24325265859999
 21
13.36225023319999
 31
0.0
  0
LINE
  5
811
330
1F
100
AcDbEntity
  8
0
  6
CONTINUOUS
100
AcDbLine
 10
10.24325265859999
 20
13.36225023319999
 30
0.0
 11
10.74255364829998
 21
13.3618245473
 31
0.0
  0
LINE
  5
812
330
1F
100
AcDbEntity
  8
0
  6
CONTINUOUS
100
AcDbLine
 10
5.692247480199998
 20
13.759674895
 30
0.0
 11
6.394151868099999
 21
13.7612523971
 31
0.0
  0
LINE
  5
813
330
1F
100
AcDbEntity
  8
0
  6
CONTINUOUS
100
AcDbLine
 10
6.394151868099999
 20
13.7612523971
 30
0.0
 11
7.096066021499998
 21
13.7627662738
 31
0.0
  0
LINE
  5
814
330
1F
100
AcDbEntity
  8
0
  6
CONTINUOUS
100
AcDbLine
 10
7.096066021499998
 20
13.7627662738
 30
0.0
 11
7.7979983903
 21
13.764169809
 31
0.0
  0
LINE
  5
815
330
1F
100
AcDbEntity
  8
0
  6
CONTINUOUS
100
AcDbLine
 10
7.7979983903
 20
13.764169809
 30
0.0
 11
8.1489750242
 21
13.764804123
 31
0.0
  0
LINE
  5
816
330
1F
100
AcDbEntity
  8
0
  6
CONTINUOUS
100
AcDbLine
 10
8.1489750242
 20
13.764804123
 30
0.0
 11
8.499959508199999
 21
13.7653693593
 31
0.0
  0
LINE
  5
819
330
1F
100
AcDbEntity
  8
0
  6
CONTINUOUS
100
AcDbLine
 10
9.738591555399999
 20
12.9820001994
 30
0.0
 11
9.749367625899999
 21
12.9820410618
 31
0.0
  0
LINE
  5
81A
330
1F
100
AcDbEntity
  8
0
  6
CONTINUOUS
100
AcDbLine
 10
9.749367625899999
 20
12.9820410618
 30
0.0
 11
9.7601020059
 21
12.9821634908
 31
0.0
  0
LINE
  5
81B
330
1F
100
AcDbEntity
  8
0
  6
CONTINUOUS
100
AcDbLine
 10
9.7601020059
 20
12.9821634908
 30
0.0
 11
9.7707531661
 21
12.9823670127
 31
0.0
  0
LINE
  5
81C
330
1F
100
AcDbEntity
  8
0
  6
CONTINUOUS
100
AcDbLine
 10
9.7707531661
 20
12.9823670127
 30
0.0
 11
9.781279899299999
 21
12.9826508403
 31
0.0
  0
LINE
  5
81D
330
1F
100
AcDbEntity
  8
0
  6
CONTINUOUS
100
AcDbLine
 10
9.781279899299999
 20
12.9826508403
 30
0.0
 11
9.7916414796
 21
12.9830138754
 31
0.0
  0
LINE
  5
81E
330
1F
100
AcDbEntity
  8
0
  6
CONTINUOUS
100
AcDbLine
 10
9.7916414796
 20
12.9830138754
 30
0.0
 11
9.80179782
 21
12.9834547136
 31
0.0
  0
LINE
  5
81F
330
1F
100
AcDbEntity
  8
0
  6
CONTINUOUS
100
AcDbLine
 10
9.80179782
 20
12.9834547136
 30
0.0
 11
9.811709627699999
 21
12.9839716492
 31
0.0
  0
LINE
  5
820
330
1F
100
AcDbEntity
  8
0
  6
CONTINUOUS
100
AcDbLine
 10
9.811709627699999
 20
12.9839716492
 30
0.0
 11
9.8213385557
 21
12.9845626824
 31
0.0
  0
LINE
  5
821
330
1F
100
AcDbEntity
  8
0
  6
CONTINUOUS
100
AcDbLine
 10
9.8213385557
 20
12.9845626824
 30
0.0
 11
9.830647351699999
 21
12.9852255265
 31
0.0
  0
LINE
  5
822
330
1F
100
AcDbEntity
  8
0
  6
CONTINUOUS
100
AcDbLine
 10
9.830647351699999
 20
12.9852255265
 30
0.0
 11
9.839600001699999
 21
12.9859576173
 31
0.0
  0
LINE
  5
823
330
1F
100
AcDbEntity
  8
0
  6
CONTINUOUS
100
AcDbLine
 10
9.839600001699999
 20
12.9859576173
 30
0.0
 11
9.8481618696
 21
12.9867561223
 31
0.0
  0
LINE
  5
824
330
1F
100
AcDbEntity
  8
0
  6
CONTINUOUS
100
AcDbLine
 10
9.8481618696
 20
12.9867561223
 30
0.0
 11
9.856299831299999
 21
12.9876179522
 31
0.0
  0
LINE
  5
825
330
1F
100
AcDbEntity
  8
0
  6
CONTINUOUS
100
AcDbLine
 10
9.856299831299999
 20
12.9876179522
 30
0.0
 11
9.863982402499999
 21
12.9885397729
 31
0.0
  0
LINE
  5
826
330
1F
100
AcDbEntity
  8
0
  6
CONTINUOUS
100
AcDbLine
 10
9.863982402499999
 20
12.9885397729
 30
0.0
 11
9.871179860899999
 21
12.989518018
 31
0.0
  0
LINE
  5
827
330
1F
100
AcDbEntity
  8
0
  6
CONTINUOUS
100
AcDbLine
 10
9.871179860899999
 20
12.989518018
 30
0.0
 11
9.8778643609
 21
12.9905489028
 31
0.0
  0
LINE
  5
828
330
1F
100
AcDbEntity
  8
0
  6
CONTINUOUS
100
AcDbLine
 10
9.8778643609
 20
12.9905489028
 30
0.0
 11
9.884010041499999
 21
12.9916284391
 31
0.0
  0
LINE
  5
829
330
1F
100
AcDbEntity
  8
0
  6
CONTINUOUS
100
AcDbLine
 10
9.884010041499999
 20
12.9916284391
 30
0.0
 11
9.889593126199999
 21
12.9927524504
 31
0.0
  0
LINE
  5
82A
330
1F
100
AcDbEntity
  8
0
  6
CONTINUOUS
100
AcDbLine
 10
9.889593126199999
 20
12.9927524504
 30
0.0
 11
9.8945920151
 21
12.9939165879
 31
0.0
  0
LINE
  5
82B
330
1F
100
AcDbEntity
  8
0
  6
CONTINUOUS
100
AcDbLine
 10
9.8945920151
 20
12.9939165879
 30
0.0
 11
9.8989873686
 21
12.99511634809999
 31
0.0
  0
LINE
  5
82C
330
1F
100
AcDbEntity
  8
0
  6
CONTINUOUS
100
AcDbLine
 10
9.8989873686
 20
12.99511634809999
 30
0.0
 11
9.9027621818
 21
12.9963470891
 31
0.0
  0
LINE
  5
82D
330
1F
100
AcDbEntity
  8
0
  6
CONTINUOUS
100
AcDbLine
 10
9.9027621818
 20
12.9963470891
 30
0.0
 11
9.905901850800001
 21
12.99760404949999
 31
0.0
  0
LINE
  5
82E
330
1F
100
AcDbEntity
  8
0
  6
CONTINUOUS
100
AcDbLine
 10
9.905901850800001
 20
12.99760404949999
 30
0.0
 11
9.9083942288
 21
12.9988823664
 31
0.0
  0
LINE
  5
82F
330
1F
100
AcDbEntity
  8
0
  6
CONTINUOUS
100
AcDbLine
 10
9.9083942288
 20
12.9988823664
 30
0.0
 11
9.910229673199999
 21
13.0001770942
 31
0.0
  0
LINE
  5
830
330
1F
100
AcDbEntity
  8
0
  6
CONTINUOUS
100
AcDbLine
 10
9.910229673199999
 20
13.0001770942
 30
0.0
 11
9.911401082999999
 21
13.0014832238
 31
0.0
  0
LINE
  5
831
330
1F
100
AcDbEntity
  8
0
  6
CONTINUOUS
100
AcDbLine
 10
9.911401082999999
 20
13.0014832238
 30
0.0
 11
9.911903926399999
 21
13.0027957021
 31
0.0
  0
LINE
  5
832
330
1F
100
AcDbEntity
  8
0
  6
CONTINUOUS
100
AcDbLine
 10
9.911903926399999
 20
13.0027957021
 30
0.0
 11
9.911736257899999
 21
13.0041094514
 31
0.0
  0
LINE
  5
833
330
1F
100
AcDbEntity
  8
0
  6
CONTINUOUS
100
AcDbLine
 10
9.911736257899999
 20
13.0041094514
 30
0.0
 11
9.9108987261
 21
13.0054193891
 31
0.0
  0
LINE
  5
834
330
1F
100
AcDbEntity
  8
0
  6
CONTINUOUS
100
AcDbLine
 10
9.9108987261
 20
13.0054193891
 30
0.0
 11
9.9093945714
 21
13.0067204471
 31
0.0
  0
LINE
  5
835
330
1F
100
AcDbEntity
  8
0
  6
CONTINUOUS
100
AcDbLine
 10
9.9093945714
 20
13.0067204471
 30
0.0
 11
9.907229613
 21
13.0080075921
 31
0.0
  0
LINE
  5
836
330
1F
100
AcDbEntity
  8
0
  6
CONTINUOUS
100
AcDbLine
 10
9.907229613
 20
13.0080075921
 30
0.0
 11
9.904412226699999
 21
13.0092758442
 31
0.0
  0
LINE
  5
837
330
1F
100
AcDbEntity
  8
0
  6
CONTINUOUS
100
AcDbLine
 10
9.904412226699999
 20
13.0092758442
 30
0.0
 11
9.9009533125
 21
13.0105202969
 31
0.0
  0
LINE
  5
838
330
1F
100
AcDbEntity
  8
0
  6
CONTINUOUS
100
AcDbLine
 10
9.9009533125
 20
13.0105202969
 30
0.0
 11
9.8968662521
 21
13.0117361356
 31
0.0
  0
LINE
  5
839
330
1F
100
AcDbEntity
  8
0
  6
CONTINUOUS
100
AcDbLine
 10
9.8968662521
 20
13.0117361356
 30
0.0
 11
9.892166857699999
 21
13.0129186564
 31
0.0
  0
LINE
  5
83A
330
1F
100
AcDbEntity
  8
0
  6
CONTINUOUS
100
AcDbLine
 10
9.892166857699999
 20
13.0129186564
 30
0.0
 11
9.8868733103
 21
13.0140632845
 31
0.0
  0
LINE
  5
83B
330
1F
100
AcDbEntity
  8
0
  6
CONTINUOUS
100
AcDbLine
 10
9.8868733103
 20
13.0140632845
 30
0.0
 11
9.881006089599999
 21
13.0151655915
 31
0.0
  0
LINE
  5
83C
330
1F
100
AcDbEntity
  8
0
  6
CONTINUOUS
100
AcDbLine
 10
9.881006089599999
 20
13.0151655915
 30
0.0
 11
9.874587894699999
 21
13.0162213127
 31
0.0
  0
LINE
  5
83D
330
1F
100
AcDbEntity
  8
0
  6
CONTINUOUS
100
AcDbLine
 10
9.874587894699999
 20
13.0162213127
 30
0.0
 11
9.867643556399999
 21
13.0172263638
 31
0.0
  0
LINE
  5
83E
330
1F
100
AcDbEntity
  8
0
  6
CONTINUOUS
100
AcDbLine
 10
9.867643556399999
 20
13.0172263638
 30
0.0
 11
9.860199940999999
 21
13.0181768565
 31
0.0
  0
LINE
  5
83F
330
1F
100
AcDbEntity
  8
0
  6
CONTINUOUS
100
AcDbLine
 10
9.860199940999999
 20
13.0181768565
 30
0.0
 11
9.852285846399999
 21
13.01906911339999
 31
0.0
  0
LINE
  5
840
330
1F
100
AcDbEntity
  8
0
  6
CONTINUOUS
100
AcDbLine
 10
9.852285846399999
 20
13.01906911339999
 30
0.0
 11
9.843931890599998
 21
13.0198996827
 31
0.0
  0
LINE
  5
841
330
1F
100
AcDbEntity
  8
0
  6
CONTINUOUS
100
AcDbLine
 10
9.843931890599998
 20
13.0198996827
 30
0.0
 11
9.8351703936
 21
13.0206653509
 31
0.0
  0
LINE
  5
842
330
1F
100
AcDbEntity
  8
0
  6
CONTINUOUS
100
AcDbLine
 10
9.8351703936
 20
13.0206653509
 30
0.0
 11
9.826035251799998
 21
13.0213631559
 31
0.0
  0
LINE
  5
843
330
1F
100
AcDbEntity
  8
0
  6
CONTINUOUS
100
AcDbLine
 10
9.826035251799998
 20
13.0213631559
 30
0.0
 11
9.816561807299999
 21
13.021990398
 31
0.0
  0
LINE
  5
844
330
1F
100
AcDbEntity
  8
0
  6
CONTINUOUS
100
AcDbLine
 10
9.816561807299999
 20
13.021990398
 30
0.0
 11
9.806786711
 21
13.02254465049998
 31
0.0
  0
LINE
  5
845
330
1F
100
AcDbEntity
  8
0
  6
CONTINUOUS
100
AcDbLine
 10
9.806786711
 20
13.02254465049998
 30
0.0
 11
9.796747781
 21
13.0230237691
 31
0.0
  0
LINE
  5
846
330
1F
100
AcDbEntity
  8
0
  6
CONTINUOUS
100
AcDbLine
 10
9.796747781
 20
13.0230237691
 30
0.0
 11
9.7864838558
 21
13.0234259002
 31
0.0
  0
LINE
  5
847
330
1F
100
AcDbEntity
  8
0
  6
CONTINUOUS
100
AcDbLine
 10
9.7864838558
 20
13.0234259002
 30
0.0
 11
9.776034644600001
 21
13.0237494881
 31
0.0
  0
LINE
  5
848
330
1F
100
AcDbEntity
  8
0
  6
CONTINUOUS
100
AcDbLine
 10
9.776034644600001
 20
13.0237494881
 30
0.0
 11
9.765440573300001
 21
13.02399328079999
 31
0.0
  0
LINE
  5
849
330
1F
100
AcDbEntity
  8
0
  6
CONTINUOUS
100
AcDbLine
 10
9.765440573300001
 20
13.02399328079999
 30
0.0
 11
9.7547426285
 21
13.02415633519999
 31
0.0
  0
LINE
  5
84A
330
1F
100
AcDbEntity
  8
0
  6
CONTINUOUS
100
AcDbLine
 10
9.7547426285
 20
13.02415633519999
 30
0.0
 11
9.743982198200001
 21
13.0242380204
 31
0.0
  0
LINE
  5
84B
330
1F
100
AcDbEntity
  8
0
  6
CONTINUOUS
100
AcDbLine
 10
9.743982198200001
 20
13.0242380204
 30
0.0
 11
9.733200912599999
 21
13.0242380204
 31
0.0
  0
LINE
  5
84C
330
1F
100
AcDbEntity
  8
0
  6
CONTINUOUS
100
AcDbLine
 10
9.733200912599999
 20
13.0242380204
 30
0.0
 11
9.722440482399999
 21
13.02415633519999
 31
0.0
  0
LINE
  5
84D
330
1F
100
AcDbEntity
  8
0
  6
CONTINUOUS
100
AcDbLine
 10
9.722440482399999
 20
13.02415633519999
 30
0.0
 11
9.711742537499999
 21
13.02399328079999
 31
0.0
  0
LINE
  5
84E
330
1F
100
AcDbEntity
  8
0
  6
CONTINUOUS
100
AcDbLine
 10
9.711742537499999
 20
13.02399328079999
 30
0.0
 11
9.701148466299999
 21
13.0237494881
 31
0.0
  0
LINE
  5
84F
330
1F
100
AcDbEntity
  8
0
  6
CONTINUOUS
100
AcDbLine
 10
9.701148466299999
 20
13.0237494881
 30
0.0
 11
9.6906992551
 21
13.0234259002
 31
0.0
  0
LINE
  5
850
330
1F
100
AcDbEntity
  8
0
  6
CONTINUOUS
100
AcDbLine
 10
9.6906992551
 20
13.0234259002
 30
0.0
 11
9.680435329899999
 21
13.0230237691
 31
0.0
  0
LINE
  5
851
330
1F
100
AcDbEntity
  8
0
  6
CONTINUOUS
100
AcDbLine
 10
9.680435329899999
 20
13.0230237691
 30
0.0
 11
9.670396399799999
 21
13.02254465049998
 31
0.0
  0
LINE
  5
852
330
1F
100
AcDbEntity
  8
0
  6
CONTINUOUS
100
AcDbLine
 10
9.670396399799999
 20
13.02254465049998
 30
0.0
 11
9.660621303599999
 21
13.021990398
 31
0.0
  0
LINE
  5
853
330
1F
100
AcDbEntity
  8
0
  6
CONTINUOUS
100
AcDbLine
 10
9.660621303599999
 20
13.021990398
 30
0.0
 11
9.651147859099999
 21
13.0213631559
 31
0.0
  0
LINE
  5
854
330
1F
100
AcDbEntity
  8
0
  6
CONTINUOUS
100
AcDbLine
 10
9.651147859099999
 20
13.0213631559
 30
0.0
 11
9.6420127173
 21
13.0206653509
 31
0.0
  0
LINE
  5
855
330
1F
100
AcDbEntity
  8
0
  6
CONTINUOUS
100
AcDbLine
 10
9.6420127173
 20
13.0206653509
 30
0.0
 11
9.6332512202
 21
13.0198996827
 31
0.0
  0
LINE
  5
856
330
1F
100
AcDbEntity
  8
0
  6
CONTINUOUS
100
AcDbLine
 10
9.6332512202
 20
13.0198996827
 30
0.0
 11
9.624897264500001
 21
13.01906911339999
 31
0.0
  0
LINE
  5
857
330
1F
100
AcDbEntity
  8
0
  6
CONTINUOUS
100
AcDbLine
 10
9.624897264500001
 20
13.01906911339999
 30
0.0
 11
9.616983169800001
 21
13.0181768565
 31
0.0
  0
LINE
  5
858
330
1F
100
AcDbEntity
  8
0
  6
CONTINUOUS
100
AcDbLine
 10
9.616983169800001
 20
13.0181768565
 30
0.0
 11
9.609539554400001
 21
13.0172263638
 31
0.0
  0
LINE
  5
859
330
1F
100
AcDbEntity
  8
0
  6
CONTINUOUS
100
AcDbLine
 10
9.609539554400001
 20
13.0172263638
 30
0.0
 11
9.6025952161
 21
13.0162213127
 31
0.0
  0
LINE
  5
85A
330
1F
100
AcDbEntity
  8
0
  6
CONTINUOUS
100
AcDbLine
 10
9.6025952161
 20
13.0162213127
 30
0.0
 11
9.5961770212
 21
13.0151655915
 31
0.0
  0
LINE
  5
85B
330
1F
100
AcDbEntity
  8
0
  6
CONTINUOUS
100
AcDbLine
 10
9.5961770212
 20
13.0151655915
 30
0.0
 11
9.5903098005
 21
13.0140632845
 31
0.0
  0
LINE
  5
85C
330
1F
100
AcDbEntity
  8
0
  6
CONTINUOUS
100
AcDbLine
 10
9.5903098005
 20
13.0140632845
 30
0.0
 11
9.585016253099999
 21
13.0129186564
 31
0.0
  0
LINE
  5
85D
330
1F
100
AcDbEntity
  8
0
  6
CONTINUOUS
100
AcDbLine
 10
9.585016253099999
 20
13.0129186564
 30
0.0
 11
9.580316858699999
 21
13.0117361356
 31
0.0
  0
LINE
  5
85E
330
1F
100
AcDbEntity
  8
0
  6
CONTINUOUS
100
AcDbLine
 10
9.580316858699999
 20
13.0117361356
 30
0.0
 11
9.576229798399999
 21
13.0105202969
 31
0.0
  0
LINE
  5
85F
330
1F
100
AcDbEntity
  8
0
  6
CONTINUOUS
100
AcDbLine
 10
9.576229798399999
 20
13.0105202969
 30
0.0
 11
9.5727708841
 21
13.0092758442
 31
0.0
  0
LINE
  5
860
330
1F
100
AcDbEntity
  8
0
  6
CONTINUOUS
100
AcDbLine
 10
9.5727708841
 20
13.0092758442
 30
0.0
 11
9.5699534978
 21
13.0080075921
 31
0.0
  0
LINE
  5
861
330
1F
100
AcDbEntity
  8
0
  6
CONTINUOUS
100
AcDbLine
 10
9.5699534978
 20
13.0080075921
 30
0.0
 11
9.5677885394
 21
13.0067204471
 31
0.0
  0
LINE
  5
862
330
1F
100
AcDbEntity
  8
0
  6
CONTINUOUS
100
AcDbLine
 10
9.5677885394
 20
13.0067204471
 30
0.0
 11
9.566284384699999
 21
13.0054193891
 31
0.0
  0
LINE
  5
863
330
1F
100
AcDbEntity
  8
0
  6
CONTINUOUS
100
AcDbLine
 10
9.566284384699999
 20
13.0054193891
 30
0.0
 11
9.565446852999999
 21
13.0041094514
 31
0.0
  0
LINE
  5
864
330
1F
100
AcDbEntity
  8
0
  6
CONTINUOUS
100
AcDbLine
 10
9.565446852999999
 20
13.0041094514
 30
0.0
 11
9.565279184500001
 21
13.0027957021
 31
0.0
  0
LINE
  5
865
330
1F
100
AcDbEntity
  8
0
  6
CONTINUOUS
100
AcDbLine
 10
9.565279184500001
 20
13.0027957021
 30
0.0
 11
9.565782027799999
 21
13.0014832238
 31
0.0
  0
LINE
  5
866
330
1F
100
AcDbEntity
  8
0
  6
CONTINUOUS
100
AcDbLine
 10
9.565782027799999
 20
13.0014832238
 30
0.0
 11
9.5669534377
 21
13.0001770942
 31
0.0
  0
LINE
  5
867
330
1F
100
AcDbEntity
  8
0
  6
CONTINUOUS
100
AcDbLine
 10
9.5669534377
 20
13.0001770942
 30
0.0
 11
9.568788882099999
 21
12.9988823664
 31
0.0
  0
LINE
  5
868
330
1F
100
AcDbEntity
  8
0
  6
CONTINUOUS
100
AcDbLine
 10
9.568788882099999
 20
12.9988823664
 30
0.0
 11
9.571281259999999
 21
12.99760404949999
 31
0.0
  0
LINE
  5
869
330
1F
100
AcDbEntity
  8
0
  6
CONTINUOUS
100
AcDbLine
 10
9.571281259999999
 20
12.99760404949999
 30
0.0
 11
9.574420929
 21
12.9963470891
 31
0.0
  0
LINE
  5
86A
330
1F
100
AcDbEntity
  8
0
  6
CONTINUOUS
100
AcDbLine
 10
9.574420929
 20
12.9963470891
 30
0.0
 11
9.5781957423
 21
12.99511634809999
 31
0.0
  0
LINE
  5
86B
330
1F
100
AcDbEntity
  8
0
  6
CONTINUOUS
100
AcDbLine
 10
9.5781957423
 20
12.99511634809999
 30
0.0
 11
9.582591095699999
 21
12.9939165879
 31
0.0
  0
LINE
  5
86C
330
1F
100
AcDbEntity
  8
0
  6
CONTINUOUS
100
AcDbLine
 10
9.582591095699999
 20
12.9939165879
 30
0.0
 11
9.587589984700001
 21
12.9927524504
 31
0.0
  0
LINE
  5
86D
330
1F
100
AcDbEntity
  8
0
  6
CONTINUOUS
100
AcDbLine
 10
9.587589984700001
 20
12.9927524504
 30
0.0
 11
9.5931730694
 21
12.9916284391
 31
0.0
  0
LINE
  5
86E
330
1F
100
AcDbEntity
  8
0
  6
CONTINUOUS
100
AcDbLine
 10
9.5931730694
 20
12.9916284391
 30
0.0
 11
9.59931875
 21
12.9905489028
 31
0.0
  0
LINE
  5
86F
330
1F
100
AcDbEntity
  8
0
  6
CONTINUOUS
100
AcDbLine
 10
9.59931875
 20
12.9905489028
 30
0.0
 11
9.60600325
 21
12.989518018
 31
0.0
  0
LINE
  5
870
330
1F
100
AcDbEntity
  8
0
  6
CONTINUOUS
100
AcDbLine
 10
9.60600325
 20
12.989518018
 30
0.0
 11
9.6132007084
 21
12.9885397729
 31
0.0
  0
LINE
  5
871
330
1F
100
AcDbEntity
  8
0
  6
CONTINUOUS
100
AcDbLine
 10
9.6132007084
 20
12.9885397729
 30
0.0
 11
9.620883279600001
 21
12.9876179522
 31
0.0
  0
LINE
  5
872
330
1F
100
AcDbEntity
  8
0
  6
CONTINUOUS
100
AcDbLine
 10
9.620883279600001
 20
12.9876179522
 30
0.0
 11
9.6290212412
 21
12.9867561223
 31
0.0
  0
LINE
  5
873
330
1F
100
AcDbEntity
  8
0
  6
CONTINUOUS
100
AcDbLine
 10
9.6290212412
 20
12.9867561223
 30
0.0
 11
9.637583109199999
 21
12.9859576173
 31
0.0
  0
LINE
  5
874
330
1F
100
AcDbEntity
  8
0
  6
CONTINUOUS
100
AcDbLine
 10
9.637583109199999
 20
12.9859576173
 30
0.0
 11
9.646535759199998
 21
12.9852255265
 31
0.0
  0
LINE
  5
875
330
1F
100
AcDbEntity
  8
0
  6
CONTINUOUS
100
AcDbLine
 10
9.646535759199998
 20
12.9852255265
 30
0.0
 11
9.655844555199999
 21
12.9845626824
 31
0.0
  0
LINE
  5
876
330
1F
100
AcDbEntity
  8
0
  6
CONTINUOUS
100
AcDbLine
 10
9.655844555199999
 20
12.9845626824
 30
0.0
 11
9.665473483200001
 21
12.9839716492
 31
0.0
  0
LINE
  5
877
330
1F
100
AcDbEntity
  8
0
  6
CONTINUOUS
100
AcDbLine
 10
9.665473483200001
 20
12.9839716492
 30
0.0
 11
9.675385290899999
 21
12.9834547136
 31
0.0
  0
LINE
  5
878
330
1F
100
AcDbEntity
  8
0
  6
CONTINUOUS
100
AcDbLine
 10
9.675385290899999
 20
12.9834547136
 30
0.0
 11
9.685541631299999
 21
12.9830138754
 31
0.0
  0
LINE
  5
879
330
1F
100
AcDbEntity
  8
0
  6
CONTINUOUS
100
AcDbLine
 10
9.685541631299999
 20
12.9830138754
 30
0.0
 11
9.695903211599999
 21
12.9826508403
 31
0.0
  0
LINE
  5
87A
330
1F
100
AcDbEntity
  8
0
  6
CONTINUOUS
100
AcDbLine
 10
9.695903211599999
 20
12.9826508403
 30
0.0
 11
9.706429944799999
 21
12.9823670127
 31
0.0
  0
LINE
  5
87B
330
1F
100
AcDbEntity
  8
0
  6
CONTINUOUS
100
AcDbLine
 10
9.706429944799999
 20
12.9823670127
 30
0.0
 11
9.717081105
 21
12.9821634908
 31
0.0
  0
LINE
  5
87C
330
1F
100
AcDbEntity
  8
0
  6
CONTINUOUS
100
AcDbLine
 10
9.717081105
 20
12.9821634908
 30
0.0
 11
9.7278154849
 21
12.9820410618
 31
0.0
  0
LINE
  5
87D
330
1F
100
AcDbEntity
  8
0
  6
CONTINUOUS
100
AcDbLine
 10
9.7278154849
 20
12.9820410618
 30
0.0
 11
9.738591555399999
 21
12.9820001994
 31
0.0
  0
LINE
  5
87E
330
1F
100
AcDbEntity
  8
0
  6
CONTINUOUS
100
AcDbLine
 10
8.499959508199999
 20
17.0175037339
 30
0.0
 11
7.990369843999998
 21
17.0183485678
 31
0.0
  0
LINE
  5
87F
330
1F
100
AcDbEntity
  8
0
  6
CONTINUOUS
100
AcDbLine
 10
7.990369843999998
 20
17.0183485678
 30
0.0
 11
7.4807928286
 21
17.01931940189999
 31
0.0
  0
LINE
  5
880
330
1F
100
AcDbEntity
  8
0
  6
CONTINUOUS
100
AcDbLine
 10
7.4807928286
 20
17.01931940189999
 30
0.0
 11
6.461659953099999
 21
17.0214718078
 31
0.0
  0
LINE
  5
881
330
1F
100
AcDbEntity
  8
0
  6
CONTINUOUS
100
AcDbLine
 10
6.461659953099999
 20
17.0214718078
 30
0.0
 11
5.692247480199998
 21
17.0231981982
 31
0.0
  0
LINE
  5
884
330
1F
100
AcDbEntity
  8
0
100
AcDbLine
 10
11.0772236027
 20
17.0175037339
 30
0.0
 11
12.7362702519
 21
17.0175037339
 31
0.0
  0
LINE
  5
885
330
1F
100
AcDbEntity
  8
0
100
AcDbLine
 10
11.0772236027
 20
13.7653693593
 30
0.0
 11
12.7362702519
 21
13.7653693593
 31
0.0
  0
LINE
  5
88E
330
1F
100
AcDbEntity
  8
0
  6
CONTINUOUS
100
AcDbLine
 10
13.7849356306
 20
13.759674895
 30
0.0
 11
13.0830312428
 21
13.7612523971
 31
0.0
  0
LINE
  5
88F
330
1F
100
AcDbEntity
  8
0
  6
CONTINUOUS
100
AcDbLine
 10
13.0830312428
 20
13.7612523971
 30
0.0
 11
12.38111708939999
 21
13.7627662738
 31
0.0
  0
LINE
  5
890
330
1F
100
AcDbEntity
  8
0
  6
CONTINUOUS
100
AcDbLine
 10
12.38111708939999
 20
13.7627662738
 30
0.0
 11
11.67918472059999
 21
13.764169809
 31
0.0
  0
LINE
  5
891
330
1F
100
AcDbEntity
  8
0
  6
CONTINUOUS
100
AcDbLine
 10
11.67918472059999
 20
13.764169809
 30
0.0
 11
11.3282080867
 21
13.764804123
 31
0.0
  0
LINE
  5
892
330
1F
100
AcDbEntity
  8
0
  6
CONTINUOUS
100
AcDbLine
 10
11.3282080867
 20
13.764804123
 30
0.0
 11
10.9772236027
 21
13.7653693593
 31
0.0
  0
LINE
  5
893
330
1F
100
AcDbEntity
  8
0
  6
CONTINUOUS
100
AcDbLine
 10
14.8294610905
 20
12.95978328869999
 30
0.0
 11
14.60228107599998
 21
12.95994124579999
 31
0.0
  0
LINE
  5
894
330
1F
100
AcDbEntity
  8
0
  6
CONTINUOUS
100
AcDbLine
 10
14.60228107599998
 20
12.95994124579999
 30
0.0
 11
14.37509465079998
 21
12.959994188
 31
0.0
  0
LINE
  5
895
330
1F
100
AcDbEntity
  8
0
  6
CONTINUOUS
100
AcDbLine
 10
10.9772236027
 20
17.0175037339
 30
0.0
 11
11.4868132668
 21
17.0183485678
 31
0.0
  0
LINE
  5
896
330
1F
100
AcDbEntity
  8
0
  6
CONTINUOUS
100
AcDbLine
 10
11.4868132668
 20
17.0183485678
 30
0.0
 11
11.9963902823
 21
17.01931940189999
 31
0.0
  0
LINE
  5
897
330
1F
100
AcDbEntity
  8
0
  6
CONTINUOUS
100
AcDbLine
 10
11.9963902823
 20
17.01931940189999
 30
0.0
 11
13.0155231578
 21
17.0214718078
 31
0.0
  0
LINE
  5
898
330
1F
100
AcDbEntity
  8
0
  6
CONTINUOUS
100
AcDbLine
 10
13.0155231578
 20
17.0214718078
 30
0.0
 11
13.7849356306
 21
17.0231981982
 31
0.0
  0
LINE
  5
899
330
1F
100
AcDbEntity
  8
0
  6
CONTINUOUS
100
AcDbLine
 10
14.46474189019999
 20
15.0258582067
 30
0.0
 11
14.4625638865
 21
15.0272903011
 31
0.0
  0
LINE
  5
89A
330
1F
100
AcDbEntity
  8
0
  6
CONTINUOUS
100
AcDbLine
 10
14.4625638865
 20
15.0272903011
 30
0.0
 11
14.46039642999999
 21
15.0293920099
 31
0.0
  0
LINE
  5
89B
330
1F
100
AcDbEntity
  8
0
  6
CONTINUOUS
100
AcDbLine
 10
14.46039642999999
 20
15.0293920099
 30
0.0
 11
14.4582435065
 21
15.0321594684
 31
0.0
  0
LINE
  5
89C
330
1F
100
AcDbEntity
  8
0
  6
CONTINUOUS
100
AcDbLine
 10
14.4582435065
 20
15.0321594684
 30
0.0
 11
14.4561090749
 21
15.0355875877
 31
0.0
  0
LINE
  5
89D
330
1F
100
AcDbEntity
  8
0
  6
CONTINUOUS
100
AcDbLine
 10
14.4561090749
 20
15.0355875877
 30
0.0
 11
14.4539970601
 21
15.0396700638
 31
0.0
  0
LINE
  5
89E
330
1F
100
AcDbEntity
  8
0
  6
CONTINUOUS
100
AcDbLine
 10
14.4539970601
 20
15.0396700638
 30
0.0
 11
14.45191134589999
 21
15.0443993898
 31
0.0
  0
LINE
  5
89F
330
1F
100
AcDbEntity
  8
0
  6
CONTINUOUS
100
AcDbLine
 10
14.45191134589999
 20
15.0443993898
 30
0.0
 11
14.4498557675
 21
15.049766869
 31
0.0
  0
LINE
  5
8A0
330
1F
100
AcDbEntity
  8
0
  6
CONTINUOUS
100
AcDbLine
 10
14.4498557675
 20
15.049766869
 30
0.0
 11
14.4478341049
 21
15.0557626313
 31
0.0
  0
LINE
  5
8A1
330
1F
100
AcDbEntity
  8
0
  6
CONTINUOUS
100
AcDbLine
 10
14.4478341049
 20
15.0557626313
 30
0.0
 11
14.44585007559999
 21
15.0623756514
 31
0.0
  0
LINE
  5
8A2
330
1F
100
AcDbEntity
  8
0
  6
CONTINUOUS
100
AcDbLine
 10
14.44585007559999
 20
15.0623756514
 30
0.0
 11
14.4439073281
 21
15.0695937689
 31
0.0
  0
LINE
  5
8A3
330
1F
100
AcDbEntity
  8
0
  6
CONTINUOUS
100
AcDbLine
 10
14.4439073281
 20
15.0695937689
 30
0.0
 11
14.4420094346
 21
15.07740371069998
 31
0.0
  0
LINE
  5
8A4
330
1F
100
AcDbEntity
  8
0
  6
CONTINUOUS
100
AcDbLine
 10
14.4420094346
 20
15.07740371069998
 30
0.0
 11
14.4401598853
 21
15.0857911153
 31
0.0
  0
LINE
  5
8A5
330
1F
100
AcDbEntity
  8
0
  6
CONTINUOUS
100
AcDbLine
 10
14.4401598853
 20
15.0857911153
 30
0.0
 11
14.4383620812
 21
15.0947405594
 31
0.0
  0
LINE
  5
8A6
330
1F
100
AcDbEntity
  8
0
  6
CONTINUOUS
100
AcDbLine
 10
14.4383620812
 20
15.0947405594
 30
0.0
 11
14.43661932809999
 21
15.1042355864
 31
0.0
  0
LINE
  5
8A7
330
1F
100
AcDbEntity
  8
0
  6
CONTINUOUS
100
AcDbLine
 10
14.43661932809999
 20
15.1042355864
 30
0.0
 11
14.4349348308
 21
15.11425873609999
 31
0.0
  0
LINE
  5
8A8
330
1F
100
AcDbEntity
  8
0
  6
CONTINUOUS
100
AcDbLine
 10
14.4349348308
 20
15.11425873609999
 30
0.0
 11
14.4333116868
 21
15.1247915774
 31
0.0
  0
LINE
  5
8A9
330
1F
100
AcDbEntity
  8
0
  6
CONTINUOUS
100
AcDbLine
 10
14.4333116868
 20
15.1247915774
 30
0.0
 11
14.43175288089999
 21
15.1358147418
 31
0.0
  0
LINE
  5
8AA
330
1F
100
AcDbEntity
  8
0
  6
CONTINUOUS
100
AcDbLine
 10
14.43175288089999
 20
15.1358147418
 30
0.0
 11
14.4302612794
 21
15.1473079592
 31
0.0
  0
LINE
  5
8AB
330
1F
100
AcDbEntity
  8
0
  6
CONTINUOUS
100
AcDbLine
 10
14.4302612794
 20
15.1473079592
 30
0.0
 11
14.4288396253
 21
15.1592500953
 31
0.0
  0
LINE
  5
8AC
330
1F
100
AcDbEntity
  8
0
  6
CONTINUOUS
100
AcDbLine
 10
14.4288396253
 20
15.1592500953
 30
0.0
 11
14.4274905328
 21
15.1716191901
 31
0.0
  0
LINE
  5
8AD
330
1F
100
AcDbEntity
  8
0
  6
CONTINUOUS
100
AcDbLine
 10
14.4274905328
 20
15.1716191901
 30
0.0
 11
14.4262164826
 21
15.1843924985
 31
0.0
  0
LINE
  5
8AE
330
1F
100
AcDbEntity
  8
0
  6
CONTINUOUS
100
AcDbLine
 10
14.4262164826
 20
15.1843924985
 30
0.0
 11
14.4250198175
 21
15.1975465322
 31
0.0
  0
LINE
  5
8AF
330
1F
100
AcDbEntity
  8
0
  6
CONTINUOUS
100
AcDbLine
 10
14.4250198175
 20
15.1975465322
 30
0.0
 11
14.4239027382
 21
15.2110571028
 31
0.0
  0
LINE
  5
8B0
330
1F
100
AcDbEntity
  8
0
  6
CONTINUOUS
100
AcDbLine
 10
14.4239027382
 20
15.2110571028
 30
0.0
 11
14.42286729859999
 21
15.22489936619999
 31
0.0
  0
LINE
  5
8B1
330
1F
100
AcDbEntity
  8
0
  6
CONTINUOUS
100
AcDbLine
 10
14.42286729859999
 20
15.22489936619999
 30
0.0
 11
14.4219154028
 21
15.2390478683
 31
0.0
  0
LINE
  5
8B2
330
1F
100
AcDbEntity
  8
0
  6
CONTINUOUS
100
AcDbLine
 10
14.4219154028
 20
15.2390478683
 30
0.0
 11
14.4210488013
 21
15.2534765921
 31
0.0
  0
LINE
  5
8B3
330
1F
100
AcDbEntity
  8
0
  6
CONTINUOUS
100
AcDbLine
 10
14.4210488013
 20
15.2534765921
 30
0.0
 11
14.42026908759999
 21
15.26815900519999
 31
0.0
  0
LINE
  5
8B4
330
1F
100
AcDbEntity
  8
0
  6
CONTINUOUS
100
AcDbLine
 10
14.42026908759999
 20
15.26815900519999
 30
0.0
 11
14.4195776955
 21
15.2830681085
 31
0.0
  0
LINE
  5
8B5
330
1F
100
AcDbEntity
  8
0
  6
CONTINUOUS
100
AcDbLine
 10
14.4195776955
 20
15.2830681085
 30
0.0
 11
14.4189758964
 21
15.2981764864
 31
0.0
  0
LINE
  5
8B6
330
1F
100
AcDbEntity
  8
0
  6
CONTINUOUS
100
AcDbLine
 10
14.4189758964
 20
15.2981764864
 30
0.0
 11
14.4184647968
 21
15.3134563566
 31
0.0
  0
LINE
  5
8B7
330
1F
100
AcDbEntity
  8
0
  6
CONTINUOUS
100
AcDbLine
 10
14.4184647968
 20
15.3134563566
 30
0.0
 11
14.4180453367
 21
15.3288796215
 31
0.0
  0
LINE
  5
8B8
330
1F
100
AcDbEntity
  8
0
  6
CONTINUOUS
100
AcDbLine
 10
14.4180453367
 20
15.3288796215
 30
0.0
 11
14.4177182873
 21
15.34441791999999
 31
0.0
  0
LINE
  5
8B9
330
1F
100
AcDbEntity
  8
0
  6
CONTINUOUS
100
AcDbLine
 10
14.4177182873
 20
15.34441791999999
 30
0.0
 11
14.4174842501
 21
15.3600426792
 31
0.0
  0
LINE
  5
8BA
330
1F
100
AcDbEntity
  8
0
  6
CONTINUOUS
100
AcDbLine
 10
14.4174842501
 20
15.3600426792
 30
0.0
 11
14.4173436554
 21
15.3757251674
 31
0.0
  0
LINE
  5
8BB
330
1F
100
AcDbEntity
  8
0
  6
CONTINUOUS
100
AcDbLine
 10
14.4173436554
 20
15.3757251674
 30
0.0
 11
14.4172967618
 21
15.3914365466
 31
0.0
  0
LINE
  5
8BC
330
1F
100
AcDbEntity
  8
0
  6
CONTINUOUS
100
AcDbLine
 10
14.4172967618
 20
15.3914365466
 30
0.0
 11
14.4173436554
 21
15.4071479258
 31
0.0
  0
LINE
  5
8BD
330
1F
100
AcDbEntity
  8
0
  6
CONTINUOUS
100
AcDbLine
 10
14.4173436554
 20
15.4071479258
 30
0.0
 11
14.4174842501
 21
15.422830414
 31
0.0
  0
LINE
  5
8BE
330
1F
100
AcDbEntity
  8
0
  6
CONTINUOUS
100
AcDbLine
 10
14.4174842501
 20
15.422830414
 30
0.0
 11
14.4177182873
 21
15.4384551732
 31
0.0
  0
LINE
  5
8BF
330
1F
100
AcDbEntity
  8
0
  6
CONTINUOUS
100
AcDbLine
 10
14.4177182873
 20
15.4384551732
 30
0.0
 11
14.4180453367
 21
15.4539934716
 31
0.0
  0
LINE
  5
8C0
330
1F
100
AcDbEntity
  8
0
  6
CONTINUOUS
100
AcDbLine
 10
14.4180453367
 20
15.4539934716
 30
0.0
 11
14.4184647968
 21
15.4694167366
 31
0.0
  0
LINE
  5
8C1
330
1F
100
AcDbEntity
  8
0
  6
CONTINUOUS
100
AcDbLine
 10
14.4184647968
 20
15.4694167366
 30
0.0
 11
14.4189758964
 21
15.4846966068
 31
0.0
  0
LINE
  5
8C2
330
1F
100
AcDbEntity
  8
0
  6
CONTINUOUS
100
AcDbLine
 10
14.4189758964
 20
15.4846966068
 30
0.0
 11
14.4195776955
 21
15.4998049847
 31
0.0
  0
LINE
  5
8C3
330
1F
100
AcDbEntity
  8
0
  6
CONTINUOUS
100
AcDbLine
 10
14.4195776955
 20
15.4998049847
 30
0.0
 11
14.42026908759999
 21
15.514714088
 31
0.0
  0
LINE
  5
8C4
330
1F
100
AcDbEntity
  8
0
  6
CONTINUOUS
100
AcDbLine
 10
14.42026908759999
 20
15.514714088
 30
0.0
 11
14.4210488013
 21
15.52939650099999
 31
0.0
  0
LINE
  5
8C5
330
1F
100
AcDbEntity
  8
0
  6
CONTINUOUS
100
AcDbLine
 10
14.4210488013
 20
15.52939650099999
 30
0.0
 11
14.4219154028
 21
15.5438252248
 31
0.0
  0
LINE
  5
8C6
330
1F
100
AcDbEntity
  8
0
  6
CONTINUOUS
100
AcDbLine
 10
14.4219154028
 20
15.5438252248
 30
0.0
 11
14.42286729859999
 21
15.557973727
 31
0.0
  0
LINE
  5
8C7
330
1F
100
AcDbEntity
  8
0
  6
CONTINUOUS
100
AcDbLine
 10
14.42286729859999
 20
15.557973727
 30
0.0
 11
14.4239027382
 21
15.57181599039999
 31
0.0
  0
LINE
  5
8C8
330
1F
100
AcDbEntity
  8
0
  6
CONTINUOUS
100
AcDbLine
 10
14.4239027382
 20
15.57181599039999
 30
0.0
 11
14.4250198175
 21
15.58532656089998
 31
0.0
  0
LINE
  5
8C9
330
1F
100
AcDbEntity
  8
0
  6
CONTINUOUS
100
AcDbLine
 10
14.4250198175
 20
15.58532656089998
 30
0.0
 11
14.4262164826
 21
15.5984805947
 31
0.0
  0
LINE
  5
8CA
330
1F
100
AcDbEntity
  8
0
  6
CONTINUOUS
100
AcDbLine
 10
14.4262164826
 20
15.5984805947
 30
0.0
 11
14.4274905328
 21
15.61125390309999
 31
0.0
  0
LINE
  5
8CB
330
1F
100
AcDbEntity
  8
0
  6
CONTINUOUS
100
AcDbLine
 10
14.4274905328
 20
15.61125390309999
 30
0.0
 11
14.4288396253
 21
15.6236229979
 31
0.0
  0
LINE
  5
8CC
330
1F
100
AcDbEntity
  8
0
  6
CONTINUOUS
100
AcDbLine
 10
14.4288396253
 20
15.6236229979
 30
0.0
 11
14.4302612794
 21
15.6355651339
 31
0.0
  0
LINE
  5
8CD
330
1F
100
AcDbEntity
  8
0
  6
CONTINUOUS
100
AcDbLine
 10
14.4302612794
 20
15.6355651339
 30
0.0
 11
14.43175288089999
 21
15.6470583514
 31
0.0
  0
LINE
  5
8CE
330
1F
100
AcDbEntity
  8
0
  6
CONTINUOUS
100
AcDbLine
 10
14.43175288089999
 20
15.6470583514
 30
0.0
 11
14.4333116868
 21
15.65808151579999
 31
0.0
  0
LINE
  5
8CF
330
1F
100
AcDbEntity
  8
0
  6
CONTINUOUS
100
AcDbLine
 10
14.4333116868
 20
15.65808151579999
 30
0.0
 11
14.4349348308
 21
15.6686143571
 31
0.0
  0
LINE
  5
8D0
330
1F
100
AcDbEntity
  8
0
  6
CONTINUOUS
100
AcDbLine
 10
14.4349348308
 20
15.6686143571
 30
0.0
 11
14.43661932809999
 21
15.6786375068
 31
0.0
  0
LINE
  5
8D1
330
1F
100
AcDbEntity
  8
0
  6
CONTINUOUS
100
AcDbLine
 10
14.43661932809999
 20
15.6786375068
 30
0.0
 11
14.4383620812
 21
15.6881325337
 31
0.0
  0
LINE
  5
8D2
330
1F
100
AcDbEntity
  8
0
  6
CONTINUOUS
100
AcDbLine
 10
14.4383620812
 20
15.6881325337
 30
0.0
 11
14.4401598853
 21
15.69708197789998
 31
0.0
  0
LINE
  5
8D3
330
1F
100
AcDbEntity
  8
0
  6
CONTINUOUS
100
AcDbLine
 10
14.4401598853
 20
15.69708197789998
 30
0.0
 11
14.4420094346
 21
15.7054693825
 31
0.0
  0
LINE
  5
8D4
330
1F
100
AcDbEntity
  8
0
  6
CONTINUOUS
100
AcDbLine
 10
14.4420094346
 20
15.7054693825
 30
0.0
 11
14.4439073281
 21
15.7132793242
 31
0.0
  0
LINE
  5
8D5
330
1F
100
AcDbEntity
  8
0
  6
CONTINUOUS
100
AcDbLine
 10
14.4439073281
 20
15.7132793242
 30
0.0
 11
14.44585007559999
 21
15.7204974417
 31
0.0
  0
LINE
  5
8D6
330
1F
100
AcDbEntity
  8
0
  6
CONTINUOUS
100
AcDbLine
 10
14.44585007559999
 20
15.7204974417
 30
0.0
 11
14.4478341049
 21
15.7271104619
 31
0.0
  0
LINE
  5
8D7
330
1F
100
AcDbEntity
  8
0
  6
CONTINUOUS
100
AcDbLine
 10
14.4478341049
 20
15.7271104619
 30
0.0
 11
14.4498557675
 21
15.7331062242
 31
0.0
  0
LINE
  5
8D8
330
1F
100
AcDbEntity
  8
0
  6
CONTINUOUS
100
AcDbLine
 10
14.4498557675
 20
15.7331062242
 30
0.0
 11
14.45191134589999
 21
15.7384737034
 31
0.0
  0
LINE
  5
8D9
330
1F
100
AcDbEntity
  8
0
  6
CONTINUOUS
100
AcDbLine
 10
14.45191134589999
 20
15.7384737034
 30
0.0
 11
14.4539970601
 21
15.7432030293
 31
0.0
  0
LINE
  5
8DA
330
1F
100
AcDbEntity
  8
0
  6
CONTINUOUS
100
AcDbLine
 10
14.4539970601
 20
15.7432030293
 30
0.0
 11
14.4561090749
 21
15.74728550549999
 31
0.0
  0
LINE
  5
8DB
330
1F
100
AcDbEntity
  8
0
  6
CONTINUOUS
100
AcDbLine
 10
14.4561090749
 20
15.74728550549999
 30
0.0
 11
14.4582435065
 21
15.7507136247
 31
0.0
  0
LINE
  5
8DC
330
1F
100
AcDbEntity
  8
0
  6
CONTINUOUS
100
AcDbLine
 10
14.4582435065
 20
15.7507136247
 30
0.0
 11
14.46039642999999
 21
15.7534810833
 31
0.0
  0
LINE
  5
8DD
330
1F
100
AcDbEntity
  8
0
  6
CONTINUOUS
100
AcDbLine
 10
14.46039642999999
 20
15.7534810833
 30
0.0
 11
14.4625638865
 21
15.7555827921
 31
0.0
  0
LINE
  5
8DE
330
1F
100
AcDbEntity
  8
0
  6
CONTINUOUS
100
AcDbLine
 10
14.4625638865
 20
15.7555827921
 30
0.0
 11
14.46474189019999
 21
15.7570148864
 31
0.0
  0
LINE
  5
8DF
330
1F
100
AcDbEntity
  8
0
  6
CONTINUOUS
100
AcDbLine
 10
14.3420450799
 20
15.0234205301
 30
0.0
 11
14.3352368674
 21
15.0253691457
 31
0.0
  0
LINE
  5
8E0
330
1F
100
AcDbEntity
  8
0
  6
CONTINUOUS
100
AcDbLine
 10
14.3352368674
 20
15.0253691457
 30
0.0
 11
14.3285502779
 21
15.028482792
 31
0.0
  0
LINE
  5
8E1
330
1F
100
AcDbEntity
  8
0
  6
CONTINUOUS
100
AcDbLine
 10
14.3285502779
 20
15.028482792
 30
0.0
 11
14.3220141321
 21
15.0327543018
 31
0.0
  0
LINE
  5
8E2
330
1F
100
AcDbEntity
  8
0
  6
CONTINUOUS
100
AcDbLine
 10
14.3220141321
 20
15.0327543018
 30
0.0
 11
14.3154632548
 21
15.0383569465
 31
0.0
  0
LINE
  5
8E3
330
1F
100
AcDbEntity
  8
0
  6
CONTINUOUS
100
AcDbLine
 10
14.3154632548
 20
15.0383569465
 30
0.0
 11
14.3090987924
 21
15.04517633359998
 31
0.0
  0
LINE
  5
8E4
330
1F
100
AcDbEntity
  8
0
  6
CONTINUOUS
100
AcDbLine
 10
14.3090987924
 20
15.04517633359998
 30
0.0
 11
14.3029487382
 21
15.0531873482
 31
0.0
  0
LINE
  5
8E5
330
1F
100
AcDbEntity
  8
0
  6
CONTINUOUS
100
AcDbLine
 10
14.3029487382
 20
15.0531873482
 30
0.0
 11
14.29718476779999
 21
15.0621151988
 31
0.0
  0
LINE
  5
8E6
330
1F
100
AcDbEntity
  8
0
  6
CONTINUOUS
100
AcDbLine
 10
14.29718476779999
 20
15.0621151988
 30
0.0
 11
14.2916440205
 21
15.0721454025
 31
0.0
  0
LINE
  5
8E7
330
1F
100
AcDbEntity
  8
0
  6
CONTINUOUS
100
AcDbLine
 10
14.2916440205
 20
15.0721454025
 30
0.0
 11
14.2863484634
 21
15.08323676619998
 31
0.0
  0
LINE
  5
8E8
330
1F
100
AcDbEntity
  8
0
  6
CONTINUOUS
100
AcDbLine
 10
14.2863484634
 20
15.08323676619998
 30
0.0
 11
14.28115522359999
 21
15.0957647263
 31
0.0
  0
LINE
  5
8E9
330
1F
100
AcDbEntity
  8
0
  6
CONTINUOUS
100
AcDbLine
 10
14.28115522359999
 20
15.0957647263
 30
0.0
 11
14.27623808369999
 21
15.10937263009999
 31
0.0
  0
LINE
  5
8EA
330
1F
100
AcDbEntity
  8
0
  6
CONTINUOUS
100
AcDbLine
 10
14.27623808369999
 20
15.10937263009999
 30
0.0
 11
14.2716163727
 21
15.1239944625
 31
0.0
  0
LINE
  5
8EB
330
1F
100
AcDbEntity
  8
0
  6
CONTINUOUS
100
AcDbLine
 10
14.2716163727
 20
15.1239944625
 30
0.0
 11
14.2675474542
 21
15.1386362113
 31
0.0
  0
LINE
  5
8EC
330
1F
100
AcDbEntity
  8
0
  6
CONTINUOUS
100
AcDbLine
 10
14.2675474542
 20
15.1386362113
 30
0.0
 11
14.2637478329
 21
15.15411285869999
 31
0.0
  0
LINE
  5
8ED
330
1F
100
AcDbEntity
  8
0
  6
CONTINUOUS
100
AcDbLine
 10
14.2637478329
 20
15.15411285869999
 30
0.0
 11
14.260229546
 21
15.1703532124
 31
0.0
  0
LINE
  5
8EE
330
1F
100
AcDbEntity
  8
0
  6
CONTINUOUS
100
AcDbLine
 10
14.260229546
 20
15.1703532124
 30
0.0
 11
14.25690089249999
 21
15.1878569898
 31
0.0
  0
LINE
  5
8EF
330
1F
100
AcDbEntity
  8
0
  6
CONTINUOUS
100
AcDbLine
 10
14.25690089249999
 20
15.1878569898
 30
0.0
 11
14.253875329
 21
15.2060903134
 31
0.0
  0
LINE
  5
8F0
330
1F
100
AcDbEntity
  8
0
  6
CONTINUOUS
100
AcDbLine
 10
14.253875329
 20
15.2060903134
 30
0.0
 11
14.25116199
 21
15.2249599711
 31
0.0
  0
LINE
  5
8F1
330
1F
100
AcDbEntity
  8
0
  6
CONTINUOUS
100
AcDbLine
 10
14.25116199
 20
15.2249599711
 30
0.0
 11
14.2478595718
 21
15.2526503438
 31
0.0
  0
LINE
  5
8F2
330
1F
100
AcDbEntity
  8
0
  6
CONTINUOUS
100
AcDbLine
 10
14.2478595718
 20
15.2526503438
 30
0.0
 11
14.2451895133
 21
15.2813244449
 31
0.0
  0
LINE
  5
8F3
330
1F
100
AcDbEntity
  8
0
  6
CONTINUOUS
100
AcDbLine
 10
14.2451895133
 20
15.2813244449
 30
0.0
 11
14.243726445
 21
15.3014744502
 31
0.0
  0
LINE
  5
8F4
330
1F
100
AcDbEntity
  8
0
  6
CONTINUOUS
100
AcDbLine
 10
14.243726445
 20
15.3014744502
 30
0.0
 11
14.24256377789999
 21
15.3219436896
 31
0.0
  0
LINE
  5
8F5
330
1F
100
AcDbEntity
  8
0
  6
CONTINUOUS
100
AcDbLine
 10
14.24256377789999
 20
15.3219436896
 30
0.0
 11
14.24170421839999
 21
15.3426293737
 31
0.0
  0
LINE
  5
8F6
330
1F
100
AcDbEntity
  8
0
  6
CONTINUOUS
100
AcDbLine
 10
14.24170421839999
 20
15.3426293737
 30
0.0
 11
14.2410004981
 21
15.3726193423
 31
0.0
  0
LINE
  5
8F7
330
1F
100
AcDbEntity
  8
0
  6
CONTINUOUS
100
AcDbLine
 10
14.2410004981
 20
15.3726193423
 30
0.0
 11
14.2409219659
 21
15.40273997049999
 31
0.0
  0
LINE
  5
8F8
330
1F
100
AcDbEntity
  8
0
  6
CONTINUOUS
100
AcDbLine
 10
14.2409219659
 20
15.40273997049999
 30
0.0
 11
14.2412307851
 21
15.4233698402
 31
0.0
  0
LINE
  5
8F9
330
1F
100
AcDbEntity
  8
0
  6
CONTINUOUS
100
AcDbLine
 10
14.2412307851
 20
15.4233698402
 30
0.0
 11
14.24183434499999
 21
15.4439120681
 31
0.0
  0
LINE
  5
8FA
330
1F
100
AcDbEntity
  8
0
  6
CONTINUOUS
100
AcDbLine
 10
14.24183434499999
 20
15.4439120681
 30
0.0
 11
14.24273132859998
 21
15.4642660308
 31
0.0
  0
LINE
  5
8FB
330
1F
100
AcDbEntity
  8
0
  6
CONTINUOUS
100
AcDbLine
 10
14.24273132859998
 20
15.4642660308
 30
0.0
 11
14.24455836269999
 21
15.49339343549998
 31
0.0
  0
LINE
  5
8FC
330
1F
100
AcDbEntity
  8
0
  6
CONTINUOUS
100
AcDbLine
 10
14.24455836269999
 20
15.49339343549998
 30
0.0
 11
14.2470017492
 21
15.5218201647
 31
0.0
  0
LINE
  5
8FD
330
1F
100
AcDbEntity
  8
0
  6
CONTINUOUS
100
AcDbLine
 10
14.2470017492
 20
15.5218201647
 30
0.0
 11
14.2501564252
 21
15.5501278313
 31
0.0
  0
LINE
  5
8FE
330
1F
100
AcDbEntity
  8
0
  6
CONTINUOUS
100
AcDbLine
 10
14.2501564252
 20
15.5501278313
 30
0.0
 11
14.2539529678
 21
15.5772884873
 31
0.0
  0
LINE
  5
8FF
330
1F
100
AcDbEntity
  8
0
  6
CONTINUOUS
100
AcDbLine
 10
14.2539529678
 20
15.5772884873
 30
0.0
 11
14.2582740011
 21
15.60252091709999
 31
0.0
  0
LINE
  5
900
330
1F
100
AcDbEntity
  8
0
  6
CONTINUOUS
100
AcDbLine
 10
14.2582740011
 20
15.60252091709999
 30
0.0
 11
14.26318789589998
 21
15.6263122393
 31
0.0
  0
LINE
  5
901
330
1F
100
AcDbEntity
  8
0
  6
CONTINUOUS
100
AcDbLine
 10
14.26318789589998
 20
15.6263122393
 30
0.0
 11
14.2688456398
 21
15.64910606609998
 31
0.0
  0
LINE
  5
902
330
1F
100
AcDbEntity
  8
0
  6
CONTINUOUS
100
AcDbLine
 10
14.2688456398
 20
15.64910606609998
 30
0.0
 11
14.2750954941
 21
15.6700664517
 31
0.0
  0
LINE
  5
903
330
1F
100
AcDbEntity
  8
0
  6
CONTINUOUS
100
AcDbLine
 10
14.2750954941
 20
15.6700664517
 30
0.0
 11
14.28182722759999
 21
15.6888300464
 31
0.0
  0
LINE
  5
904
330
1F
100
AcDbEntity
  8
0
  6
CONTINUOUS
100
AcDbLine
 10
14.28182722759999
 20
15.6888300464
 30
0.0
 11
14.28908569289998
 21
15.7055672455
 31
0.0
  0
LINE
  5
905
330
1F
100
AcDbEntity
  8
0
  6
CONTINUOUS
100
AcDbLine
 10
14.28908569289998
 20
15.7055672455
 30
0.0
 11
14.2970607679
 21
15.7205493349
 31
0.0
  0
LINE
  5
906
330
1F
100
AcDbEntity
  8
0
  6
CONTINUOUS
100
AcDbLine
 10
14.2970607679
 20
15.7205493349
 30
0.0
 11
14.30551872079998
 21
15.7332143081
 31
0.0
  0
LINE
  5
907
330
1F
100
AcDbEntity
  8
0
  6
CONTINUOUS
100
AcDbLine
 10
14.30551872079998
 20
15.7332143081
 30
0.0
 11
14.314038567
 21
15.7431126085
 31
0.0
  0
LINE
  5
908
330
1F
100
AcDbEntity
  8
0
  6
CONTINUOUS
100
AcDbLine
 10
14.314038567
 20
15.7431126085
 30
0.0
 11
14.32291849619999
 21
15.75078590549999
 31
0.0
  0
LINE
  5
909
330
1F
100
AcDbEntity
  8
0
  6
CONTINUOUS
100
AcDbLine
 10
14.32291849619999
 20
15.75078590549999
 30
0.0
 11
14.33234398819998
 21
15.75630734209999
 31
0.0
  0
LINE
  5
90A
330
1F
100
AcDbEntity
  8
0
  6
CONTINUOUS
100
AcDbLine
 10
14.33234398819998
 20
15.75630734209999
 30
0.0
 11
14.3420450799
 21
15.75945256309998
 31
0.0
  0
LINE
  5
90B
330
1F
100
AcDbEntity
  8
0
  6
CONTINUOUS
100
AcDbLine
 10
14.63977417029999
 20
14.1334571642
 30
0.0
 11
14.6320756767
 21
14.1374247629
 31
0.0
  0
LINE
  5
90C
330
1F
100
AcDbEntity
  8
0
  6
CONTINUOUS
100
AcDbLine
 10
14.6320756767
 20
14.1374247629
 30
0.0
 11
14.6248411368
 21
14.1430798244
 31
0.0
  0
LINE
  5
90D
330
1F
100
AcDbEntity
  8
0
  6
CONTINUOUS
100
AcDbLine
 10
14.6248411368
 20
14.1430798244
 30
0.0
 11
14.6181145136
 21
14.150386261
 31
0.0
  0
LINE
  5
90E
330
1F
100
AcDbEntity
  8
0
  6
CONTINUOUS
100
AcDbLine
 10
14.6181145136
 20
14.150386261
 30
0.0
 11
14.61193977039999
 21
14.15930798519999
 31
0.0
  0
LINE
  5
90F
330
1F
100
AcDbEntity
  8
0
  6
CONTINUOUS
100
AcDbLine
 10
14.61193977039999
 20
14.15930798519999
 30
0.0
 11
14.6063608701
 21
14.1698089094
 31
0.0
  0
LINE
  5
910
330
1F
100
AcDbEntity
  8
0
  6
CONTINUOUS
100
AcDbLine
 10
14.6063608701
 20
14.1698089094
 30
0.0
 11
14.60138335619999
 21
14.1819255553
 31
0.0
  0
LINE
  5
911
330
1F
100
AcDbEntity
  8
0
  6
CONTINUOUS
100
AcDbLine
 10
14.60138335619999
 20
14.1819255553
 30
0.0
 11
14.5970090642
 21
14.19562835249999
 31
0.0
  0
LINE
  5
912
330
1F
100
AcDbEntity
  8
0
  6
CONTINUOUS
100
AcDbLine
 10
14.5970090642
 20
14.19562835249999
 30
0.0
 11
14.59325850469999
 21
14.21082039079998
 31
0.0
  0
LINE
  5
913
330
1F
100
AcDbEntity
  8
0
  6
CONTINUOUS
100
AcDbLine
 10
14.59325850469999
 20
14.21082039079998
 30
0.0
 11
14.5901521879
 21
14.2274047602
 31
0.0
  0
LINE
  5
914
330
1F
100
AcDbEntity
  8
0
  6
CONTINUOUS
100
AcDbLine
 10
14.5901521879
 20
14.2274047602
 30
0.0
 11
14.5877106243
 21
14.24528455049999
 31
0.0
  0
LINE
  5
915
330
1F
100
AcDbEntity
  8
0
  6
CONTINUOUS
100
AcDbLine
 10
14.5877106243
 20
14.24528455049999
 30
0.0
 11
14.5859813494
 21
14.2638515303
 31
0.0
  0
LINE
  5
916
330
1F
100
AcDbEntity
  8
0
  6
CONTINUOUS
100
AcDbLine
 10
14.5859813494
 20
14.2638515303
 30
0.0
 11
14.5848649219
 21
14.2836091009
 31
0.0
  0
LINE
  5
917
330
1F
100
AcDbEntity
  8
0
  6
CONTINUOUS
100
AcDbLine
 10
14.5848649219
 20
14.2836091009
 30
0.0
 11
14.5843561753
 21
14.30441417099999
 31
0.0
  0
LINE
  5
918
330
1F
100
AcDbEntity
  8
0
  6
CONTINUOUS
100
AcDbLine
 10
14.5843561753
 20
14.30441417099999
 30
0.0
 11
14.58444994319999
 21
14.3261236495
 31
0.0
  0
LINE
  5
919
330
1F
100
AcDbEntity
  8
0
  6
CONTINUOUS
100
AcDbLine
 10
14.58444994319999
 20
14.3261236495
 30
0.0
 11
14.5851410591
 21
14.34859444499999
 31
0.0
  0
LINE
  5
91A
330
1F
100
AcDbEntity
  8
0
  6
CONTINUOUS
100
AcDbLine
 10
14.5851410591
 20
14.34859444499999
 30
0.0
 11
14.586378975
 21
14.3711101898
 31
0.0
  0
LINE
  5
91B
330
1F
100
AcDbEntity
  8
0
  6
CONTINUOUS
100
AcDbLine
 10
14.586378975
 20
14.3711101898
 30
0.0
 11
14.5881607437
 21
14.3942944275
 31
0.0
  0
LINE
  5
91C
330
1F
100
AcDbEntity
  8
0
  6
CONTINUOUS
100
AcDbLine
 10
14.5881607437
 20
14.3942944275
 30
0.0
 11
14.5904646247
 21
14.4179835643
 31
0.0
  0
LINE
  5
91D
330
1F
100
AcDbEntity
  8
0
  6
CONTINUOUS
100
AcDbLine
 10
14.5904646247
 20
14.4179835643
 30
0.0
 11
14.5932688778
 21
14.4420140063
 31
0.0
  0
LINE
  5
91E
330
1F
100
AcDbEntity
  8
0
  6
CONTINUOUS
100
AcDbLine
 10
14.5932688778
 20
14.4420140063
 30
0.0
 11
14.5965517629
 21
14.4662221595
 31
0.0
  0
LINE
  5
91F
330
1F
100
AcDbEntity
  8
0
  6
CONTINUOUS
100
AcDbLine
 10
14.5965517629
 20
14.4662221595
 30
0.0
 11
14.601241135
 21
14.4962111166
 31
0.0
  0
LINE
  5
920
330
1F
100
AcDbEntity
  8
0
  6
CONTINUOUS
100
AcDbLine
 10
14.601241135
 20
14.4962111166
 30
0.0
 11
14.6066209759
 21
14.52631499119998
 31
0.0
  0
LINE
  5
921
330
1F
100
AcDbEntity
  8
0
  6
CONTINUOUS
100
AcDbLine
 10
14.6066209759
 20
14.52631499119998
 30
0.0
 11
14.612631847
 21
14.5562132978
 31
0.0
  0
LINE
  5
922
330
1F
100
AcDbEntity
  8
0
  6
CONTINUOUS
100
AcDbLine
 10
14.612631847
 20
14.5562132978
 30
0.0
 11
14.6192143096
 21
14.58558555059999
 31
0.0
  0
LINE
  5
923
330
1F
100
AcDbEntity
  8
0
  6
CONTINUOUS
100
AcDbLine
 10
14.6192143096
 20
14.58558555059999
 30
0.0
 11
14.6263239561
 21
14.6141970754
 31
0.0
  0
LINE
  5
924
330
1F
100
AcDbEntity
  8
0
  6
CONTINUOUS
100
AcDbLine
 10
14.6263239561
 20
14.6141970754
 30
0.0
 11
14.6339667269
 21
14.6420777016
 31
0.0
  0
LINE
  5
925
330
1F
100
AcDbEntity
  8
0
  6
CONTINUOUS
100
AcDbLine
 10
14.6339667269
 20
14.6420777016
 30
0.0
 11
14.6420731374
 21
14.6689413273
 31
0.0
  0
LINE
  5
926
330
1F
100
AcDbEntity
  8
0
  6
CONTINUOUS
100
AcDbLine
 10
14.6420731374
 20
14.6689413273
 30
0.0
 11
14.6505737028
 21
14.6945018506
 31
0.0
  0
LINE
  5
927
330
1F
100
AcDbEntity
  8
0
  6
CONTINUOUS
100
AcDbLine
 10
14.6505737028
 20
14.6945018506
 30
0.0
 11
14.6595078633
 21
14.71878198769999
 31
0.0
  0
LINE
  5
928
330
1F
100
AcDbEntity
  8
0
  6
CONTINUOUS
100
AcDbLine
 10
14.6595078633
 20
14.71878198769999
 30
0.0
 11
14.66881258869999
 21
14.7415736774
 31
0.0
  0
LINE
  5
929
330
1F
100
AcDbEntity
  8
0
  6
CONTINUOUS
100
AcDbLine
 10
14.66881258869999
 20
14.7415736774
 30
0.0
 11
14.6784097031
 21
14.76265946859999
 31
0.0
  0
LINE
  5
92A
330
1F
100
AcDbEntity
  8
0
  6
CONTINUOUS
100
AcDbLine
 10
14.6784097031
 20
14.76265946859999
 30
0.0
 11
14.68822103069999
 21
14.7818219104
 31
0.0
  0
LINE
  5
92B
330
1F
100
AcDbEntity
  8
0
  6
CONTINUOUS
100
AcDbLine
 10
14.68822103069999
 20
14.7818219104
 30
0.0
 11
14.6984058054
 21
14.7992546082
 31
0.0
  0
LINE
  5
92C
330
1F
100
AcDbEntity
  8
0
  6
CONTINUOUS
100
AcDbLine
 10
14.6984058054
 20
14.7992546082
 30
0.0
 11
14.7087803575
 21
14.8145952655
 31
0.0
  0
LINE
  5
92D
330
1F
100
AcDbEntity
  8
0
  6
CONTINUOUS
100
AcDbLine
 10
14.7087803575
 20
14.8145952655
 30
0.0
 11
14.7192576154
 21
14.82771886
 31
0.0
  0
LINE
  5
92E
330
1F
100
AcDbEntity
  8
0
  6
CONTINUOUS
100
AcDbLine
 10
14.7192576154
 20
14.82771886
 30
0.0
 11
14.7297505074
 21
14.838500369
 31
0.0
  0
LINE
  5
92F
330
1F
100
AcDbEntity
  8
0
  6
CONTINUOUS
100
AcDbLine
 10
14.7297505074
 20
14.838500369
 30
0.0
 11
14.7400599792
 21
14.8467737118
 31
0.0
  0
LINE
  5
930
330
1F
100
AcDbEntity
  8
0
  6
CONTINUOUS
100
AcDbLine
 10
14.7400599792
 20
14.8467737118
 30
0.0
 11
14.7503447422
 21
14.852764115
 31
0.0
  0
LINE
  5
931
330
1F
100
AcDbEntity
  8
0
  6
CONTINUOUS
100
AcDbLine
 10
14.7503447422
 20
14.852764115
 30
0.0
 11
14.76052105209999
 21
14.8564461811
 31
0.0
  0
LINE
  5
932
330
1F
100
AcDbEntity
  8
0
  6
CONTINUOUS
100
AcDbLine
 10
14.76052105209999
 20
14.8564461811
 30
0.0
 11
14.7705051647
 21
14.85779451229999
 31
0.0
  0
LINE
  5
933
330
1F
100
AcDbEntity
  8
0
  6
CONTINUOUS
100
AcDbLine
 10
14.7705051647
 20
15.9250785809
 30
0.0
 11
14.7619058794
 21
15.9261055571
 31
0.0
  0
LINE
  5
934
330
1F
100
AcDbEntity
  8
0
  6
CONTINUOUS
100
AcDbLine
 10
14.7619058794
 20
15.9261055571
 30
0.0
 11
14.75315133589998
 21
15.92887577659999
 31
0.0
  0
LINE
  5
935
330
1F
100
AcDbEntity
  8
0
  6
CONTINUOUS
100
AcDbLine
 10
14.75315133589998
 20
15.92887577659999
 30
0.0
 11
14.7442953305
 21
15.9333707759
 31
0.0
  0
LINE
  5
936
330
1F
100
AcDbEntity
  8
0
  6
CONTINUOUS
100
AcDbLine
 10
14.7442953305
 20
15.9333707759
 30
0.0
 11
14.7353916594
 21
15.9395720913
 31
0.0
  0
LINE
  5
937
330
1F
100
AcDbEntity
  8
0
  6
CONTINUOUS
100
AcDbLine
 10
14.7353916594
 20
15.9395720913
 30
0.0
 11
14.7264941188
 21
15.947461259
 31
0.0
  0
LINE
  5
938
330
1F
100
AcDbEntity
  8
0
  6
CONTINUOUS
100
AcDbLine
 10
14.7264941188
 20
15.947461259
 30
0.0
 11
14.717595139
 21
15.9570744062
 31
0.0
  0
LINE
  5
939
330
1F
100
AcDbEntity
  8
0
  6
CONTINUOUS
100
AcDbLine
 10
14.717595139
 20
15.9570744062
 30
0.0
 11
14.7087067645
 21
15.9683844666
 31
0.0
  0
LINE
  5
93A
330
1F
100
AcDbEntity
  8
0
  6
CONTINUOUS
100
AcDbLine
 10
14.7087067645
 20
15.9683844666
 30
0.0
 11
14.699882086
 21
15.9813078056
 31
0.0
  0
LINE
  5
93B
330
1F
100
AcDbEntity
  8
0
  6
CONTINUOUS
100
AcDbLine
 10
14.699882086
 20
15.9813078056
 30
0.0
 11
14.6911741939
 21
15.9957607889
 31
0.0
  0
LINE
  5
93C
330
1F
100
AcDbEntity
  8
0
  6
CONTINUOUS
100
AcDbLine
 10
14.6911741939
 20
15.9957607889
 30
0.0
 11
14.682636179
 21
16.0116597822
 31
0.0
  0
LINE
  5
93D
330
1F
100
AcDbEntity
  8
0
  6
CONTINUOUS
100
AcDbLine
 10
14.682636179
 20
16.0116597822
 30
0.0
 11
14.6745250048
 21
16.02845196479999
 31
0.0
  0
LINE
  5
93E
330
1F
100
AcDbEntity
  8
0
  6
CONTINUOUS
100
AcDbLine
 10
14.6745250048
 20
16.02845196479999
 30
0.0
 11
14.6665717418
 21
16.0465738672
 31
0.0
  0
LINE
  5
93F
330
1F
100
AcDbEntity
  8
0
  6
CONTINUOUS
100
AcDbLine
 10
14.6665717418
 20
16.0465738672
 30
0.0
 11
14.658821579
 21
16.06588961549999
 31
0.0
  0
LINE
  5
940
330
1F
100
AcDbEntity
  8
0
  6
CONTINUOUS
100
AcDbLine
 10
14.658821579
 20
16.06588961549999
 30
0.0
 11
14.65131970539998
 21
16.0862633357
 31
0.0
  0
LINE
  5
941
330
1F
100
AcDbEntity
  8
0
  6
CONTINUOUS
100
AcDbLine
 10
14.65131970539998
 20
16.0862633357
 30
0.0
 11
14.6441113102
 21
16.1075591541
 31
0.0
  0
LINE
  5
942
330
1F
100
AcDbEntity
  8
0
  6
CONTINUOUS
100
AcDbLine
 10
14.6441113102
 20
16.1075591541
 30
0.0
 11
14.63739945529999
 21
16.1290883042
 31
0.0
  0
LINE
  5
943
330
1F
100
AcDbEntity
  8
0
  6
CONTINUOUS
100
AcDbLine
 10
14.63739945529999
 20
16.1290883042
 30
0.0
 11
14.6309634268
 21
16.1514338989
 31
0.0
  0
LINE
  5
944
330
1F
100
AcDbEntity
  8
0
  6
CONTINUOUS
100
AcDbLine
 10
14.6309634268
 20
16.1514338989
 30
0.0
 11
14.62484005829999
 21
16.17443505439998
 31
0.0
  0
LINE
  5
945
330
1F
100
AcDbEntity
  8
0
  6
CONTINUOUS
100
AcDbLine
 10
14.62484005829999
 20
16.17443505439998
 30
0.0
 11
14.6190661837
 21
16.1979308867
 31
0.0
  0
LINE
  5
946
330
1F
100
AcDbEntity
  8
0
  6
CONTINUOUS
100
AcDbLine
 10
14.6190661837
 20
16.1979308867
 30
0.0
 11
14.6136786364
 21
16.2217605122
 31
0.0
  0
LINE
  5
947
330
1F
100
AcDbEntity
  8
0
  6
CONTINUOUS
100
AcDbLine
 10
14.6136786364
 20
16.2217605122
 30
0.0
 11
14.60758799519999
 21
16.2514975361
 31
0.0
  0
LINE
  5
948
330
1F
100
AcDbEntity
  8
0
  6
CONTINUOUS
100
AcDbLine
 10
14.60758799519999
 20
16.2514975361
 30
0.0
 11
14.6021041225
 21
16.28158353879999
 31
0.0
  0
LINE
  5
949
330
1F
100
AcDbEntity
  8
0
  6
CONTINUOUS
100
AcDbLine
 10
14.6021041225
 20
16.28158353879999
 30
0.0
 11
14.59728339079998
 21
16.3116974505
 31
0.0
  0
LINE
  5
94A
330
1F
100
AcDbEntity
  8
0
  6
CONTINUOUS
100
AcDbLine
 10
14.59728339079998
 20
16.3116974505
 30
0.0
 11
14.5931821723
 21
16.3415182012
 31
0.0
  0
LINE
  5
94B
330
1F
100
AcDbEntity
  8
0
  6
CONTINUOUS
100
AcDbLine
 10
14.5931821723
 20
16.3415182012
 30
0.0
 11
14.5898410127
 21
16.3708094902
 31
0.0
  0
LINE
  5
94C
330
1F
100
AcDbEntity
  8
0
  6
CONTINUOUS
100
AcDbLine
 10
14.5898410127
 20
16.3708094902
 30
0.0
 11
14.5872549277
 21
16.3996022601
 31
0.0
  0
LINE
  5
94D
330
1F
100
AcDbEntity
  8
0
  6
CONTINUOUS
100
AcDbLine
 10
14.5872549277
 20
16.3996022601
 30
0.0
 11
14.5854588502
 21
16.4276041563
 31
0.0
  0
LINE
  5
94E
330
1F
100
AcDbEntity
  8
0
  6
CONTINUOUS
100
AcDbLine
 10
14.5854588502
 20
16.4276041563
 30
0.0
 11
14.5844877134
 21
16.4545228242
 31
0.0
  0
LINE
  5
94F
330
1F
100
AcDbEntity
  8
0
  6
CONTINUOUS
100
AcDbLine
 10
14.5844877134
 20
16.4545228242
 30
0.0
 11
14.58437053789999
 21
16.4803925838
 31
0.0
  0
LINE
  5
950
330
1F
100
AcDbEntity
  8
0
  6
CONTINUOUS
100
AcDbLine
 10
14.58437053789999
 20
16.4803925838
 30
0.0
 11
14.5851209719
 21
16.50499728
 31
0.0
  0
LINE
  5
951
330
1F
100
AcDbEntity
  8
0
  6
CONTINUOUS
100
AcDbLine
 10
14.5851209719
 20
16.50499728
 30
0.0
 11
14.58674179249999
 21
16.5281058639
 31
0.0
  0
LINE
  5
952
330
1F
100
AcDbEntity
  8
0
  6
CONTINUOUS
100
AcDbLine
 10
14.58674179249999
 20
16.5281058639
 30
0.0
 11
14.5892357769
 21
16.5494872868
 31
0.0
  0
LINE
  5
953
330
1F
100
AcDbEntity
  8
0
  6
CONTINUOUS
100
AcDbLine
 10
14.5892357769
 20
16.5494872868
 30
0.0
 11
14.59268438599998
 21
16.5693782743
 31
0.0
  0
LINE
  5
954
330
1F
100
AcDbEntity
  8
0
  6
CONTINUOUS
100
AcDbLine
 10
14.59268438599998
 20
16.5693782743
 30
0.0
 11
14.59704220869999
 21
16.58737559049998
 31
0.0
  0
LINE
  5
955
330
1F
100
AcDbEntity
  8
0
  6
CONTINUOUS
100
AcDbLine
 10
14.59704220869999
 20
16.58737559049998
 30
0.0
 11
14.60227136
 21
16.6033316969
 31
0.0
  0
LINE
  5
956
330
1F
100
AcDbEntity
  8
0
  6
CONTINUOUS
100
AcDbLine
 10
14.60227136
 20
16.6033316969
 30
0.0
 11
14.6083339547
 21
16.617099055
 31
0.0
  0
LINE
  5
957
330
1F
100
AcDbEntity
  8
0
  6
CONTINUOUS
100
AcDbLine
 10
14.6083339547
 20
16.617099055
 30
0.0
 11
14.61510127759999
 21
16.6284521704
 31
0.0
  0
LINE
  5
958
330
1F
100
AcDbEntity
  8
0
  6
CONTINUOUS
100
AcDbLine
 10
14.61510127759999
 20
16.6284521704
 30
0.0
 11
14.6226434839
 21
16.6376580419
 31
0.0
  0
LINE
  5
959
330
1F
100
AcDbEntity
  8
0
  6
CONTINUOUS
100
AcDbLine
 10
14.6226434839
 20
16.6376580419
 30
0.0
 11
14.6308909796
 21
16.6446636384
 31
0.0
  0
LINE
  5
95A
330
1F
100
AcDbEntity
  8
0
  6
CONTINUOUS
100
AcDbLine
 10
14.6308909796
 20
16.6446636384
 30
0.0
 11
14.63977417029999
 21
16.64941592899999
 31
0.0
  0
LINE
  5
95B
330
1F
100
AcDbEntity
  8
0
  6
CONTINUOUS
100
AcDbLine
 10
10.74255364829998
 20
17.42104854589999
 30
0.0
 11
10.2379028858
 21
17.4206196975
 31
0.0
  0
LINE
  5
95C
330
1F
100
AcDbEntity
  8
0
  6
CONTINUOUS
100
AcDbLine
 10
10.2379028858
 20
17.4206196975
 30
0.0
 11
9.7332315617
 21
17.42047070899999
 31
0.0
  0
LINE
  5
95D
330
1F
100
AcDbEntity
  8
0
  6
CONTINUOUS
100
AcDbLine
 10
9.7332315617
 20
17.42047070899999
 30
0.0
 11
9.2339304523
 21
17.4206228599
 31
0.0
  0
LINE
  5
95E
330
1F
100
AcDbEntity
  8
0
  6
CONTINUOUS
100
AcDbLine
 10
9.2339304523
 20
17.4206228599
 30
0.0
 11
8.734629462599999
 21
17.42104854589999
 31
0.0
  0
LINE
  5
963
330
1F
100
AcDbEntity
  8
0
  6
CONTINUOUS
100
AcDbLine
 10
14.85704522059998
 20
8.899211509
 30
0.0
 11
14.8624929386
 21
8.882313759299998
 31
0.0
  0
LINE
  5
964
330
1F
100
AcDbEntity
  8
0
  6
CONTINUOUS
100
AcDbLine
 10
14.8624929386
 20
8.882313759299998
 30
0.0
 11
14.8682718365
 21
8.867005672000001
 31
0.0
  0
LINE
  5
965
330
1F
100
AcDbEntity
  8
0
  6
CONTINUOUS
100
AcDbLine
 10
14.8682718365
 20
8.867005672000001
 30
0.0
 11
14.8743825754
 21
8.853388356299998
 31
0.0
  0
LINE
  5
966
330
1F
100
AcDbEntity
  8
0
  6
CONTINUOUS
100
AcDbLine
 10
14.8743825754
 20
8.853388356299998
 30
0.0
 11
14.8808258161
 21
8.841562921299997
 31
0.0
  0
LINE
  5
967
330
1F
100
AcDbEntity
  8
0
  6
CONTINUOUS
100
AcDbLine
 10
14.8808258161
 20
8.841562921299997
 30
0.0
 11
14.8877991263
 21
8.8313723937
 31
0.0
  0
LINE
  5
968
330
1F
100
AcDbEntity
  8
0
  6
CONTINUOUS
100
AcDbLine
 10
14.8877991263
 20
8.8313723937
 30
0.0
 11
14.8951347097
 21
8.8232225242
 31
0.0
  0
LINE
  5
969
330
1F
100
AcDbEntity
  8
0
  6
CONTINUOUS
100
AcDbLine
 10
14.8951347097
 20
8.8232225242
 30
0.0
 11
14.90281777969999
 21
8.817180544400001
 31
0.0
  0
LINE
  5
96A
330
1F
100
AcDbEntity
  8
0
  6
CONTINUOUS
100
AcDbLine
 10
14.90281777969999
 20
8.817180544400001
 30
0.0
 11
14.91083354979999
 21
8.813313686499999
 31
0.0
  0
LINE
  5
96B
330
1F
100
AcDbEntity
  8
0
  6
CONTINUOUS
100
AcDbLine
 10
14.91083354979999
 20
8.813313686499999
 30
0.0
 11
14.9189691168
 21
8.811685645599999
 31
0.0
  0
LINE
  5
96C
330
1F
100
AcDbEntity
  8
0
  6
CONTINUOUS
100
AcDbLine
 10
14.9189691168
 20
8.811685645599999
 30
0.0
 11
14.9274098082
 21
8.812168473999998
 31
0.0
  0
LINE
  5
96D
330
1F
100
AcDbEntity
  8
0
  6
CONTINUOUS
100
AcDbLine
 10
14.9274098082
 20
8.812168473999998
 30
0.0
 11
14.93612824549999
 21
8.8147475762
 31
0.0
  0
LINE
  5
96E
330
1F
100
AcDbEntity
  8
0
  6
CONTINUOUS
100
AcDbLine
 10
14.93612824549999
 20
8.8147475762
 30
0.0
 11
14.9450970503
 21
8.8194083563
 31
0.0
  0
LINE
  5
96F
330
1F
100
AcDbEntity
  8
0
  6
CONTINUOUS
100
AcDbLine
 10
14.9450970503
 20
8.8194083563
 30
0.0
 11
14.95461185099999
 21
8.8263876641
 31
0.0
  0
LINE
  5
970
330
1F
100
AcDbEntity
  8
0
  6
CONTINUOUS
100
AcDbLine
 10
14.95461185099999
 20
8.8263876641
 30
0.0
 11
14.9643649382
 21
8.8354962524
 31
0.0
  0
LINE
  5
971
330
1F
100
AcDbEntity
  8
0
  6
CONTINUOUS
100
AcDbLine
 10
14.9643649382
 20
8.8354962524
 30
0.0
 11
14.9743224128
 21
8.846643784899997
 31
0.0
  0
LINE
  5
972
330
1F
100
AcDbEntity
  8
0
  6
CONTINUOUS
100
AcDbLine
 10
14.9743224128
 20
8.846643784899997
 30
0.0
 11
14.98445037579998
 21
8.859739925199997
 31
0.0
  0
LINE
  5
973
330
1F
100
AcDbEntity
  8
0
  6
CONTINUOUS
100
AcDbLine
 10
14.98445037579998
 20
8.859739925199997
 30
0.0
 11
14.9906836991
 21
8.868620659299997
 31
0.0
  0
LINE
  5
974
330
1F
100
AcDbEntity
  8
0
  6
CONTINUOUS
100
AcDbLine
 10
14.9906836991
 20
8.868620659299997
 30
0.0
 11
14.9969695753
 21
8.8781672674
 31
0.0
  0
LINE
  5
975
330
1F
100
AcDbEntity
  8
0
  6
CONTINUOUS
100
AcDbLine
 10
14.9969695753
 20
8.8781672674
 30
0.0
 11
15.00331717069999
 21
8.888380161
 31
0.0
  0
LINE
  5
976
330
1F
100
AcDbEntity
  8
0
  6
CONTINUOUS
100
AcDbLine
 10
15.00331717069999
 20
8.888380161
 30
0.0
 11
15.0097080097
 21
8.899215394
 31
0.0
  0
ENDSEC
  0
SECTION
  2
OBJECTS
  0
DICTIONARY
  5
C
330
0
100
AcDbDictionary
  3
ACAD_GROUP
350
D
  3
ACAD_LAYOUT
350
1A
  3
ACAD_MLINESTYLE
350
17
  3
ACAD_PLOTSETTINGS
350
19
  3
ACAD_PLOTSTYLENAME
350
E
  3
ACDBHEADERROUNDTRIPXREC
350
D21
  3
ACDBVARIABLEDICTIONARY
350
CD9
  0
DICTIONARY
  5
CE3
330
1F
100
AcDbDictionary
280
     1
  3
ACAD_LAYOUTSELFREF
360
D43
  0
DICTIONARY
  5
CE5
330
1B
100
AcDbDictionary
280
     1
  3
ACAD_LAYOUTSELFREF
360
D42
  0
DICTIONARY
  5
D
102
{ACAD_REACTORS
330
C
102
}
330
C
100
AcDbDictionary
  0
DICTIONARY
  5
1A
102
{ACAD_REACTORS
330
C
102
}
330
C
100
AcDbDictionary
  0
DICTIONARY
  5
17
102
{ACAD_REACTORS
330
C
102
}
330
C
100
AcDbDictionary
  3
STANDARD
350
18
  0
DICTIONARY
  5
19
102
{ACAD_REACTORS
330
C
102
}
330
C
100
AcDbDictionary
  0
ACDBDICTIONARYWDFLT
  5
E
102
{ACAD_REACTORS
330
C
102
}
330
C
100
AcDbDictionary
281
     1
  3
Normal
350
F
100
AcDbDictionaryWithDefault
340
F
  0
DICTIONARY
  5
D21
102
{ACAD_REACTORS
330
C
102
}
330
C
100
AcDbDictionary
  3
CEPSNTYPE
350
D2B
  3
DIMSTYLEDATA
350
D2F
  3
FINGERPRINTGUID
350
D2C
  3
HYPERLINKBASE
350
D24
  3
INSUNITS
350
D2A
  3
LAYOUTDICT
350
D26
  3
LWETCUNION
350
D29
  3
PLOTSETDICT
350
D27
  3
PLOTSTYLNAMDICT
350
D28
  3
PSVPSCALE
350
D2E
  3
PUCSBASE
350
D32
  3
PUCSORGBACK
350
D38
  3
PUCSORGBOTTOM
350
D34
  3
PUCSORGFRONT
350
D37
  3
PUCSORGLEFT
350
D35
  3
PUCSORGRIGHT
350
D36
  3
PUCSORGTOP
350
D33
  3
PUCSORTHOREF
350
D30
  3
PUCSORTHOVIEW
350
D31
  3
STYLESHEET
350
D25
  3
TSTACKALIGN
350
D22
  3
TSTACKSIZE
350
D23
  3
UCSBASE
350
D3B
  3
UCSORGBACK
350
D41
  3
UCSORGBOTTOM
350
D3D
  3
UCSORGFRONT
350
D40
  3
UCSORGLEFT
350
D3E
  3
UCSORGRIGHT
350
D3F
  3
UCSORGTOP
350
D3C
  3
UCSORTHOREF
350
D39
  3
UCSORTHOVIEW
350
D3A
  3
VERSIONGUID
350
D2D
  0
DICTIONARY
  5
CD9
102
{ACAD_REACTORS
330
C
102
}
330
C
100
AcDbDictionary
  3
DIMASSOC
350
CDA
  0
XRECORD
  5
D43
102
{ACAD_REACTORS
330
CE3
102
}
330
CE3
100
AcDbXrecord
340
1F
  0
XRECORD
  5
D42
102
{ACAD_REACTORS
330
CE5
102
}
330
CE5
100
AcDbXrecord
340
1B
  0
MLINESTYLE
  5
18
102
{ACAD_REACTORS
330
17
102
}
330
17
100
AcDbMlineStyle
  2
STANDARD
 70
     0
  3

 62
   256
 51
90.0
 52
90.0
 71
     2
 49
0.5
 62
   256
  6
BYLAYER
 49
-0.5
 62
   256
  6
BYLAYER
  0
ACDBPLACEHOLDER
  5
F
102
{ACAD_REACTORS
330
E
102
}
330
E
100
AcDbPlaceHolder
280
     0
  0
XRECORD
  5
D2B
102
{ACAD_REACTORS
330
D21
102
}
330
D21
100
AcDbXrecord
 90
        0
  0
XRECORD
  5
D2F
102
{ACAD_REACTORS
330
D21
102
}
330
D21
100
AcDbXrecord
1000
DSTYLE
1002
{
1070
   278
 70
    44
1002
}
  0
XRECORD
  5
D2C
102
{ACAD_REACTORS
330
D21
102
}
330
D21
100
AcDbXrecord
  1
{8C034370-070C-46C6-8E14-C7A37B429912}
  0
XRECORD
  5
D24
102
{ACAD_REACTORS
330
D21
102
}
330
D21
100
AcDbXrecord
  1

  0
XRECORD
  5
D2A
102
{ACAD_REACTORS
330
D21
102
}
330
D21
100
AcDbXrecord
 90
        4
  0
XRECORD
  5
D26
102
{ACAD_REACTORS
330
D21
102
}
330
D21
100
AcDbXrecord
340
1A
  0
XRECORD
  5
D29
102
{ACAD_REACTORS
330
D21
102
}
330
D21
100
AcDbXrecord
 90
    10781
  0
XRECORD
  5
D27
102
{ACAD_REACTORS
330
D21
102
}
330
D21
100
AcDbXrecord
340
19
  0
XRECORD
  5
D28
102
{ACAD_REACTORS
330
D21
102
}
330
D21
100
AcDbXrecord
340
E
  0
XRECORD
  5
D2E
102
{ACAD_REACTORS
330
D21
102
}
330
D21
100
AcDbXrecord
 40
0.0
  0
XRECORD
  5
D32
102
{ACAD_REACTORS
330
D21
102
}
330
D21
100
AcDbXrecord
340
0
  0
XRECORD
  5
D38
102
{ACAD_REACTORS
330
D21
102
}
330
D21
100
AcDbXrecord
 10
0.0
 20
0.0
 30
0.0
  0
XRECORD
  5
D34
102
{ACAD_REACTORS
330
D21
102
}
330
D21
100
AcDbXrecord
 10
0.0
 20
0.0
 30
0.0
  0
XRECORD
  5
D37
102
{ACAD_REACTORS
330
D21
102
}
330
D21
100
AcDbXrecord
 10
0.0
 20
0.0
 30
0.0
  0
XRECORD
  5
D35
102
{ACAD_REACTORS
330
D21
102
}
330
D21
100
AcDbXrecord
 10
0.0
 20
0.0
 30
0.0
  0
XRECORD
  5
D36
102
{ACAD_REACTORS
330
D21
102
}
330
D21
100
AcDbXrecord
 10
0.0
 20
0.0
 30
0.0
  0
XRECORD
  5
D33
102
{ACAD_REACTORS
330
D21
102
}
330
D21
100
AcDbXrecord
 10
0.0
 20
0.0
 30
0.0
  0
XRECORD
  5
D30
102
{ACAD_REACTORS
330
D21
102
}
330
D21
100
AcDbXrecord
340
0
  0
XRECORD
  5
D31
102
{ACAD_REACTORS
330
D21
102
}
330
D21
100
AcDbXrecord
 70
     0
  0
XRECORD
  5
D25
102
{ACAD_REACTORS
330
D21
102
}
330
D21
100
AcDbXrecord
  1

  0
XRECORD
  5
D22
102
{ACAD_REACTORS
330
D21
102
}
330
D21
100
AcDbXrecord
 90
        1
  0
XRECORD
  5
D23
102
{ACAD_REACTORS
330
D21
102
}
330
D21
100
AcDbXrecord
 90
       70
  0
XRECORD
  5
D3B
102
{ACAD_REACTORS
330
D21
102
}
330
D21
100
AcDbXrecord
340
0
  0
XRECORD
  5
D41
102
{ACAD_REACTORS
330
D21
102
}
330
D21
100
AcDbXrecord
 10
0.0
 20
0.0
 30
0.0
  0
XRECORD
  5
D3D
102
{ACAD_REACTORS
330
D21
102
}
330
D21
100
AcDbXrecord
 10
0.0
 20
0.0
 30
0.0
  0
XRECORD
  5
D40
102
{ACAD_REACTORS
330
D21
102
}
330
D21
100
AcDbXrecord
 10
0.0
 20
0.0
 30
0.0
  0
XRECORD
  5
D3E
102
{ACAD_REACTORS
330
D21
102
}
330
D21
100
AcDbXrecord
 10
0.0
 20
0.0
 30
0.0
  0
XRECORD
  5
D3F
102
{ACAD_REACTORS
330
D21
102
}
330
D21
100
AcDbXrecord
 10
0.0
 20
0.0
 30
0.0
  0
XRECORD
  5
D3C
102
{ACAD_REACTORS
330
D21
102
}
330
D21
100
AcDbXrecord
 10
0.0
 20
0.0
 30
0.0
  0
XRECORD
  5
D39
102
{ACAD_REACTORS
330
D21
102
}
330
D21
100
AcDbXrecord
340
0
  0
XRECORD
  5
D3A
102
{ACAD_REACTORS
330
D21
102
}
330
D21
100
AcDbXrecord
 70
     0
  0
XRECORD
  5
D2D
102
{ACAD_REACTORS
330
D21
102
}
330
D21
100
AcDbXrecord
  1
{B2F95AA8-E56A-40AE-B7B5-8E7407B776C4}
  0
DICTIONARYVAR
  5
CDA
102
{ACAD_REACTORS
330
CD9
102
}
330
CD9
100
DictionaryVariables
280
     0
  1
1
  0
ENDSEC
  0
EOF
