  0
SECTION
  2
HEADER
  9
$ACADVER
  1
AC1014
  9
$ACADMAINTVER
 70
     9
  9
$DWGCODEPAGE
  3
ANSI_1250
  9
$INSBASE
 10
0.0
 20
0.0
 30
0.0
  9
$EXTMIN
 10
111.3578001299586
 20
408.1482285551468
 30
0.0
  9
$EXTMAX
 10
2065.499935753689
 20
2297.089553438857
 30
0.0
  9
$LIMMIN
 10
0.0
 20
0.0
  9
$LIMMAX
 10
420.0
 20
297.0
  9
$ORTHOMODE
 70
     1
  9
$REGENMODE
 70
     1
  9
$FILLMODE
 70
     1
  9
$QTEXTMODE
 70
     0
  9
$MIRRTEXT
 70
     0
  9
$DRAGMODE
 70
     2
  9
$LTSCALE
 40
1.0
  9
$OSMODE
 70
  3007
  9
$ATTMODE
 70
     1
  9
$TEXTSIZE
 40
2.5
  9
$TRACEWID
 40
1.0
  9
$TEXTSTYLE
  7
ISO70
  9
$CLAYER
  8
PEN50
  9
$CELTYPE
  6
BYLAYER
  9
$CECOLOR
 62
   256
  9
$CELTSCALE
 40
1.0
  9
$DELOBJ
 70
     1
  9
$DISPSILH
 70
     0
  9
$DIMSCALE
 40
1.0
  9
$DIMASZ
 40
3.5
  9
$DIMEXO
 40
0.875
  9
$DIMDLI
 40
5.25
  9
$DIMRND
 40
0.0
  9
$DIMDLE
 40
0.0
  9
$DIMEXE
 40
1.75
  9
$DIMTP
 40
0.0
  9
$DIMTM
 40
0.0
  9
$DIMTXT
 40
3.5
  9
$DIMCEN
 40
0.0
  9
$DIMTSZ
 40
0.0
  9
$DIMTOL
 70
     0
  9
$DIMLIM
 70
     0
  9
$DIMTIH
 70
     0
  9
$DIMTOH
 70
     0
  9
$DIMSE1
 70
     0
  9
$DIMSE2
 70
     0
  9
$DIMTAD
 70
     1
  9
$DIMZIN
 70
     8
  9
$DIMBLK
  1

  9
$DIMASO
 70
     1
  9
$DIMSHO
 70
     1
  9
$DIMPOST
  1

  9
$DIMAPOST
  1

  9
$DIMALT
 70
     0
  9
$DIMALTD
 70
     4
  9
$DIMALTF
 40
0.0394
  9
$DIMLFAC
 40
0.1
  9
$DIMTOFL
 70
     1
  9
$DIMTVP
 40
0.0
  9
$DIMTIX
 70
     0
  9
$DIMSOXD
 70
     0
  9
$DIMSAH
 70
     0
  9
$DIMBLK1
  1

  9
$DIMBLK2
  1

  9
$DIMSTYLE
  2
ISO-35
  9
$DIMCLRD
 70
   256
  9
$DIMCLRE
 70
   256
  9
$DIMCLRT
 70
     2
  9
$DIMTFAC
 40
1.0
  9
$DIMGAP
 40
1.0
  9
$DIMJUST
 70
     0
  9
$DIMSD1
 70
     0
  9
$DIMSD2
 70
     0
  9
$DIMTOLJ
 70
     1
  9
$DIMTZIN
 70
     0
  9
$DIMALTZ
 70
     0
  9
$DIMALTTZ
 70
     0
  9
$DIMFIT
 70
     3
  9
$DIMUPT
 70
     0
  9
$DIMUNIT
 70
     8
  9
$DIMDEC
 70
     4
  9
$DIMTDEC
 70
     4
  9
$DIMALTU
 70
     8
  9
$DIMALTTD
 70
     4
  9
$DIMTXSTY
  7
ISO35
  9
$DIMAUNIT
 70
     0
  9
$LUNITS
 70
     2
  9
$LUPREC
 70
     2
  9
$SKETCHINC
 40
1.0
  9
$FILLETRAD
 40
0.0
  9
$AUNITS
 70
     0
  9
$AUPREC
 70
     0
  9
$MENU
  1
.
  9
$ELEVATION
 40
0.0
  9
$PELEVATION
 40
0.0
  9
$THICKNESS
 40
0.0
  9
$LIMCHECK
 70
     0
  9
$BLIPMODE
 70
     0
  9
$CHAMFERA
 40
10.0
  9
$CHAMFERB
 40
10.0
  9
$CHAMFERC
 40
20.0
  9
$CHAMFERD
 40
0.0
  9
$SKPOLY
 70
     1
  9
$TDCREATE
 40
2450913.549346412
  9
$TDUPDATE
 40
2453966.364707569
  9
$TDINDWG
 40
0.2456506019
  9
$TDUSRTIMER
 40
0.2456506019
  9
$USRTIMER
 70
     1
  9
$ANGBASE
 50
0.0
  9
$ANGDIR
 70
     0
  9
$PDMODE
 70
     0
  9
$PDSIZE
 40
0.0
  9
$PLINEWID
 40
0.0
  9
$COORDS
 70
     2
  9
$SPLFRAME
 70
     0
  9
$SPLINETYPE
 70
     6
  9
$SPLINESEGS
 70
     8
  9
$ATTDIA
 70
     0
  9
$ATTREQ
 70
     1
  9
$HANDLING
 70
 22529
  9
$HANDSEED
  5
2558
  9
$SURFTAB1
 70
     6
  9
$SURFTAB2
 70
     6
  9
$SURFTYPE
 70
     6
  9
$SURFU
 70
     6
  9
$SURFV
 70
     6
  9
$UCSNAME
  2

  9
$UCSORG
 10
0.0
 20
0.0
 30
0.0
  9
$UCSXDIR
 10
1.0
 20
0.0
 30
0.0
  9
$UCSYDIR
 10
0.0
 20
1.0
 30
0.0
  9
$PUCSNAME
  2

  9
$PUCSORG
 10
0.0
 20
0.0
 30
0.0
  9
$PUCSXDIR
 10
1.0
 20
0.0
 30
0.0
  9
$PUCSYDIR
 10
0.0
 20
1.0
 30
0.0
  9
$USERI1
 70
     0
  9
$USERI2
 70
     0
  9
$USERI3
 70
     0
  9
$USERI4
 70
     0
  9
$USERI5
 70
     0
  9
$USERR1
 40
0.0
  9
$USERR2
 40
0.0
  9
$USERR3
 40
0.0
  9
$USERR4
 40
0.0
  9
$USERR5
 40
0.0
  9
$WORLDVIEW
 70
     1
  9
$SHADEDGE
 70
     3
  9
$SHADEDIF
 70
    70
  9
$TILEMODE
 70
     1
  9
$MAXACTVP
 70
    48
  9
$PINSBASE
 10
0.0
 20
0.0
 30
0.0
  9
$PLIMCHECK
 70
     0
  9
$PEXTMIN
 10
-3.6452686062525
 20
9.999999999999971
 30
0.0
  9
$PEXTMAX
 10
433.5570781909483
 20
309.3142177264336
 30
0.0
  9
$PLIMMIN
 10
-11.33222970674488
 20
2.320117902498783
  9
$PLIMMAX
 10
441.2852924568888
 20
322.3461950265964
  9
$UNITMODE
 70
     0
  9
$VISRETAIN
 70
     1
  9
$PLINEGEN
 70
     0
  9
$PSLTSCALE
 70
     0
  9
$TREEDEPTH
 70
  3020
  9
$PICKSTYLE
 70
     1
  9
$CMLSTYLE
  2
STANDARD
  9
$CMLJUST
 70
     0
  9
$CMLSCALE
 40
1.0
  9
$PROXYGRAPHICS
 70
     1
  9
$MEASUREMENT
 70
     1
  0
ENDSEC
  0
SECTION
  2
CLASSES
  0
CLASS
  1
DICTIONARYVAR
  2
AcDbDictionaryVar
  3
AutoCAD 2000
 90
        0
280
     0
281
     0
  0
CLASS
  1
LWPOLYLINE
  2
AcDbPolyline
  3
AutoCAD 2000
 90
        0
280
     0
281
     1
  0
CLASS
  1
HATCH
  2
AcDbHatch
  3
AutoCAD 2000
 90
        0
280
     0
281
     1
  0
CLASS
  1
XRECORD
  2
AcDbXrecord
  3
AutoCAD 2000
 90
        0
280
     0
281
     0
  0
CLASS
  1
ACDBDICTIONARYWDFLT
  2
AcDbDictionaryWithDefault
  3
AutoCAD 2000
 90
        0
280
     0
281
     0
  0
CLASS
  1
ACDBPLACEHOLDER
  2
AcDbPlaceHolder
  3
AutoCAD 2000
 90
        0
280
     0
281
     0
  0
CLASS
  1
LAYOUT
  2
AcDbLayout
  3
AutoCAD 2000
 90
        0
280
     0
281
     0
  0
CLASS
  1
LONG_TRANSACTION
  2
AcDbLongTransaction
  3
AutoCAD 2000
 90
        0
280
     0
281
     0
  0
CLASS
  1
LWPOLYLINE
  2
AcDbPolyline
  3
AutoCAD 2000
 90
        0
280
     0
281
     1
  0
CLASS
  1
HATCH
  2
AcDbHatch
  3
AutoCAD 2000
 90
        0
280
     0
281
     1
  0
CLASS
  1
XRECORD
  2
AcDbXrecord
  3
AutoCAD 2000
 90
        0
280
     0
281
     0
  0
CLASS
  1
LONG_TRANSACTION
  2
AcDbLongTransaction
  3
AutoCAD 2000
 90
        0
280
     0
281
     0
  0
CLASS
  1
LWPOLYLINE
  2
AcDbPolyline
  3
AutoCAD 2000
 90
        0
280
     0
281
     1
  0
CLASS
  1
HATCH
  2
AcDbHatch
  3
AutoCAD 2000
 90
        0
280
     0
281
     1
  0
CLASS
  1
XRECORD
  2
AcDbXrecord
  3
AutoCAD 2000
 90
        0
280
     0
281
     0
  0
CLASS
  1
LONG_TRANSACTION
  2
AcDbLongTransaction
  3
AutoCAD 2000
 90
        0
280
     0
281
     0
  0
CLASS
  1
LWPOLYLINE
  2
AcDbPolyline
  3
AutoCAD 2000
 90
        0
280
     0
281
     1
  0
CLASS
  1
HATCH
  2
AcDbHatch
  3
AutoCAD 2000
 90
        0
280
     0
281
     1
  0
CLASS
  1
XRECORD
  2
AcDbXrecord
  3
AutoCAD 2000
 90
        0
280
     0
281
     0
  0
CLASS
  1
LONG_TRANSACTION
  2
AcDbLongTransaction
  3
AutoCAD 2000
 90
        0
280
     0
281
     0
  0
CLASS
  1
LWPOLYLINE
  2
AcDbPolyline
  3
AutoCAD 2000
 90
        0
280
     0
281
     1
  0
CLASS
  1
HATCH
  2
AcDbHatch
  3
AutoCAD 2000
 90
        0
280
     0
281
     1
  0
CLASS
  1
XRECORD
  2
AcDbXrecord
  3
AutoCAD 2000
 90
        0
280
     0
281
     0
  0
CLASS
  1
LONG_TRANSACTION
  2
AcDbLongTransaction
  3
AutoCAD 2000
 90
        0
280
     0
281
     0
  0
CLASS
  1
LWPOLYLINE
  2
AcDbPolyline
  3
AutoCAD 2000
 90
        0
280
     0
281
     1
  0
CLASS
  1
HATCH
  2
AcDbHatch
  3
AutoCAD 2000
 90
        0
280
     0
281
     1
  0
CLASS
  1
XRECORD
  2
AcDbXrecord
  3
AutoCAD 2000
 90
        0
280
     0
281
     0
  0
CLASS
  1
LONG_TRANSACTION
  2
AcDbLongTransaction
  3
AutoCAD 2000
 90
        0
280
     0
281
     0
  0
CLASS
  1
LWPOLYLINE
  2
AcDbPolyline
  3
AutoCAD 2000
 90
        0
280
     0
281
     1
  0
CLASS
  1
HATCH
  2
AcDbHatch
  3
AutoCAD 2000
 90
        0
280
     0
281
     1
  0
CLASS
  1
XRECORD
  2
AcDbXrecord
  3
AutoCAD 2000
 90
        0
280
     0
281
     0
  0
CLASS
  1
LONG_TRANSACTION
  2
AcDbLongTransaction
  3
AutoCAD 2000
 90
        0
280
     0
281
     0
  0
CLASS
  1
LWPOLYLINE
  2
AcDbPolyline
  3
AutoCAD 2000
 90
        0
280
     0
281
     1
  0
CLASS
  1
HATCH
  2
AcDbHatch
  3
AutoCAD 2000
 90
        0
280
     0
281
     1
  0
CLASS
  1
XRECORD
  2
AcDbXrecord
  3
AutoCAD 2000
 90
        0
280
     0
281
     0
  0
CLASS
  1
LONG_TRANSACTION
  2
AcDbLongTransaction
  3
AutoCAD 2000
 90
        0
280
     0
281
     0
  0
CLASS
  1
LWPOLYLINE
  2
AcDbPolyline
  3
AutoCAD 2000
 90
        0
280
     0
281
     1
  0
CLASS
  1
HATCH
  2
AcDbHatch
  3
AutoCAD 2000
 90
        0
280
     0
281
     1
  0
CLASS
  1
XRECORD
  2
AcDbXrecord
  3
AutoCAD 2000
 90
        0
280
     0
281
     0
  0
CLASS
  1
LONG_TRANSACTION
  2
AcDbLongTransaction
  3
AutoCAD 2000
 90
        0
280
     0
281
     0
  0
CLASS
  1
LWPOLYLINE
  2
AcDbPolyline
  3
AutoCAD 2000
 90
        0
280
     0
281
     1
  0
CLASS
  1
HATCH
  2
AcDbHatch
  3
AutoCAD 2000
 90
        0
280
     0
281
     1
  0
CLASS
  1
XRECORD
  2
AcDbXrecord
  3
AutoCAD 2000
 90
        0
280
     0
281
     0
  0
CLASS
  1
LONG_TRANSACTION
  2
AcDbLongTransaction
  3
AutoCAD 2000
 90
        0
280
     0
281
     0
  0
CLASS
  1
LWPOLYLINE
  2
AcDbPolyline
  3
AutoCAD 2000
 90
        0
280
     0
281
     1
  0
CLASS
  1
HATCH
  2
AcDbHatch
  3
AutoCAD 2000
 90
        0
280
     0
281
     1
  0
CLASS
  1
XRECORD
  2
AcDbXrecord
  3
AutoCAD 2000
 90
        0
280
     0
281
     0
  0
CLASS
  1
LONG_TRANSACTION
  2
AcDbLongTransaction
  3
AutoCAD 2000
 90
        0
280
     0
281
     0
  0
CLASS
  1
LWPOLYLINE
  2
AcDbPolyline
  3
AutoCAD 2000
 90
        0
280
     0
281
     1
  0
CLASS
  1
HATCH
  2
AcDbHatch
  3
AutoCAD 2000
 90
        0
280
     0
281
     1
  0
CLASS
  1
XRECORD
  2
AcDbXrecord
  3
AutoCAD 2000
 90
        0
280
     0
281
     0
  0
CLASS
  1
LONG_TRANSACTION
  2
AcDbLongTransaction
  3
AutoCAD 2000
 90
        0
280
     0
281
     0
  0
CLASS
  1
LWPOLYLINE
  2
AcDbPolyline
  3
AutoCAD 2000
 90
        0
280
     0
281
     1
  0
CLASS
  1
HATCH
  2
AcDbHatch
  3
AutoCAD 2000
 90
        0
280
     0
281
     1
  0
CLASS
  1
XRECORD
  2
AcDbXrecord
  3
AutoCAD 2000
 90
        0
280
     0
281
     0
  0
CLASS
  1
LONG_TRANSACTION
  2
AcDbLongTransaction
  3
AutoCAD 2000
 90
        0
280
     0
281
     0
  0
CLASS
  1
LWPOLYLINE
  2
AcDbPolyline
  3
AutoCAD 2000
 90
        0
280
     0
281
     1
  0
CLASS
  1
HATCH
  2
AcDbHatch
  3
AutoCAD 2000
 90
        0
280
     0
281
     1
  0
CLASS
  1
XRECORD
  2
AcDbXrecord
  3
AutoCAD 2000
 90
        0
280
     0
281
     0
  0
CLASS
  1
LONG_TRANSACTION
  2
AcDbLongTransaction
  3
AutoCAD 2000
 90
        0
280
     0
281
     0
  0
CLASS
  1
LWPOLYLINE
  2
AcDbPolyline
  3
AutoCAD 2000
 90
        0
280
     0
281
     1
  0
CLASS
  1
HATCH
  2
AcDbHatch
  3
AutoCAD 2000
 90
        0
280
     0
281
     1
  0
CLASS
  1
XRECORD
  2
AcDbXrecord
  3
AutoCAD 2000
 90
        0
280
     0
281
     0
  0
CLASS
  1
LONG_TRANSACTION
  2
AcDbLongTransaction
  3
AutoCAD 2000
 90
        0
280
     0
281
     0
  0
CLASS
  1
LWPOLYLINE
  2
AcDbPolyline
  3
AutoCAD 2000
 90
        0
280
     0
281
     1
  0
CLASS
  1
HATCH
  2
AcDbHatch
  3
AutoCAD 2000
 90
        0
280
     0
281
     1
  0
CLASS
  1
XRECORD
  2
AcDbXrecord
  3
AutoCAD 2000
 90
        0
280
     0
281
     0
  0
CLASS
  1
LONG_TRANSACTION
  2
AcDbLongTransaction
  3
AutoCAD 2000
 90
        0
280
     0
281
     0
  0
CLASS
  1
LWPOLYLINE
  2
AcDbPolyline
  3
AutoCAD 2000
 90
        0
280
     0
281
     1
  0
CLASS
  1
HATCH
  2
AcDbHatch
  3
AutoCAD 2000
 90
        0
280
     0
281
     1
  0
CLASS
  1
XRECORD
  2
AcDbXrecord
  3
AutoCAD 2000
 90
        0
280
     0
281
     0
  0
CLASS
  1
LONG_TRANSACTION
  2
AcDbLongTransaction
  3
AutoCAD 2000
 90
        0
280
     0
281
     0
  0
CLASS
  1
LWPOLYLINE
  2
AcDbPolyline
  3
AutoCAD 2000
 90
        0
280
     0
281
     1
  0
CLASS
  1
HATCH
  2
AcDbHatch
  3
AutoCAD 2000
 90
        0
280
     0
281
     1
  0
CLASS
  1
XRECORD
  2
AcDbXrecord
  3
AutoCAD 2000
 90
        0
280
     0
281
     0
  0
CLASS
  1
LONG_TRANSACTION
  2
AcDbLongTransaction
  3
AutoCAD 2000
 90
        0
280
     0
281
     0
  0
CLASS
  1
LWPOLYLINE
  2
AcDbPolyline
  3
AutoCAD 2000
 90
        0
280
     0
281
     1
  0
CLASS
  1
HATCH
  2
AcDbHatch
  3
AutoCAD 2000
 90
        0
280
     0
281
     1
  0
CLASS
  1
XRECORD
  2
AcDbXrecord
  3
AutoCAD 2000
 90
        0
280
     0
281
     0
  0
CLASS
  1
LONG_TRANSACTION
  2
AcDbLongTransaction
  3
AutoCAD 2000
 90
        0
280
     0
281
     0
  0
CLASS
  1
LWPOLYLINE
  2
AcDbPolyline
  3
AutoCAD 2000
 90
        0
280
     0
281
     1
  0
CLASS
  1
HATCH
  2
AcDbHatch
  3
AutoCAD 2000
 90
        0
280
     0
281
     1
  0
CLASS
  1
XRECORD
  2
AcDbXrecord
  3
AutoCAD 2000
 90
        0
280
     0
281
     0
  0
CLASS
  1
LONG_TRANSACTION
  2
AcDbLongTransaction
  3
AutoCAD 2000
 90
        0
280
     0
281
     0
  0
CLASS
  1
LWPOLYLINE
  2
AcDbPolyline
  3
AutoCAD 2000
 90
        0
280
     0
281
     1
  0
CLASS
  1
HATCH
  2
AcDbHatch
  3
AutoCAD 2000
 90
        0
280
     0
281
     1
  0
CLASS
  1
XRECORD
  2
AcDbXrecord
  3
AutoCAD 2000
 90
        0
280
     0
281
     0
  0
CLASS
  1
LONG_TRANSACTION
  2
AcDbLongTransaction
  3
AutoCAD 2000
 90
        0
280
     0
281
     0
  0
CLASS
  1
LWPOLYLINE
  2
AcDbPolyline
  3
AutoCAD 2000
 90
        0
280
     0
281
     1
  0
CLASS
  1
HATCH
  2
AcDbHatch
  3
AutoCAD 2000
 90
        0
280
     0
281
     1
  0
CLASS
  1
XRECORD
  2
AcDbXrecord
  3
AutoCAD 2000
 90
        0
280
     0
281
     0
  0
CLASS
  1
LONG_TRANSACTION
  2
AcDbLongTransaction
  3
AutoCAD 2000
 90
        0
280
     0
281
     0
  0
CLASS
  1
LWPOLYLINE
  2
AcDbPolyline
  3
AutoCAD 2000
 90
        0
280
     0
281
     1
  0
CLASS
  1
HATCH
  2
AcDbHatch
  3
AutoCAD 2000
 90
        0
280
     0
281
     1
  0
CLASS
  1
XRECORD
  2
AcDbXrecord
  3
AutoCAD 2000
 90
        0
280
     0
281
     0
  0
CLASS
  1
LONG_TRANSACTION
  2
AcDbLongTransaction
  3
AutoCAD 2000
 90
        0
280
     0
281
     0
  0
CLASS
  1
LWPOLYLINE
  2
AcDbPolyline
  3
AutoCAD 2000
 90
        0
280
     0
281
     1
  0
CLASS
  1
HATCH
  2
AcDbHatch
  3
AutoCAD 2000
 90
        0
280
     0
281
     1
  0
CLASS
  1
XRECORD
  2
AcDbXrecord
  3
AutoCAD 2000
 90
        0
280
     0
281
     0
  0
ENDSEC
  0
SECTION
  2
TABLES
  0
TABLE
  2
VPORT
  5
8
330
0
100
AcDbSymbolTable
 70
     2
  0
VPORT
  5
2531
330
8
100
AcDbSymbolTableRecord
100
AcDbViewportTableRecord
  2
*ACTIVE
 70
     0
 10
0.0
 20
0.0
 11
1.0
 21
1.0
 12
1088.456319437284
 22
1352.628094147653
 13
0.0
 23
0.0
 14
1.0
 24
1.0
 15
10.0
 25
10.0
 16
0.0
 26
0.0
 36
1.0
 17
0.0
 27
0.0
 37
0.0
 40
1907.550187335728
 41
1.674961119751166
 42
50.0
 43
0.0
 44
0.0
 50
0.0
 51
0.0
 71
     0
 72
   100
 73
     1
 74
     1
 75
     0
 76
     0
 77
     0
 78
     0
  0
ENDTAB
  0
TABLE
  2
LTYPE
  5
5
330
0
100
AcDbSymbolTable
 70
     3
  0
LTYPE
  5
14
330
5
100
AcDbSymbolTableRecord
100
AcDbLinetypeTableRecord
  2
BYBLOCK
 70
     0
  3

 72
    65
 73
     0
 40
0.0
  0
LTYPE
  5
15
330
5
100
AcDbSymbolTableRecord
100
AcDbLinetypeTableRecord
  2
BYLAYER
 70
     0
  3

 72
    65
 73
     0
 40
0.0
  0
LTYPE
  5
16
330
5
100
AcDbSymbolTableRecord
100
AcDbLinetypeTableRecord
  2
CONTINUOUS
 70
     0
  3
Solid line
 72
    65
 73
     0
 40
0.0
  0
LTYPE
  5
D3
330
5
100
AcDbSymbolTableRecord
100
AcDbLinetypeTableRecord
  2
CENTER
 70
     0
  3
Center ____ _ ____ _ ____ _ ____ _ ____ _ ____
 72
    65
 73
     4
 40
50.8
 49
31.75
 74
     0
 49
-6.349999999999998
 74
     0
 49
6.349999999999998
 74
     0
 49
-6.349999999999998
 74
     0
  0
LTYPE
  5
F9
330
5
100
AcDbSymbolTableRecord
100
AcDbLinetypeTableRecord
  2
ACAD_ISO10W100
 70
     0
  3
ISO dash dot __ . __ . __ . __ . __ . __ . __ .
 72
    65
 73
     4
 40
18.5
 49
12.0
 74
     0
 49
-3.0
 74
     0
 49
0.5
 74
     0
 49
-3.0
 74
     0
  0
ENDTAB
  0
TABLE
  2
LAYER
  5
2
102
{ACAD_XDICTIONARY
360
1E80
102
}
330
0
100
AcDbSymbolTable
 70
    10
  0
LAYER
  5
F
330
2
100
AcDbSymbolTableRecord
100
AcDbLayerTableRecord
  2
0
 70
     0
 62
     7
  6
CONTINUOUS
  0
LAYER
  5
7D
330
2
100
AcDbSymbolTableRecord
100
AcDbLayerTableRecord
  2
PEN50
 70
     0
 62
     7
  6
CONTINUOUS
  0
LAYER
  5
7E
330
2
100
AcDbSymbolTableRecord
100
AcDbLayerTableRecord
  2
PEN35
 70
     0
 62
     2
  6
CONTINUOUS
  0
LAYER
  5
7F
330
2
100
AcDbSymbolTableRecord
100
AcDbLayerTableRecord
  2
PEN25
 70
     0
 62
     3
  6
CONTINUOUS
  0
LAYER
  5
80
330
2
100
AcDbSymbolTableRecord
100
AcDbLayerTableRecord
  2
MAATLIJN
 70
     0
 62
     3
  6
CONTINUOUS
  0
LAYER
  5
C3
330
2
100
AcDbSymbolTableRecord
100
AcDbLayerTableRecord
  2
KADER
 70
     0
 62
     5
  6
CONTINUOUS
  0
LAYER
  5
CA
330
2
100
AcDbSymbolTableRecord
100
AcDbLayerTableRecord
  2
TITELBLOK
 70
     0
 62
     7
  6
CONTINUOUS
  0
LAYER
  5
CB
330
2
100
AcDbSymbolTableRecord
100
AcDbLayerTableRecord
  2
VIEWPORT
 70
     0
 62
     7
  6
CONTINUOUS
  0
LAYER
  5
2DD
330
2
100
AcDbSymbolTableRecord
100
AcDbLayerTableRecord
  2
DEFPOINTS
 70
     0
 62
     7
  6
CONTINUOUS
  0
LAYER
  5
1144
330
2
100
AcDbSymbolTableRecord
100
AcDbLayerTableRecord
  2
ONDERHOEK
 70
     0
 62
     7
  6
CONTINUOUS
  0
ENDTAB
  0
TABLE
  2
STYLE
  5
3
330
0
100
AcDbSymbolTable
 70
     5
  0
STYLE
  5
10
330
3
100
AcDbSymbolTableRecord
100
AcDbTextStyleTableRecord
  2
STANDARD
 70
     0
 40
3.5
 41
1.0
 50
0.0
 71
     0
 42
2.5
  3
isocp.shx
  4

  0
STYLE
  5
E7
330
3
100
AcDbSymbolTableRecord
100
AcDbTextStyleTableRecord
  2
ISO35
 70
     0
 40
35.0
 41
0.85
 50
0.0
 71
     0
 42
2.5
  3
romans.shx
  4

  0
STYLE
  5
E8
330
3
100
AcDbSymbolTableRecord
100
AcDbTextStyleTableRecord
  2
ISO50
 70
     0
 40
50.0
 41
0.85
 50
0.0
 71
     0
 42
2.5
  3
romans.shx
  4

  0
STYLE
  5
E9
330
3
100
AcDbSymbolTableRecord
100
AcDbTextStyleTableRecord
  2
ISO70
 70
     0
 40
70.0
 41
0.85
 50
0.0
 71
     0
 42
2.5
  3
romans.shx
  4

  0
STYLE
  5
FA
330
3
100
AcDbSymbolTableRecord
100
AcDbTextStyleTableRecord
  2
ISO9
 70
     0
 40
0.0
 41
1.0
 50
0.0
 71
     0
 42
2.5
  3
simplex
  4

  0
ENDTAB
  0
TABLE
  2
VIEW
  5
6
330
0
100
AcDbSymbolTable
 70
     0
  0
ENDTAB
  0
TABLE
  2
UCS
  5
7
330
0
100
AcDbSymbolTable
 70
     0
  0
ENDTAB
  0
TABLE
  2
APPID
  5
9
330
0
100
AcDbSymbolTable
 70
     2
  0
APPID
  5
11
330
9
100
AcDbSymbolTableRecord
100
AcDbRegAppTableRecord
  2
ACAD
 70
     0
  0
APPID
  5
19DE
330
9
100
AcDbSymbolTableRecord
100
AcDbRegAppTableRecord
  2
CONTENTBLOCKICON
 70
     0
  0
ENDTAB
  0
TABLE
  2
DIMSTYLE
  5
A
330
0
100
AcDbSymbolTable
 70
     1
  0
DIMSTYLE
105
25
330
A
100
AcDbSymbolTableRecord
100
AcDbDimStyleTableRecord
  2
ISO-35
 70
     0
  3

  4

  5

  6

  7

 40
1.0
 41
3.5
 42
0.875
 43
5.25
 44
1.75
 45
0.0
 46
0.0
 47
0.0
 48
0.0
140
3.5
141
0.0
142
0.0
143
0.0394
144
0.1
145
0.0
146
1.0
147
1.0
 71
     0
 72
     0
 73
     0
 74
     0
 75
     0
 76
     0
 77
     1
 78
     8
170
     0
171
     4
172
     1
173
     0
174
     0
175
     0
176
   256
177
   256
178
     2
270
     8
271
     4
272
     4
273
     8
274
     4
340
E7
275
     0
280
     0
281
     0
282
     0
283
     1
284
     0
285
     0
286
     0
287
     3
288
     0
  0
ENDTAB
  0
TABLE
  2
BLOCK_RECORD
  5
1
330
0
100
AcDbSymbolTable
 70
    19
  0
BLOCK_RECORD
  5
1A
102
{ACAD_XDICTIONARY
360
19D2
102
}
330
1
100
AcDbSymbolTableRecord
100
AcDbBlockTableRecord
  2
*MODEL_SPACE
  0
BLOCK_RECORD
  5
17
102
{ACAD_XDICTIONARY
360
19D0
102
}
330
1
100
AcDbSymbolTableRecord
100
AcDbBlockTableRecord
  2
*PAPER_SPACE
  0
BLOCK_RECORD
  5
8A0
330
1
100
AcDbSymbolTableRecord
100
AcDbBlockTableRecord
  2
D
  0
BLOCK_RECORD
  5
10FD
330
1
100
AcDbSymbolTableRecord
100
AcDbBlockTableRecord
  2
M
1001
CONTENTBLOCKICON
1071
        0
1004
2800000020000000200000000100080000000000000400000000000000000000000000000000000000000000000080000080000000808000800000008000800080800000C0C0C000C0DCC000F0CAA6000020400000206000002080000020A0000020C0000020E00000400000004020000040400000406000004080000040A0
1004
000040C0000040E00000600000006020000060400000606000006080000060A0000060C0000060E00000800000008020000080400000806000008080000080A0000080C0000080E00000A0000000A0200000A0400000A0600000A0800000A0A00000A0C00000A0E00000C0000000C0200000C0400000C0600000C0800000C0
1004
A00000C0C00000C0E00000E0000000E0200000E0400000E0600000E0800000E0A00000E0C00000E0E00040000000400020004000400040006000400080004000A0004000C0004000E00040200000402020004020400040206000402080004020A0004020C0004020E000404000004040200040404000404060004040800040
1004
40A0004040C0004040E00040600000406020004060400040606000406080004060A0004060C0004060E00040800000408020004080400040806000408080004080A0004080C0004080E00040A0000040A0200040A0400040A0600040A0800040A0A00040A0C00040A0E00040C0000040C0200040C0400040C0600040C08000
1004
40C0A00040C0C00040C0E00040E0000040E0200040E0400040E0600040E0800040E0A00040E0C00040E0E00080000000800020008000400080006000800080008000A0008000C0008000E00080200000802020008020400080206000802080008020A0008020C0008020E00080400000804020008040400080406000804080
1004
008040A0008040C0008040E00080600000806020008060400080606000806080008060A0008060C0008060E00080800000808020008080400080806000808080008080A0008080C0008080E00080A0000080A0200080A0400080A0600080A0800080A0A00080A0C00080A0E00080C0000080C0200080C0400080C0600080C0
1004
800080C0A00080C0C00080C0E00080E0000080E0200080E0400080E0600080E0800080E0A00080E0C00080E0E000C0000000C0002000C0004000C0006000C0008000C000A000C000C000C000E000C0200000C0202000C0204000C0206000C0208000C020A000C020C000C020E000C0400000C0402000C0404000C0406000C0
1004
408000C040A000C040C000C040E000C0600000C0602000C0604000C0606000C0608000C060A000C060C000C060E000C0800000C0802000C0804000C0806000C0808000C080A000C080C000C080E000C0A00000C0A02000C0A04000C0A06000C0A08000C0A0A000C0A0C000C0A0E000C0C00000C0C02000C0C04000C0C06000
1004
C0C08000C0C0A000F0FBFF00A56E3A00808080000000FF0000FF000000FFFF00FF000000FF00FF00FFFF0000FFFFFF000000000000000000000000000000000000000000000000000000000000000000000000000000000000000000000000FA00000000000000000000000000000000000000000000000000000000FAFFFF
1004
FFFFFFFFFA0000000000000000000000000000000000000000000000FFFF000000000000FFFF000000000000000000000000000000000000000000FF00000000000000000000FF00000000000000000000000000000000000000FAFF0000000000000000000000FF000000000000000000000000000000000000FF00000000
1004
0000000000000000FF000000000000000000000000000000000000FF000000000000000000000000FAFF00000000000000000000000000000000FF0000000000000000000000000000FF00000000000000000000000000000000FF0000000000000000000000000000FF00000000000000000000000000000000FF00000000
1004
0000FA00000000000000FF00000000000000000000000000000000FF000000FAFA00FAFA00FAFA000000FF00000000000000000000000000000000FF000000FAFAFA00FA00FAFA000000FF00000000000000000000000000000000FF000000FAFAFA0000FAFAFA000000FF00000000000000000000000000000000FF000000
1004
FAFAFAFAFAFAFAFA000000FF00000000000000000000000000000000FF000000FAFA00FAFA00FAFA000000FF00000000000000000000000000000000FF000000FAFAFAFAFAFAFAFA000000FF00000000000000000000000000000000FF000000FA00FAFA00FA00FA000000FF00000000000000000000000000000000FF0000
1004
00FA00FA0000FAFAFA000000FF00000000000000000000000000000000FF000000FAFAFA000000FAFA000000FF00000000000000000000000000000000FF000000FAFA00000000FAFA000000FF00000000000000000000000000000000FF000000FAFA0000000000FA000000FF00000000000000000000000000000000FF00
1004
0000FA000000000000FA000000FF00000000000000000000000000000000FF0000000000000000000000000000FF0000000000000000000000000000000000FF000000000000000000000000FAFF0000000000000000000000000000000000FF000000000000000000000000FF000000000000000000000000000000000000
1004
FAFF0000000000000000000000FF00000000000000000000000000000000000000FF00000000000000000000FF000000000000000000000000000000000000000000FFFF000000000000FFFF0000000000000000000000000000000000000000000000FAFFFFFFFFFFFFFA0000000000000000000000000000000000000000
1004
00000000000000FAFA0000000000000000000000000000000000000000000000000000000000000000000000000000000000000000000000
  0
BLOCK_RECORD
  5
110C
330
1
100
AcDbSymbolTableRecord
100
AcDbBlockTableRecord
  2
M2
1001
CONTENTBLOCKICON
1071
        0
1004
2800000020000000200000000100080000000000000400000000000000000000000000000000000000000000000080000080000000808000800000008000800080800000C0C0C000C0DCC000F0CAA6000020400000206000002080000020A0000020C0000020E00000400000004020000040400000406000004080000040A0
1004
000040C0000040E00000600000006020000060400000606000006080000060A0000060C0000060E00000800000008020000080400000806000008080000080A0000080C0000080E00000A0000000A0200000A0400000A0600000A0800000A0A00000A0C00000A0E00000C0000000C0200000C0400000C0600000C0800000C0
1004
A00000C0C00000C0E00000E0000000E0200000E0400000E0600000E0800000E0A00000E0C00000E0E00040000000400020004000400040006000400080004000A0004000C0004000E00040200000402020004020400040206000402080004020A0004020C0004020E000404000004040200040404000404060004040800040
1004
40A0004040C0004040E00040600000406020004060400040606000406080004060A0004060C0004060E00040800000408020004080400040806000408080004080A0004080C0004080E00040A0000040A0200040A0400040A0600040A0800040A0A00040A0C00040A0E00040C0000040C0200040C0400040C0600040C08000
1004
40C0A00040C0C00040C0E00040E0000040E0200040E0400040E0600040E0800040E0A00040E0C00040E0E00080000000800020008000400080006000800080008000A0008000C0008000E00080200000802020008020400080206000802080008020A0008020C0008020E00080400000804020008040400080406000804080
1004
008040A0008040C0008040E00080600000806020008060400080606000806080008060A0008060C0008060E00080800000808020008080400080806000808080008080A0008080C0008080E00080A0000080A0200080A0400080A0600080A0800080A0A00080A0C00080A0E00080C0000080C0200080C0400080C0600080C0
1004
800080C0A00080C0C00080C0E00080E0000080E0200080E0400080E0600080E0800080E0A00080E0C00080E0E000C0000000C0002000C0004000C0006000C0008000C000A000C000C000C000E000C0200000C0202000C0204000C0206000C0208000C020A000C020C000C020E000C0400000C0402000C0404000C0406000C0
1004
408000C040A000C040C000C040E000C0600000C0602000C0604000C0606000C0608000C060A000C060C000C060E000C0800000C0802000C0804000C0806000C0808000C080A000C080C000C080E000C0A00000C0A02000C0A04000C0A06000C0A08000C0A0A000C0A0C000C0A0E000C0C00000C0C02000C0C04000C0C06000
1004
C0C08000C0C0A000F0FBFF00A56E3A00808080000000FF0000FF000000FFFF00FF000000FF00FF00FFFF0000FFFFFF000000000000000000000000000000000000000000000000000000000000000000000000000000000000000000000000000000000000000000000000000000000000000000000000000000000000FFFF
1004
FFFFFFFF000000000000000000000000000000000000000000000000FFFF000000000000FFFF000000000000000000000000000000000000000000FF00000000000000000000FF0000000000000000000000000000000000000000FF0000000000000000000000FF000000000000000000000000000000000000FF00000000
1004
0000000000000000FF000000000000000000000000000000000000FF00000000000000000000000000FF00000000000000000000000000000000FF0000000000000000000000000000FF00000000000000000000000000000000FF0000000000000000000000000000FF00000000000000000000000000000000FF00000000
1004
00000000000000000000FF00000000000000000000000000000000FF0000000000000000000000000000FF00000000000000000000000000000000FF000000FF0000FF000000FF000000FF00000000000000000000000000000000FF000000FF0000FFFF0000FF000000FF00000000000000000000000000000000FF000000
1004
FF00FF00FF0000FF000000FF00000000000000000000000000000000FF000000FF00FF0000FF00FF000000FF00000000000000000000000000000000FF000000FF00FF0000FF00FF000000FF00000000000000000000000000000000FF000000FFFF00000000FFFF000000FF00000000000000000000000000000000FF0000
1004
00FFFF00000000FFFF000000FF00000000000000000000000000000000FF000000FF000000000000FF000000FF00000000000000000000000000000000FF000000FF000000000000FF000000FF00000000000000000000000000000000FF0000000000000000000000000000FF00000000000000000000000000000000FF00
1004
00000000000000000000000000FF00000000000000000000000000000000FF0000000000000000000000000000FF0000000000000000000000000000000000FF00000000000000000000000000FF0000000000000000000000000000000000FF000000000000000000000000FF000000000000000000000000000000000000
1004
00FF0000000000000000000000FF00000000000000000000000000000000000000FF00000000000000000000FF000000000000000000000000000000000000000000FFFF000000000000FFFF000000000000000000000000000000000000000000000000FFFFFFFFFFFF000000000000000000000000000000000000000000
1004
0000000000000000000000000000000000000000000000000000000000000000000000000000000000000000000000000000000000000000
  0
BLOCK_RECORD
  5
1DE0
330
1
100
AcDbSymbolTableRecord
100
AcDbBlockTableRecord
  2
HEADER2
1001
CONTENTBLOCKICON
1071
        0
1004
2800000020000000200000000100080000000000000400000000000000000000000000000000000000000000000080000080000000808000800000008000800080800000C0C0C000C0DCC000F0CAA6000020400000206000002080000020A0000020C0000020E00000400000004020000040400000406000004080000040A0
1004
000040C0000040E00000600000006020000060400000606000006080000060A0000060C0000060E00000800000008020000080400000806000008080000080A0000080C0000080E00000A0000000A0200000A0400000A0600000A0800000A0A00000A0C00000A0E00000C0000000C0200000C0400000C0600000C0800000C0
1004
A00000C0C00000C0E00000E0000000E0200000E0400000E0600000E0800000E0A00000E0C00000E0E00040000000400020004000400040006000400080004000A0004000C0004000E00040200000402020004020400040206000402080004020A0004020C0004020E000404000004040200040404000404060004040800040
1004
40A0004040C0004040E00040600000406020004060400040606000406080004060A0004060C0004060E00040800000408020004080400040806000408080004080A0004080C0004080E00040A0000040A0200040A0400040A0600040A0800040A0A00040A0C00040A0E00040C0000040C0200040C0400040C0600040C08000
1004
40C0A00040C0C00040C0E00040E0000040E0200040E0400040E0600040E0800040E0A00040E0C00040E0E00080000000800020008000400080006000800080008000A0008000C0008000E00080200000802020008020400080206000802080008020A0008020C0008020E00080400000804020008040400080406000804080
1004
008040A0008040C0008040E00080600000806020008060400080606000806080008060A0008060C0008060E00080800000808020008080400080806000808080008080A0008080C0008080E00080A0000080A0200080A0400080A0600080A0800080A0A00080A0C00080A0E00080C0000080C0200080C0400080C0600080C0
1004
800080C0A00080C0C00080C0E00080E0000080E0200080E0400080E0600080E0800080E0A00080E0C00080E0E000C0000000C0002000C0004000C0006000C0008000C000A000C000C000C000E000C0200000C0202000C0204000C0206000C0208000C020A000C020C000C020E000C0400000C0402000C0404000C0406000C0
1004
408000C040A000C040C000C040E000C0600000C0602000C0604000C0606000C0608000C060A000C060C000C060E000C0800000C0802000C0804000C0806000C0808000C080A000C080C000C080E000C0A00000C0A02000C0A04000C0A06000C0A08000C0A0A000C0A0C000C0A0E000C0C00000C0C02000C0C04000C0C06000
1004
C0C08000C0C0A000F0FBFF00A4A0A000808080000000FF0000FF000000FFFF00FF000000FF00FF00FFFF0000FFFFFF0000000000000000000000000000000000000000000000000000000000000000000000000000000000000000000000000000000000000000000000000000000000000000000000000000000000000000
1004
00000000000000000000000000000000000000000000000000000000000000000000000000000000000000000000000000000000000000000000000000000000000000000000000000000000000000000000000000000000000000000000000000000000000000000000000000000000000000000000000000000000000000
1004
00000000000000000000000000000000000000000000000000000000000000000000000000000000000000000000000000000000000000000000000000000000000000000000000000000000000000000000000000000000000000000000000000000000000000000000000000000000000000000000000000000000000000
1004
0000000000000000000000000000000000000000FCFCFCFCFCFCFCFCFCFEFEFEFCFCFCFCFCFCFCFCFCFCFCFCFCFCFCFCFC000000FCFBFBFBFBFBFEFEFEFEFEFEFEFEFEFEFEFEFEFEFEFEFEFFFFFFFFFFFC000000FCFBFBFBFBFBFEFEFEFEFEFEFEFEFEFEFEFEFEFEFEFEFEFEFEFEFEFEFE000000FCFCFCFCFCFCFCFCFCFCFC
1004
FCFCFEFCFCFCFCFCFCFCFCFCFEFEFEFEFEFC000000FCFFFFFF00000000000000000000000000000000000000FEFEFEFEFEFC000000FCFEFEFF00000000000000000000000000000000000000FCFE00FCFCFC000000FCFEFEFCFCFEFEFCFCFEFEFCFEFEFEFEFCFEFEFEFCFCFEFCFEFEFCFCFCFE0000FEFEFEFEFEFEFEFCFEFE
1004
FEFEFEFEFEFEFEFEFEFEFEFEFEFEFEFEFEFEFE000000FEF0F0F0F0F0F0F0F0F0FEF0F0F0F0F0F0F0F0F0FEF0F0F0F0F0F0FEFE000000FCF0F0F0F0F0F0F0F0F0FEF0F0F0F0F0F0F0F0F0FCF0FEF0F0F0F0FCFC0000000000000000000000000000000000000000000000000000000000000000000000000000000000000000
1004
00000000000000000000000000000000000000000000000000000000000000000000000000000000000000000000000000000000000000000000000000000000000000000000000000000000000000000000000000000000000000000000000000000000000000000000000000000000000000000000000000000000000000
1004
00000000000000000000000000000000000000000000000000000000000000000000000000000000000000000000000000000000000000000000000000000000000000000000000000000000000000000000000000000000000000000000000000000000000000000000000000000000000000000000000000000000000000
1004
0000000000000000000000000000000000000000000000000000000000000000000000000000000000000000000000000000000000000000
  0
ENDTAB
  0
ENDSEC
  0
SECTION
  2
BLOCKS
  0
BLOCK
  5
1B
330
1A
100
AcDbEntity
  8
0
100
AcDbBlockBegin
  2
*MODEL_SPACE
 70
     0
 10
0.0
 20
0.0
 30
0.0
  3
*MODEL_SPACE
  1

  0
ENDBLK
  5
1C
330
1A
100
AcDbEntity
  8
0
100
AcDbBlockEnd
  0
BLOCK
  5
18
330
17
100
AcDbEntity
 67
     1
  8
0
100
AcDbBlockBegin
  2
*PAPER_SPACE
 70
     0
 10
0.0
 20
0.0
 30
0.0
  3
*PAPER_SPACE
  1

  0
ENDBLK
  5
19
330
17
100
AcDbEntity
 67
     1
  8
0
100
AcDbBlockEnd
  0
BLOCK
  5
8A2
330
8A0
100
AcDbEntity
  8
0
100
AcDbBlockBegin
  2
D
 70
     0
 10
0.0
 20
0.0
 30
0.0
  3
D
  1

  0
LWPOLYLINE
  5
8A1
330
8A0
100
AcDbEntity
  8
PEN50
100
AcDbPolyline
 90
        3
 70
     1
 43
0.0
 10
27.19713315167246
 20
-17.08571557199866
 10
-0.1002653825794368
 20
30.19476560378234
 10
-27.39766391683179
 20
-17.08571557199866
  0
ENDBLK
  5
8A3
330
8A0
100
AcDbEntity
  8
0
100
AcDbBlockEnd
  0
BLOCK
  5
110A
330
10FD
100
AcDbEntity
  8
0
100
AcDbBlockBegin
  2
M
 70
     0
 10
0.0
 20
0.0
 30
0.0
  3
M
  1

  0
HATCH
  5
10FE
330
10FD
100
AcDbEntity
  8
PEN25
100
AcDbHatch
 10
0.0
 20
0.0
 30
0.0
210
0.0
220
0.0
230
1.0
  2
SOLID
 70
     1
 71
     0
 91
        2
 92
        7
 72
     1
 73
     1
 93
        4
 10
3321.342581445041
 20
-715.2710564246437
 42
0.0
 10
3321.342581445041
 20
-798.5196659048307
 42
1.0
 10
3404.591190925229
 20
-798.5196659048307
 42
0.0
 10
3404.591190925229
 20
-715.2710564246429
 42
1.0
 97
        0
 92
       22
 72
     0
 73
     1
 93
       10
 10
3385.453557196248
 20
-716.0870934172499
 10
3385.453557196248
 20
-784.8978205639314
 10
3378.453557196248
 20
-784.8978205639313
 10
3378.45355719625
 20
-754.1382180658959
 10
3362.966886185135
 20
-786.9667946452554
 10
3347.480215174024
 20
-754.1382180658956
 10
3347.480215174023
 20
-784.8978205639308
 10
3340.480215174022
 20
-784.8978205639308
 10
3340.480215174024
 20
-716.0870934172501
 10
3362.966886185135
 20
-767.2973617329735
 97
        0
 75
     0
 76
     1
 47
0.3398730762052448
 98
        2
 10
3364.340985227872
 20
-706.4168784452043
 10
3364.340985227872
 20
-706.4168784452043
  0
LWPOLYLINE
  5
10FF
330
10FD
100
AcDbEntity
  8
PEN50
100
AcDbPolyline
 90
        4
 70
     1
 43
0.0
 10
3321.342581445041
 20
-715.2710564246429
 42
-1.0
 10
3404.591190925229
 20
-715.2710564246429
 10
3404.591190925229
 20
-798.5196659048307
 42
-1.0
 10
3321.342581445041
 20
-798.5196659048307
  0
LINE
  5
1100
330
10FD
100
AcDbEntity
  8
MAATLIJN
100
AcDbLine
 10
3385.453557196248
 20
-784.8978205639314
 30
0.0
 11
3385.453557196248
 21
-716.0870934172499
 31
0.0
  0
LINE
  5
1101
330
10FD
100
AcDbEntity
  8
MAATLIJN
100
AcDbLine
 10
3378.453557196248
 20
-784.8978205639313
 30
0.0
 11
3378.453557196248
 21
-754.1382180658959
 31
0.0
  0
LINE
  5
1102
330
10FD
100
AcDbEntity
  8
MAATLIJN
100
AcDbLine
 10
3378.453557196248
 20
-754.1382180658959
 30
0.0
 11
3362.966886185135
 21
-786.9667946452552
 31
0.0
  0
LINE
  5
1103
330
10FD
100
AcDbEntity
  8
MAATLIJN
100
AcDbLine
 10
3347.480215174023
 20
-754.1382180658953
 30
0.0
 11
3362.966886185135
 21
-786.9667946452552
 31
0.0
  0
LINE
  5
1104
330
10FD
100
AcDbEntity
  8
MAATLIJN
100
AcDbLine
 10
3347.480215174022
 20
-784.8978205639308
 30
0.0
 11
3347.480215174023
 21
-754.1382180658953
 31
0.0
  0
LINE
  5
1105
330
10FD
100
AcDbEntity
  8
MAATLIJN
100
AcDbLine
 10
3340.480215174022
 20
-784.8978205639308
 30
0.0
 11
3340.480215174025
 21
-716.0870934172493
 31
0.0
  0
LINE
  5
1106
330
10FD
100
AcDbEntity
  8
MAATLIJN
100
AcDbLine
 10
3340.480215174022
 20
-784.8978205639308
 30
0.0
 11
3347.480215174022
 21
-784.8978205639308
 31
0.0
  0
LINE
  5
1107
330
10FD
100
AcDbEntity
  8
MAATLIJN
100
AcDbLine
 10
3385.453557196248
 20
-784.8978205639314
 30
0.0
 11
3378.453557196248
 21
-784.8978205639313
 31
0.0
  0
LINE
  5
1108
330
10FD
100
AcDbEntity
  8
MAATLIJN
100
AcDbLine
 10
3340.480215174025
 20
-716.0870934172493
 30
0.0
 11
3362.966886185136
 21
-767.2973617329732
 31
0.0
  0
LINE
  5
1109
330
10FD
100
AcDbEntity
  8
MAATLIJN
100
AcDbLine
 10
3385.453557196248
 20
-716.0870934172499
 30
0.0
 11
3362.966886185136
 21
-767.2973617329732
 31
0.0
  0
ENDBLK
  5
110B
330
10FD
100
AcDbEntity
  8
0
100
AcDbBlockEnd
  0
BLOCK
  5
110F
330
110C
100
AcDbEntity
  8
0
100
AcDbBlockBegin
  2
M2
 70
     0
 10
0.0
 20
0.0
 30
0.0
  3
M2
  1

  0
TEXT
  5
110D
330
110C
100
AcDbEntity
  8
PEN50
100
AcDbText
 10
2574.247388172115
 20
-779.6725691775191
 30
0.0
 40
50.0
  1
M
  7
ISO50
100
AcDbText
  0
LWPOLYLINE
  5
110E
330
110C
100
AcDbEntity
  8
PEN50
100
AcDbPolyline
 90
        4
 70
     1
 43
0.0
 10
2561.461782492819
 20
-715.0927695359053
 42
-1.0
 10
2644.710391973007
 20
-715.0927695359053
 10
2644.710391973007
 20
-798.3413790160932
 42
-1.0
 10
2561.461782492819
 20
-798.3413790160932
  0
ENDBLK
  5
1110
330
110C
100
AcDbEntity
  8
0
100
AcDbBlockEnd
  0
BLOCK
  5
1E7E
330
1DE0
100
AcDbEntity
  8
0
100
AcDbBlockBegin
  2
HEADER2
 70
     2
 10
0.0
 20
0.0
 30
0.0
  3
HEADER2
  1

  0
ATTDEF
  5
1DE1
330
1DE0
100
AcDbEntity
  8
0
 62
     7
 48
0.5
100
AcDbText
 10
1574.907559739851
 20
352.7324769029611
 30
0.0
 40
4.799999999999998
  1

 41
0.8
  7
ISO50
100
AcDbAttributeDefinition
  3
Name English:
  2
NAME1
 70
     0
  0
ATTDEF
  5
1DE2
330
1DE0
100
AcDbEntity
  8
0
 62
     7
 48
0.5
100
AcDbText
 10
1574.907559739851
 20
345.2312880554648
 30
0.0
 40
4.799999999999998
  1

 41
0.8
  7
ISO50
100
AcDbAttributeDefinition
  3
Name Czech:
  2
NAME2
 70
     0
  0
ATTDEF
  5
1DE3
330
1DE0
100
AcDbEntity
  8
0
 62
     7
 48
0.5
100
AcDbText
 10
1750.584002654679
 20
326.6415955038165
 30
0.0
 40
5.0
  1

  7
ISO50
 72
     2
 11
1750.584002654679
 21
326.6415955038165
 31
0.0
100
AcDbAttributeDefinition
  3
Drawing number:
  2
DRAWNR
 70
     0
  0
ATTDEF
  5
1DE4
330
1DE0
100
AcDbEntity
  8
0
 62
     4
 48
0.5
100
AcDbText
 10
1643.928840505004
 20
338.6415955038165
 30
0.0
 40
2.5
  1

  7
ISO9
100
AcDbAttributeDefinition
  3
Drawn by:
  2
DRA
 70
     0
  0
ATTDEF
  5
1DE5
330
1DE0
100
AcDbEntity
  8
0
 62
     4
 48
0.5
100
AcDbText
 10
1667.901342458669
 20
338.6415955038165
 30
0.0
 40
2.5
  1

  7
ISO9
100
AcDbAttributeDefinition
  3
Date of drawn
  2
DATDR
 70
     0
  0
ATTDEF
  5
1DE6
330
1DE0
100
AcDbEntity
  8
0
 62
     4
 48
0.5
100
AcDbText
 10
1674.754397364033
 20
332.6415955038165
 30
0.0
 40
2.5
  1

 41
0.9
  7
ISO9
100
AcDbAttributeDefinition
  3
Introduced by tech. change:
  2
INT.TECH.CH.
 70
     0
  0
ATTDEF
  5
1DE7
330
1DE0
100
AcDbEntity
  8
0
 62
     4
 48
0.5
100
AcDbText
 10
1647.558277340935
 20
326.6415955038165
 30
0.0
 40
2.5
  1

 41
0.9
  7
ISO9
100
AcDbAttributeDefinition
  3
Article nrumber:
  2
ART.NR.
 70
     0
  0
ATTDEF
  5
1DE8
330
1DE0
100
AcDbEntity
  8
0
 62
     4
100
AcDbText
 10
1701.405157258711
 20
364.6593323106195
 30
0.0
 40
2.5
  1
NEN-ISO 2768-1 class
  7
ISO9
100
AcDbAttributeDefinition
  3
standard
  2
STANDARD
 70
     0
  0
ATTDEF
  5
1DE9
330
1DE0
100
AcDbEntity
  8
0
 62
     4
100
AcDbText
 10
1748.591121736405
 20
364.6593323106195
 30
0.0
 40
2.5
  1
c
  7
ISO9
100
AcDbAttributeDefinition
  3
Tolerance class
  2
CLASS
 70
     0
  0
ATTDEF
  5
1DEA
330
1DE0
100
AcDbEntity
  8
0
 62
   140
 48
0.5
100
AcDbText
 10
1593.720537869952
 20
375.9785100472736
 30
0.0
 40
2.5
  1

 41
0.8
  7
ISO9
 72
     2
 11
1593.720537869952
 21
375.9785100472736
 31
0.0
100
AcDbAttributeDefinition
  3
Number of change A:
  2
NRA
 70
     0
  0
ATTDEF
  5
1DEB
330
1DE0
100
AcDbEntity
  8
0
 62
   140
 48
0.5
100
AcDbText
 10
1596.457783947283
 20
375.9785100472736
 30
0.0
 40
2.5
  1

 41
0.7
  7
ISO9
100
AcDbAttributeDefinition
  3
Change A developed by:
  2
DEVB
 70
     0
  0
ATTDEF
  5
1DEC
330
1DE0
100
AcDbEntity
  8
0
 62
   140
 48
0.5
100
AcDbText
 10
1609.286577453346
 20
375.9785100472736
 30
0.0
 40
2.5
  1

 41
0.8
  7
ISO9
 72
     1
 11
1609.286577453346
 21
375.9785100472736
 31
0.0
100
AcDbAttributeDefinition
  3
Date of change A:
  2
DATA
 70
     0
  0
ATTDEF
  5
1DED
330
1DE0
100
AcDbEntity
  8
0
 62
   140
 48
0.5
100
AcDbText
 10
1593.720537869952
 20
369.9785100472736
 30
0.0
 40
2.5
  1

 41
0.8
  7
ISO9
 72
     2
 11
1593.720537869952
 21
369.9785100472736
 31
0.0
100
AcDbAttributeDefinition
  3
Number of change B:
  2
NRB
 70
     0
  0
ATTDEF
  5
1DEE
330
1DE0
100
AcDbEntity
  8
0
 62
   140
 48
0.5
100
AcDbText
 10
1596.457783947283
 20
369.9785100472736
 30
0.0
 40
2.5
  1

 41
0.7
  7
ISO9
100
AcDbAttributeDefinition
  3
Change B developed by:
  2
DEVA
 70
     0
  0
ATTDEF
  5
1DEF
330
1DE0
100
AcDbEntity
  8
0
 62
   140
 48
0.5
100
AcDbText
 10
1609.286577453346
 20
369.9785100472736
 30
0.0
 40
2.5
  1

 41
0.8
  7
ISO9
 72
     1
 11
1609.286577453346
 21
369.9785100472736
 31
0.0
100
AcDbAttributeDefinition
  3
Date of change B:
  2
DATB
 70
     0
  0
ATTDEF
  5
1DF0
330
1DE0
100
AcDbEntity
  8
0
 62
   140
 48
0.5
100
AcDbText
 10
1638.720537869952
 20
375.9785100472736
 30
0.0
 40
2.5
  1

 41
0.8
  7
ISO9
 72
     2
 11
1638.720537869952
 21
375.9785100472736
 31
0.0
100
AcDbAttributeDefinition
  3
Number of change C:
  2
NRC
 70
     0
  0
ATTDEF
  5
1DF1
330
1DE0
100
AcDbEntity
  8
0
 62
   140
 48
0.5
100
AcDbText
 10
1641.457783947283
 20
375.9785100472736
 30
0.0
 40
2.5
  1

 41
0.7
  7
ISO9
100
AcDbAttributeDefinition
  3
Change C developed by:
  2
DEVC
 70
     0
  0
ATTDEF
  5
1DF2
330
1DE0
100
AcDbEntity
  8
0
 62
   140
 48
0.5
100
AcDbText
 10
1654.286577453346
 20
375.9785100472736
 30
0.0
 40
2.5
  1

 41
0.8
  7
ISO9
 72
     1
 11
1654.286577453346
 21
375.9785100472736
 31
0.0
100
AcDbAttributeDefinition
  3
Date of change C:
  2
DATC
 70
     0
  0
ATTDEF
  5
1DF3
330
1DE0
100
AcDbEntity
  8
0
 62
   140
 48
0.5
100
AcDbText
 10
1638.720537869952
 20
369.9785100472736
 30
0.0
 40
2.5
  1

 41
0.8
  7
ISO9
 72
     2
 11
1638.720537869952
 21
369.9785100472736
 31
0.0
100
AcDbAttributeDefinition
  3
Number of change D:
  2
NRD
 70
     0
  0
ATTDEF
  5
1DF4
330
1DE0
100
AcDbEntity
  8
0
 62
   140
 48
0.5
100
AcDbText
 10
1641.457783947283
 20
369.9785100472736
 30
0.0
 40
2.5
  1

 41
0.7
  7
ISO9
100
AcDbAttributeDefinition
  3
Change D developed by:
  2
DEVD
 70
     0
  0
ATTDEF
  5
1DF5
330
1DE0
100
AcDbEntity
  8
0
 62
   140
 48
0.5
100
AcDbText
 10
1654.286577453346
 20
369.9785100472736
 30
0.0
 40
2.5
  1

 41
0.8
  7
ISO9
 72
     1
 11
1654.286577453346
 21
369.9785100472736
 31
0.0
100
AcDbAttributeDefinition
  3
Date of change D:
  2
DATD
 70
     0
  0
ATTDEF
  5
1DF6
330
1DE0
100
AcDbEntity
  8
0
 62
   140
 48
0.5
100
AcDbText
 10
1683.720537869952
 20
375.9785100472736
 30
0.0
 40
2.5
  1

 41
0.8
  7
ISO9
 72
     2
 11
1683.720537869952
 21
375.9785100472736
 31
0.0
100
AcDbAttributeDefinition
  3
Number of change E:
  2
NRE
 70
     0
  0
ATTDEF
  5
1DF7
330
1DE0
100
AcDbEntity
  8
0
 62
   140
 48
0.5
100
AcDbText
 10
1686.457783947283
 20
375.9785100472736
 30
0.0
 40
2.5
  1

 41
0.7
  7
ISO9
100
AcDbAttributeDefinition
  3
Change E developed by:
  2
DEVE
 70
     0
  0
ATTDEF
  5
1DF8
330
1DE0
100
AcDbEntity
  8
0
 62
   140
 48
0.5
100
AcDbText
 10
1699.286577453346
 20
375.9785100472736
 30
0.0
 40
2.5
  1

 41
0.8
  7
ISO9
 72
     1
 11
1699.286577453346
 21
375.9785100472736
 31
0.0
100
AcDbAttributeDefinition
  3
Date of change E:
  2
DATE
 70
     0
  0
ATTDEF
  5
1DF9
330
1DE0
100
AcDbEntity
  8
0
 62
   140
 48
0.5
100
AcDbText
 10
1683.720537869952
 20
369.9785100472736
 30
0.0
 40
2.5
  1

 41
0.8
  7
ISO9
 72
     2
 11
1683.720537869952
 21
369.9785100472736
 31
0.0
100
AcDbAttributeDefinition
  3
Number of change F:
  2
NRF
 70
     0
  0
ATTDEF
  5
1DFA
330
1DE0
100
AcDbEntity
  8
0
 62
   140
 48
0.5
100
AcDbText
 10
1686.457783947283
 20
369.9785100472736
 30
0.0
 40
2.5
  1

 41
0.7
  7
ISO9
100
AcDbAttributeDefinition
  3
Change F developed by:
  2
DEVF
 70
     0
  0
ATTDEF
  5
1DFB
330
1DE0
100
AcDbEntity
  8
0
 62
   140
 48
0.5
100
AcDbText
 10
1699.286577453346
 20
369.9785100472736
 30
0.0
 40
2.5
  1

 41
0.8
  7
ISO9
 72
     1
 11
1699.286577453346
 21
369.9785100472736
 31
0.0
100
AcDbAttributeDefinition
  3
Date of change F:
  2
DATF
 70
     0
  0
ATTDEF
  5
1DFC
330
1DE0
100
AcDbEntity
  8
0
 62
   140
 48
0.5
100
AcDbText
 10
1728.720537869952
 20
375.9785100472736
 30
0.0
 40
2.5
  1

 41
0.8
  7
ISO9
 72
     2
 11
1728.720537869952
 21
375.9785100472736
 31
0.0
100
AcDbAttributeDefinition
  3
Number of change G:
  2
NRG
 70
     0
  0
ATTDEF
  5
1DFD
330
1DE0
100
AcDbEntity
  8
0
 62
   140
 48
0.5
100
AcDbText
 10
1731.457783947283
 20
375.9785100472736
 30
0.0
 40
2.5
  1

 41
0.7
  7
ISO9
100
AcDbAttributeDefinition
  3
Change G developed by:
  2
DEVG
 70
     0
  0
ATTDEF
  5
1DFE
330
1DE0
100
AcDbEntity
  8
0
 62
   140
 48
0.5
100
AcDbText
 10
1744.286577453347
 20
375.9785100472736
 30
0.0
 40
2.5
  1

 41
0.8
  7
ISO9
 72
     1
 11
1744.286577453347
 21
375.9785100472736
 31
0.0
100
AcDbAttributeDefinition
  3
Date of change G:
  2
DATG
 70
     0
  0
ATTDEF
  5
1DFF
330
1DE0
100
AcDbEntity
  8
0
 62
   140
 48
0.5
100
AcDbText
 10
1728.720537869952
 20
369.9785100472736
 30
0.0
 40
2.5
  1

 41
0.8
  7
ISO9
 72
     2
 11
1728.720537869952
 21
369.9785100472736
 31
0.0
100
AcDbAttributeDefinition
  3
Number of change H:
  2
NRH
 70
     0
  0
ATTDEF
  5
1E00
330
1DE0
100
AcDbEntity
  8
0
 62
   140
 48
0.5
100
AcDbText
 10
1731.457783947283
 20
369.9785100472736
 30
0.0
 40
2.5
  1

 41
0.7
  7
ISO9
100
AcDbAttributeDefinition
  3
Change H developed by:
  2
DEVH
 70
     0
  0
ATTDEF
  5
1E01
330
1DE0
100
AcDbEntity
  8
0
 62
   140
 48
0.5
100
AcDbText
 10
1744.286577453347
 20
369.9785100472736
 30
0.0
 40
2.5
  1

 41
0.8
  7
ISO9
 72
     1
 11
1744.286577453347
 21
369.9785100472736
 31
0.0
100
AcDbAttributeDefinition
  3
Date of change H:
  2
DATH
 70
     0
  0
ATTDEF
  5
1E02
330
1DE0
100
AcDbEntity
  8
0
 62
     4
 48
0.5
100
AcDbText
 10
1590.793391589978
 20
364.6415955038165
 30
0.0
 40
2.5
  1

  7
ISO9
 72
     1
 11
1590.793391589978
 21
364.6415955038165
 31
0.0
100
AcDbAttributeDefinition
  3
Scale:
  2
X:X
 70
     0
  0
ATTDEF
  5
1E03
330
1DE0
100
AcDbEntity
  8
0
 62
     4
 48
0.5
100
AcDbText
 10
1614.7204940851
 20
364.6415955038165
 30
0.0
 40
2.5
  1
A3
  7
ISO9
 72
     1
 11
1616.863351227958
 21
364.6415955038165
 31
0.0
100
AcDbAttributeDefinition
  3
Format:
  2
AX
 70
     0
  0
ATTDEF
  5
1E04
330
1DE0
100
AcDbEntity
  8
0
 62
     4
 48
0.5
100
AcDbText
 10
1636.078504807597
 20
364.6415955038165
 30
0.0
 40
2.5
  1
mm
  7
ISO9
100
AcDbAttributeDefinition
  3
Units:
  2
MM
 70
     0
  0
ATTDEF
  5
1E05
330
1DE0
100
AcDbEntity
  8
0
 62
     4
 48
0.5
100
AcDbText
 10
1661.323702198667
 20
364.6541546569744
 30
0.0
 40
2.5
  1
1
  7
ISO9
 72
     1
 11
1661.621321246285
 21
364.6541546569744
 31
0.0
100
AcDbAttributeDefinition
  3
Sheet:
  2
X
 70
     0
  0
ATTDEF
  5
1E06
330
1DE0
100
AcDbEntity
  8
0
 62
     4
 48
0.5
100
AcDbText
 10
1672.334222028543
 20
364.6541546569744
 30
0.0
 40
2.5
  1
1
  7
ISO9
 72
     1
 11
1672.631841076162
 21
364.6541546569744
 31
0.0
100
AcDbAttributeDefinition
  3
sheet of
  2
X
 70
     0
  0
ATTDEF
  5
1E07
330
1DE0
100
AcDbEntity
  8
0
 62
     4
 48
0.5
100
AcDbText
 10
1712.449383412926
 20
338.6415955038165
 30
0.0
 40
2.5
  1

  7
ISO9
100
AcDbAttributeDefinition
  3
Project:
  2
PROJECT
 70
     0
  0
LINE
  5
1E08
330
1DE0
100
AcDbEntity
  8
0
 62
     5
100
AcDbLine
 10
1752.835684028694
 20
325.3915955038165
 30
0.0
 11
1752.835684028694
 21
386.3915955038165
 31
0.0
  0
LINE
  5
1E09
330
1DE0
100
AcDbEntity
  8
0
 62
     5
100
AcDbLine
 10
1693.460499315156
 20
325.3915955038165
 30
0.0
 11
1693.460499315156
 21
343.3915955038165
 31
0.0
  0
HATCH
  5
1E0A
330
1DE0
100
AcDbEntity
  8
PEN35
100
AcDbHatch
 10
0.0
 20
0.0
 30
0.0
210
0.0
220
0.0
230
1.0
  2
SOLID
 70
     1
 71
     1
 91
        1
 92
        7
 72
     0
 73
     1
 93
       12
 10
1589.351101239901
 20
334.2149208431028
 10
1591.729937228824
 20
334.2149208431028
 10
1591.729937228824
 20
336.2037480861713
 10
1593.9636714856
 20
336.2037480861713
 10
1593.9636714856
 20
334.2149208431028
 10
1596.342507474525
 20
334.2149208431028
 10
1596.342507474525
 20
339.257870208765
 10
1593.9636714856
 20
339.257870208765
 10
1593.9636714856
 20
337.524254918684
 10
1591.729937228824
 20
337.524254918684
 10
1591.729937228824
 20
339.257870208765
 10
1589.351101239901
 20
339.257870208765
 97
       12
330
1E3A
330
1E3C
330
1E3E
330
1E3B
330
1E31
330
1E0D
330
1E1F
330
1E0F
330
1E3D
330
1E11
330
1E23
330
1E14
 75
     0
 76
     1
 47
0.0260242575940313
 98
        1
 10
1590.012293420133
 20
337.3128351844781
  0
LINE
  5
1E0B
330
1DE0
100
AcDbEntity
  8
PEN35
100
AcDbLine
 10
1588.139604907036
 20
339.257870208765
 30
0.0
 11
1588.139604907036
 21
334.2149208431028
 31
0.0
  0
LINE
  5
1E0C
330
1DE0
100
AcDbEntity
  8
PEN35
100
AcDbLine
 10
1585.746969700577
 20
339.257870208765
 30
0.0
 11
1585.746969700577
 21
334.2149208431028
 31
0.0
  0
LINE
  5
1E0D
102
{ACAD_REACTORS
330
1E0A
102
}
330
1DE0
100
AcDbEntity
  8
PEN35
100
AcDbLine
 10
1589.351101239901
 20
339.257870208765
 30
0.0
 11
1589.351101239901
 21
334.2149208431028
 31
0.0
  0
SPLINE
  5
1E0E
330
1DE0
100
AcDbEntity
  8
PEN35
 48
0.3
100
AcDbSpline
210
0.0
220
0.0
230
1.0
 70
     8
 71
     3
 72
    19
 73
    15
 74
    13
 42
0.0000000001
 43
0.0000000001
 44
0.0000000001
 40
0.0
 40
0.0
 40
0.0
 40
0.0
 40
0.236797794088367
 40
0.5165103882797896
 40
0.6527766292696628
 40
0.7582887334210142
 40
0.9063525627927939
 40
1.102026011344991
 40
1.300684994923025
 40
1.4404688848558
 40
1.724999922610563
 40
1.923884914496371
 40
2.026434802326252
 40
2.135011205997556
 40
2.135011205997556
 40
2.135011205997556
 40
2.135011205997556
 10
1581.719767301511
 20
335.9521317220442
 30
0.0
 10
1581.794653077375
 20
335.9270326619851
 30
0.0
 10
1581.957996157985
 20
335.8722858460087
 30
0.0
 10
1582.151779874514
 20
335.7694616490689
 30
0.0
 10
1582.280088490501
 20
335.6455792512276
 30
0.0
 10
1582.326036342291
 20
335.5222508268892
 30
0.0
 10
1582.378697519136
 20
335.3825656072633
 30
0.0
 10
1582.422738265315
 20
335.2067174206503
 30
0.0
 10
1582.455916696113
 20
335.0314249475979
 30
0.0
 10
1582.464090070085
 20
334.8234092197547
 30
0.0
 10
1582.494381439014
 20
334.6189239833886
 30
0.0
 10
1582.529230717617
 20
334.4231957167211
 30
0.0
 10
1582.601203611426
 20
334.3058414780967
 30
0.0
 10
1582.637709632787
 20
334.2457990174697
 30
0.0
 10
1582.656483668382
 20
334.2149208431026
 30
0.0
 11
1581.719767301511
 21
335.9521317220442
 31
0.0
 11
1581.942320393713
 21
335.8712409534956
 31
0.0
 11
1582.18480523385
 21
335.7318127007898
 31
0.0
 11
1582.277811181701
 21
335.6322216264004
 31
0.0
 11
1582.320992880394
 21
335.5359504208381
 31
0.0
 11
1582.370819177824
 21
335.3965221681321
 31
0.0
 11
1582.42064342698
 21
335.2072983782314
 31
0.0
 11
1582.453860275842
 21
335.0114360982796
 31
0.0
 11
1582.463825125673
 21
334.8720078455738
 31
0.0
 11
1582.500364273903
 21
334.5898327189372
 31
0.0
 11
1582.550190571333
 21
334.3972903078121
 31
0.0
 11
1582.600014820489
 21
334.3076575923006
 31
0.0
 11
1582.656483668382
 21
334.2149208431026
 31
0.0
  0
LINE
  5
1E0F
102
{ACAD_REACTORS
330
1E0A
102
}
330
1DE0
100
AcDbEntity
  8
PEN35
100
AcDbLine
 10
1591.729937228824
 20
336.2037480861713
 30
0.0
 11
1591.729937228824
 21
334.2149208431028
 31
0.0
  0
SPLINE
  5
1E10
330
1DE0
100
AcDbEntity
  8
PEN35
100
AcDbSpline
210
0.0
220
0.0
230
1.0
 70
     8
 71
     3
 72
    20
 73
    16
 74
    14
 42
0.0000000001
 43
0.0000000001
 44
0.0000000001
 40
0.0
 40
0.0
 40
0.0
 40
0.0
 40
0.227952557260397
 40
0.4031385613843768
 40
0.5714583299482414
 40
0.8347502372946102
 40
1.17760985726335
 40
1.422753844613692
 40
1.624932403642939
 40
2.083506836839025
 40
2.391523832286269
 40
2.537797208980192
 40
2.686157665419165
 40
2.798165504679718
 40
2.86818859495652
 40
2.86818859495652
 40
2.86818859495652
 40
2.86818859495652
 10
1583.768663323215
 20
336.5732790547348
 30
0.0
 10
1583.843071181301
 20
336.5543494764792
 30
0.0
 10
1583.974662935413
 20
336.5208721466468
 30
0.0
 10
1584.131780588617
 20
336.4100746983921
 30
0.0
 10
1584.300557184795
 20
336.2981576933719
 30
0.0
 10
1584.476591535092
 20
336.1071071559496
 30
0.0
 10
1584.649773989912
 20
335.8783704689269
 30
0.0
 10
1584.737106735917
 20
335.6277350935723
 30
0.0
 10
1584.81675949445
 20
335.3364134078066
 30
0.0
 10
1584.852575294905
 20
335.0145075752138
 30
0.0
 10
1584.879046293021
 20
334.7103941137985
 30
0.0
 10
1584.930161520998
 20
334.5161250061519
 30
0.0
 10
1584.969725031823
 20
334.3853989685963
 30
0.0
 10
1585.02894802631
 20
334.2917682542609
 30
0.0
 10
1585.053551876961
 20
334.2362698111255
 30
0.0
 10
1585.063016409498
 20
334.2149208431026
 30
0.0
 11
1583.768663323215
 21
336.5732790547348
 31
0.0
 11
1583.985251843432
 21
336.502203170838
 31
0.0
 11
1584.133954440124
 21
336.4095874390303
 31
0.0
 11
1584.270803678957
 21
336.3115883047473
 31
0.0
 11
1584.455777100068
 21
336.1242184513657
 31
0.0
 11
1584.651077915395
 21
335.8424201005222
 31
0.0
 11
1584.738819800743
 21
335.6135163301523
 31
0.0
 11
1584.791063060722
 21
335.4182042426669
 31
0.0
 11
1584.855954408616
 21
334.9642443063844
 31
0.0
 11
1584.895393911905
 21
334.6587627274558
 31
0.0
 11
1584.930890489
 21
334.516861727657
 31
0.0
 11
1584.980190380181
 21
334.3769319389613
 31
0.0
 11
1585.033435245826
 21
334.2783888502221
 31
0.0
 11
1585.063016409498
 21
334.2149208431026
 31
0.0
  0
LINE
  5
1E11
102
{ACAD_REACTORS
330
1E0A
102
}
330
1DE0
100
AcDbEntity
  8
PEN35
100
AcDbLine
 10
1593.9636714856
 20
336.2037480861713
 30
0.0
 11
1593.9636714856
 21
334.2149208431028
 31
0.0
  0
HATCH
  5
1E12
330
1DE0
100
AcDbEntity
  8
PEN35
100
AcDbHatch
 10
0.0
 20
0.0
 30
0.0
210
0.0
220
0.0
230
1.0
  2
SOLID
 70
     1
 71
     1
 91
        2
 92
        5
 93
        1
 72
     3
 10
1601.225432391653
 20
336.7114435705642
 11
-3.907920176589856
 21
0.0
 40
0.651606615062177
 50
0.0
 51
360.0
 73
     1
 97
        1
330
1E13
 92
       20
 93
        1
 72
     3
 10
1601.225432391653
 20
336.7114435705642
 11
-1.490841924782149
 21
0.0
 40
0.8858773942186537
 50
0.0
 51
360.0
 73
     1
 97
        1
330
1E3F
 75
     0
 76
     1
 47
0.0771951366810536
 98
        2
 10
1598.472822977713
 20
336.9169916561366
 10
1598.472822977713
 20
336.9169916561366
  0
ELLIPSE
  5
1E13
102
{ACAD_REACTORS
330
1E12
102
}
330
1DE0
100
AcDbEntity
  8
PEN35
100
AcDbEllipse
 10
1601.225432391653
 20
336.7114435705642
 30
0.0
 11
-3.907920176589855
 21
0.0
 31
0.0
210
0.0
220
0.0
230
1.0
 40
0.651606615062177
 41
-3.141592653589792
 42
3.141592653589792
  0
LINE
  5
1E14
102
{ACAD_REACTORS
330
1E0A
102
}
330
1DE0
100
AcDbEntity
  8
PEN35
100
AcDbLine
 10
1596.342507474525
 20
339.257870208765
 30
0.0
 11
1596.342507474525
 21
334.2149208431028
 31
0.0
  0
LINE
  5
1E15
330
1DE0
100
AcDbEntity
  8
0
 62
     5
100
AcDbLine
 10
1628.14952855463
 20
325.3915955038165
 30
0.0
 11
1628.14952855463
 21
343.3915955038165
 31
0.0
  0
TEXT
  5
1E16
330
1DE0
100
AcDbEntity
  8
0
 62
     4
 48
0.5
100
AcDbText
 10
1609.500042900237
 20
332.7912705980189
 30
0.0
 40
2.5
  1
HOLLAND
  7
ISO9
100
AcDbText
  0
TEXT
  5
1E17
330
1DE0
100
AcDbEntity
  8
0
 62
     4
100
AcDbText
 10
1629.68060451551
 20
332.6415955038165
 30
0.0
 40
2.5
  1
Introduced by tech. change:
 41
0.8
  7
ISO9
100
AcDbText
  0
LINE
  5
1E18
330
1DE0
100
AcDbEntity
  8
PEN35
100
AcDbLine
 10
1577.746377139805
 20
339.257870208765
 30
0.0
 11
1577.746377139805
 21
334.2149208431028
 31
0.0
  0
LINE
  5
1E19
330
1DE0
100
AcDbEntity
  8
PEN35
 48
0.3
100
AcDbLine
 10
1580.132703664359
 20
335.9521317220445
 30
0.0
 11
1580.132703664359
 21
334.2149208431028
 31
0.0
  0
HATCH
  5
1E1A
330
1DE0
100
AcDbEntity
  8
PEN35
100
AcDbHatch
 10
0.0
 20
0.0
 30
0.0
210
0.0
220
0.0
230
1.0
  2
SOLID
 70
     1
 71
     0
 91
        3
 92
        5
 93
       11
 72
     4
 94
        3
 73
     0
 74
     0
 95
       26
 96
       22
 40
0.0
 40
0.0
 40
0.0
 40
0.0
 40
0.1938858320758119
 40
0.3808447229145805
 40
0.5410256283131356
 40
0.6929199105673299
 40
0.8106590682875525
 40
0.9783764583576555
 40
1.203583434493034
 40
1.398944926878016
 40
1.543444449008661
 40
1.696985395481067
 40
1.834295609900397
 40
1.970646426034203
 40
2.083190746855136
 40
2.299899171930241
 40
2.399742089732415
 40
2.530937720351988
 40
2.659906045281029
 40
2.821811645321787
 40
2.886808679683809
 40
2.886808679683809
 40
2.886808679683809
 40
2.886808679683809
 10
1583.768663323215
 20
336.5732790547348
 10
1583.859258270902
 20
336.6076093610865
 10
1584.037211488937
 20
336.6750434581018
 10
1584.262047399153
 20
336.8230429714424
 10
1584.473208891567
 20
336.9608006756648
 10
1584.589779698792
 20
337.1440416724968
 10
1584.715076839539
 20
337.3212678337419
 10
1584.813262611715
 20
337.5611046254018
 10
1584.827458760024
 20
337.8547379532899
 10
1584.822018623988
 20
338.1417863763209
 10
1584.705091813828
 20
338.3633041295913
 10
1584.571252913491
 20
338.534260874609
 10
1584.414300737765
 20
338.6781318775086
 10
1584.280224125541
 20
338.8164567180341
 10
1584.088513022654
 20
338.9487929125002
 10
1583.892482311409
 20
339.0358718814104
 10
1583.683178395703
 20
339.1129796028741
 10
1583.507536406536
 20
339.1502029132007
 10
1583.303691210562
 20
339.200256818611
 10
1583.130294744818
 20
339.2372360716678
 10
1583.018516603637
 20
339.2532756241816
 10
1582.98649737344
 20
339.2578702087648
 72
     1
 10
1582.98649737344
 20
339.2578702087648
 11
1580.132703664359
 21
339.2578702087648
 72
     1
 10
1580.132703664359
 20
339.2578702087648
 11
1580.132703664359
 21
338.0434120384078
 72
     1
 10
1580.132703664359
 20
338.043412038408
 11
1581.603034155214
 21
338.043412038408
 72
     4
 94
        3
 73
     0
 74
     0
 95
       17
 96
       13
 40
0.0
 40
0.0
 40
0.0
 40
0.0
 40
0.2266844843515757
 40
0.3608373816137016
 40
0.4776769526420209
 40
0.5591233380659153
 40
0.6937514571801274
 40
0.8251323099119172
 40
0.9650419317026424
 40
1.10589420842586
 40
1.209051676877904
 40
1.38624037934858
 40
1.38624037934858
 40
1.38624037934858
 40
1.38624037934858
 10
1581.603034155214
 20
338.043412038408
 10
1581.715090762015
 20
338.0310310324518
 10
1581.893462972651
 20
338.0113228914924
 10
1582.127919242496
 20
337.9656629741834
 10
1582.277070995278
 20
337.8850222322881
 10
1582.385310081446
 20
337.754983824338
 10
1582.426203415456
 20
337.5802891495551
 10
1582.387094376673
 20
337.3707379357381
 10
1582.220729295555
 20
337.2316898796156
 10
1582.044840177464
 20
337.1586629145958
 10
1581.84363210534
 20
337.0969510674762
 10
1581.704436889822
 20
337.082737078906
 10
1581.616460587001
 20
337.0737533350459
 72
     1
 10
1581.616460587001
 20
337.0737533350459
 11
1580.132703664359
 21
337.0737533350459
 72
     1
 10
1580.132703664359
 20
337.0737533350459
 11
1580.132703664359
 21
335.9521317220445
 72
     1
 10
1580.132703664359
 20
335.9521317220442
 11
1581.719767301511
 21
335.9521317220442
 72
     4
 94
        3
 73
     0
 74
     0
 95
       19
 96
       15
 40
0.0
 40
0.0
 40
0.0
 40
0.0
 40
0.158618849274651
 40
0.3459841496530026
 40
0.4372620030801704
 40
0.5079392178300328
 40
0.6071196782077451
 40
0.7381914112128242
 40
0.871263002924628
 40
0.9648971512225308
 40
1.155490082906284
 40
1.288713066136925
 40
1.357406042198836
 40
1.430135876000646
 40
1.430135876000646
 40
1.430135876000646
 40
1.430135876000646
 10
1581.719767301511
 20
335.9521317220442
 10
1581.794653077374
 20
335.9270326619853
 10
1581.957996157986
 20
335.8722858460083
 10
1582.151779874515
 20
335.7694616490693
 10
1582.280088490501
 20
335.6455792512271
 10
1582.326036342291
 20
335.5222508268893
 10
1582.378697519136
 20
335.382565607263
 10
1582.422738265315
 20
335.2067174206503
 10
1582.455916696113
 20
335.0314249475979
 10
1582.464090070086
 20
334.8234092197547
 10
1582.494381439015
 20
334.6189239833888
 10
1582.529230717617
 20
334.4231957167211
 10
1582.601203611426
 20
334.305841478097
 10
1582.637709632787
 20
334.2457990174696
 10
1582.656483668382
 20
334.2149208431026
 72
     1
 10
1582.656483668382
 20
334.2149208431026
 11
1585.063016409498
 21
334.2149208431026
 72
     4
 94
        3
 73
     0
 74
     0
 95
       20
 96
       16
 40
0.0
 40
0.0
 40
0.0
 40
0.0
 40
0.0469049217502482
 40
0.1219333004632281
 40
0.2213124562900435
 40
0.3192935830992569
 40
0.5256185683591834
 40
0.8327943559560376
 40
0.9682235330084186
 40
1.132433074443565
 40
1.362097369212377
 40
1.538463283123843
 40
1.651212171273838
 40
1.768560402874024
 40
1.921254275977956
 40
1.921254275977956
 40
1.921254275977956
 40
1.921254275977956
 10
1585.063016409498
 20
334.2149208431026
 10
1585.053551876961
 20
334.2362698111256
 10
1585.028948026311
 20
334.2917682542611
 10
1584.969725031824
 20
334.385398968596
 10
1584.930161520999
 20
334.5161250061522
 10
1584.879046293021
 20
334.7103941137983
 10
1584.852575294905
 20
335.0145075752138
 10
1584.81675949445
 20
335.3364134078066
 10
1584.737106735917
 20
335.6277350935724
 10
1584.649773989911
 20
335.8783704689266
 10
1584.476591535091
 20
336.1071071559495
 10
1584.300557184796
 20
336.2981576933722
 10
1584.131780588617
 20
336.4100746983916
 10
1583.974662935412
 20
336.5208721466468
 10
1583.8430711813
 20
336.5543494764792
 10
1583.768663323215
 20
336.5732790547348
 97
        0
 92
        7
 72
     0
 73
     1
 93
        6
 10
1580.132703664359
 20
338.043412038408
 10
1580.132703664359
 20
339.2578702087648
 10
1577.746377139805
 20
339.2578702087648
 10
1577.746377139805
 20
334.2149208431026
 10
1580.132703664359
 20
334.2149208431026
 10
1580.132703664359
 20
337.0737533350459
 97
        0
 92
        7
 72
     0
 73
     1
 93
        4
 10
1588.139604907036
 20
339.2578702087648
 10
1585.746969700577
 20
339.2578702087648
 10
1585.746969700577
 20
334.2149208431026
 10
1588.139604907036
 20
334.2149208431026
 97
        0
 75
     0
 76
     1
 47
0.0115667720308571
 98
        3
 10
1581.077643690741
 20
338.5627951683387
 10
1578.883335849121
 20
337.6648735879666
 10
1587.021275836279
 20
337.4749286017959
  0
LINE
  5
1E1B
330
1DE0
100
AcDbEntity
  8
0
 62
     5
100
AcDbLine
 10
1572.835684028692
 20
325.3915955038165
 30
0.0
 11
1572.835684028692
 21
386.3915955038165
 31
0.0
  0
TEXT
  5
1E1C
330
1DE0
100
AcDbEntity
  8
0
 62
     4
100
AcDbText
 10
1695.303988022466
 20
333.2114297509072
 30
0.0
 40
2.5
  1
Drawing nr.:
  7
ISO9
100
AcDbText
  0
TEXT
  5
1E1D
330
1DE0
100
AcDbEntity
  8
0
 62
     4
 48
0.5
100
AcDbText
 10
1575.381340234188
 20
327.6572281228653
 30
0.0
 40
2.0
  1
TEL:(0)13 5728728  FAX:(0)13 5720262
 41
0.8
  7
ISO9
100
AcDbText
  0
LINE
  5
1E1E
330
1DE0
100
AcDbEntity
  8
0
 62
     5
100
AcDbLine
 10
1572.835684028692
 20
325.3915955038165
 30
0.0
 11
1752.835684028694
 21
325.3915955038165
 31
0.0
  0
LINE
  5
1E1F
102
{ACAD_REACTORS
330
1E0A
102
}
330
1DE0
100
AcDbEntity
  8
PEN35
 48
0.3
100
AcDbLine
 10
1589.351101239901
 20
334.2149208431028
 30
0.0
 11
1591.729937228824
 21
334.2149208431028
 31
0.0
  0
LINE
  5
1E20
330
1DE0
100
AcDbEntity
  8
PEN35
 48
0.3
100
AcDbLine
 10
1582.656483668382
 20
334.2149208431028
 30
0.0
 11
1585.063016409498
 21
334.2149208431028
 31
0.0
  0
LINE
  5
1E21
330
1DE0
100
AcDbEntity
  8
PEN35
 48
0.3
100
AcDbLine
 10
1585.746969700577
 20
334.2149208431028
 30
0.0
 11
1588.139604907036
 21
334.2149208431028
 31
0.0
  0
LINE
  5
1E22
330
1DE0
100
AcDbEntity
  8
PEN35
 48
0.3
100
AcDbLine
 10
1577.746377139805
 20
334.2149208431028
 30
0.0
 11
1580.132703664359
 21
334.2149208431028
 31
0.0
  0
LINE
  5
1E23
102
{ACAD_REACTORS
330
1E0A
102
}
330
1DE0
100
AcDbEntity
  8
PEN35
 48
0.3
100
AcDbLine
 10
1593.9636714856
 20
334.2149208431028
 30
0.0
 11
1596.342507474525
 21
334.2149208431028
 31
0.0
  0
LINE
  5
1E24
330
1DE0
100
AcDbEntity
  8
0
 62
     4
100
AcDbLine
 10
1628.14952855463
 20
331.3915955038165
 30
0.0
 11
1693.460499315156
 21
331.3915955038165
 31
0.0
  0
TEXT
  5
1E25
330
1DE0
100
AcDbEntity
  8
0
 62
     4
100
AcDbText
 10
1629.348576781173
 20
326.6415955038165
 30
0.0
 40
2.5
  1
Article nr.:
 41
0.8
  7
ISO9
100
AcDbText
  0
TEXT
  5
1E26
330
1DE0
100
AcDbEntity
  8
0
 62
     4
 48
0.5
100
AcDbText
 10
1609.500042900237
 20
338.0150074063391
 30
0.0
 40
2.5
  1
TILBURG
  7
ISO9
100
AcDbText
  0
LINE
  5
1E27
330
1DE0
100
AcDbEntity
  8
0
 62
     5
100
AcDbLine
 10
1572.835684028692
 20
343.3915955038165
 30
0.0
 11
1752.835684028694
 21
343.3915955038165
 31
0.0
  0
LINE
  5
1E28
330
1DE0
100
AcDbEntity
  8
0
 62
     4
100
AcDbLine
 10
1572.835684028692
 20
374.3915955038165
 30
0.0
 11
1752.835684028694
 21
374.3915955038165
 31
0.0
  0
LINE
  5
1E29
330
1DE0
100
AcDbEntity
  8
0
 62
     5
100
AcDbLine
 10
1572.835684028692
 20
368.3915955038165
 30
0.0
 11
1752.835684028694
 21
368.3915955038165
 31
0.0
  0
LINE
  5
1E2A
330
1DE0
100
AcDbEntity
  8
0
 62
     5
100
AcDbLine
 10
1572.835684028692
 20
363.3915955038165
 30
0.0
 11
1752.835684028694
 21
363.3915955038165
 31
0.0
  0
LINE
  5
1E2B
330
1DE0
100
AcDbEntity
  8
0
 62
     4
100
AcDbLine
 10
1572.835684028692
 20
380.3915955038165
 30
0.0
 11
1752.835684028694
 21
380.3915955038165
 31
0.0
  0
LINE
  5
1E2C
330
1DE0
100
AcDbEntity
  8
0
 62
     5
100
AcDbLine
 10
1572.835684028692
 20
386.3915955038165
 30
0.0
 11
1752.835684028694
 21
386.3915955038165
 31
0.0
  0
TEXT
  5
1E2D
330
1DE0
100
AcDbEntity
  8
0
 62
   140
100
AcDbText
 10
1579.465084024603
 20
381.6415955038165
 30
0.0
 40
2.5
  1
Change nr.
 41
0.7
  7
ISO9
100
AcDbText
  0
LINE
  5
1E2E
330
1DE0
100
AcDbEntity
  8
0
 62
     4
100
AcDbLine
 10
1578.585546643136
 20
368.3915955038165
 30
0.0
 11
1578.585546643136
 21
386.3915955038165
 31
0.0
  0
LINE
  5
1E2F
330
1DE0
100
AcDbEntity
  8
0
 62
     4
100
AcDbLine
 10
1594.725816617243
 20
368.3915955038165
 30
0.0
 11
1594.725816617243
 21
386.3915955038165
 31
0.0
  0
LINE
  5
1E30
330
1DE0
100
AcDbEntity
  8
0
 62
     4
100
AcDbLine
 10
1600.95181830044
 20
368.3915955038165
 30
0.0
 11
1600.95181830044
 21
386.3915955038165
 31
0.0
  0
LINE
  5
1E31
102
{ACAD_REACTORS
330
1E0A
102
}
330
1DE0
100
AcDbEntity
  8
PEN35
100
AcDbLine
 10
1589.351101239901
 20
339.257870208765
 30
0.0
 11
1591.729937228824
 21
339.257870208765
 31
0.0
  0
SPLINE
  5
1E32
330
1DE0
100
AcDbEntity
  8
PEN35
100
AcDbSpline
210
0.0
220
0.0
230
1.0
 70
     8
 71
     3
 72
    26
 73
    22
 74
    20
 42
0.0000000001
 43
0.0000000001
 44
0.0000000001
 40
0.0
 40
0.0
 40
0.0
 40
0.0
 40
0.2894469197734871
 40
0.5685527961456729
 40
0.8076825416126808
 40
1.034441411299558
 40
1.210211018464274
 40
1.460591778257255
 40
1.796797187677888
 40
2.088447080853625
 40
2.304166512962873
 40
2.533383643166764
 40
2.738370352054627
 40
2.941924801164724
 40
3.109939176690809
 40
3.433457328870736
 40
3.582510123031044
 40
3.778368534983453
 40
3.970901862455252
 40
4.212606357952346
 40
4.309638674285534
 40
4.309638674285534
 40
4.309638674285534
 40
4.309638674285534
 10
1583.768663323215
 20
336.5732790547348
 30
0.0
 10
1583.859258270902
 20
336.6076093610867
 30
0.0
 10
1584.037211488937
 20
336.6750434581021
 30
0.0
 10
1584.262047399153
 20
336.8230429714419
 30
0.0
 10
1584.473208891566
 20
336.9608006756656
 30
0.0
 10
1584.589779698793
 20
337.1440416724964
 30
0.0
 10
1584.715076839538
 20
337.3212678337423
 30
0.0
 10
1584.813262611715
 20
337.5611046254017
 30
0.0
 10
1584.827458760024
 20
337.8547379532897
 30
0.0
 10
1584.822018623989
 20
338.141786376321
 30
0.0
 10
1584.705091813828
 20
338.3633041295914
 30
0.0
 10
1584.571252913491
 20
338.5342608746092
 30
0.0
 10
1584.414300737763
 20
338.6781318775081
 30
0.0
 10
1584.280224125541
 20
338.8164567180342
 30
0.0
 10
1584.088513022654
 20
338.9487929125003
 30
0.0
 10
1583.892482311408
 20
339.0358718814103
 30
0.0
 10
1583.683178395702
 20
339.1129796028741
 30
0.0
 10
1583.507536406537
 20
339.1502029132009
 30
0.0
 10
1583.303691210562
 20
339.2002568186109
 30
0.0
 10
1583.130294744818
 20
339.2372360716675
 30
0.0
 10
1583.018516603637
 20
339.2532756241818
 30
0.0
 10
1582.98649737344
 20
339.257870208765
 30
0.0
 11
1583.768663323215
 21
336.5732790547348
 31
0.0
 11
1584.035346464671
 21
336.6857940378703
 31
0.0
 11
1584.273937537178
 21
336.8306194166734
 31
0.0
 11
1584.46422417935
 21
336.9754435478741
 31
0.0
 11
1584.600350377693
 21
337.156797464585
 31
0.0
 11
1584.69618294276
 21
337.3041442469573
 31
0.0
 11
1584.790172061816
 21
337.5362144311119
 31
0.0
 11
1584.824107854623
 21
337.8707027557068
 31
0.0
 11
1584.795997351214
 21
338.1609947807221
 31
0.0
 11
1584.702299086973
 21
338.3553025486263
 31
0.0
 11
1584.561402460007
 21
338.5361025300651
 31
0.0
 11
1584.415342135932
 21
338.6799285796946
 31
0.0
 11
1584.267135221393
 21
338.8194603833636
 31
0.0
 11
1584.129667404009
 21
338.9160597082427
 31
0.0
 11
1583.837518080035
 21
339.0550300910279
 31
0.0
 11
1583.696953273351
 21
339.1046110406846
 31
0.0
 11
1583.506775189666
 21
339.1514385328067
 31
0.0
 11
1583.319354081904
 21
339.1955113197916
 31
0.0
 11
1583.082454883182
 21
339.2434678916909
 31
0.0
 11
1582.98649737344
 21
339.257870208765
 31
0.0
  0
SPLINE
  5
1E33
330
1DE0
100
AcDbEntity
  8
PEN35
100
AcDbSpline
210
0.0
220
0.0
230
1.0
 70
     8
 71
     3
 72
    17
 73
    13
 74
    11
 42
0.0000000001
 43
0.0000000001
 44
0.0000000001
 40
0.0
 40
0.0
 40
0.0
 40
0.0
 40
0.3384111415132907
 40
0.5386843769294182
 40
0.7131110154294836
 40
0.8347001234901188
 40
1.035682804768695
 40
1.231817729808178
 40
1.440685023722882
 40
1.650959581714344
 40
1.804960578978289
 40
2.069480805133133
 40
2.069480805133133
 40
2.069480805133133
 40
2.069480805133133
 10
1581.603034155214
 20
338.043412038408
 30
0.0
 10
1581.715090762015
 20
338.031031032452
 30
0.0
 10
1581.893462972651
 20
338.0113228914925
 30
0.0
 10
1582.127919242495
 20
337.9656629741836
 30
0.0
 10
1582.277070995278
 20
337.8850222322879
 30
0.0
 10
1582.385310081447
 20
337.7549838243385
 30
0.0
 10
1582.426203415455
 20
337.580289149555
 30
0.0
 10
1582.387094376674
 20
337.3707379357379
 30
0.0
 10
1582.220729295555
 20
337.231689879616
 30
0.0
 10
1582.044840177465
 20
337.1586629145957
 30
0.0
 10
1581.843632105339
 20
337.0969510674762
 30
0.0
 10
1581.704436889822
 20
337.082737078906
 30
0.0
 10
1581.616460587001
 20
337.0737533350459
 30
0.0
 11
1581.603034155214
 21
338.043412038408
 31
0.0
 11
1581.938705191256
 21
338.0004346459476
 31
0.0
 11
1582.133393572851
 21
337.9534686700076
 31
0.0
 11
1582.284445539069
 21
337.866245073889
 31
0.0
 11
1582.361651106324
 21
337.7723131220092
 31
0.0
 11
1582.41200176173
 21
337.5777396148863
 31
0.0
 11
1582.368363298081
 21
337.3865209094452
 31
0.0
 11
1582.217311331861
 21
337.242268179944
 31
0.0
 11
1582.025980070282
 21
337.1550458314271
 31
0.0
 11
1581.878283175805
 21
337.111434657169
 31
0.0
 11
1581.616460587001
 21
337.0737533350459
 31
0.0
  0
LINE
  5
1E34
330
1DE0
100
AcDbEntity
  8
PEN35
100
AcDbLine
 10
1585.746969700577
 20
339.257870208765
 30
0.0
 11
1588.139604907036
 21
339.257870208765
 31
0.0
  0
LINE
  5
1E35
330
1DE0
100
AcDbEntity
  8
PEN35
100
AcDbLine
 10
1580.132703664359
 20
338.043412038408
 30
0.0
 11
1580.132703664359
 21
337.0737533350459
 31
0.0
  0
LINE
  5
1E36
330
1DE0
100
AcDbEntity
  8
PEN35
 48
0.3
100
AcDbLine
 10
1580.132703664359
 20
335.9521317220445
 30
0.0
 11
1581.719767301511
 21
335.9521317220445
 31
0.0
  0
LINE
  5
1E37
330
1DE0
100
AcDbEntity
  8
PEN35
100
AcDbLine
 10
1580.132703664359
 20
337.0737533350459
 30
0.0
 11
1581.616460587001
 21
337.0737533350459
 31
0.0
  0
LINE
  5
1E38
330
1DE0
100
AcDbEntity
  8
PEN35
100
AcDbLine
 10
1580.132703664359
 20
338.043412038408
 30
0.0
 11
1581.603034155222
 21
338.043412038408
 31
0.0
  0
LINE
  5
1E39
330
1DE0
100
AcDbEntity
  8
PEN35
100
AcDbLine
 10
1577.746377139805
 20
339.257870208765
 30
0.0
 11
1582.98649737344
 21
339.257870208765
 31
0.0
  0
LINE
  5
1E3A
102
{ACAD_REACTORS
330
1E0A
102
}
330
1DE0
100
AcDbEntity
  8
PEN35
100
AcDbLine
 10
1593.9636714856
 20
339.257870208765
 30
0.0
 11
1596.342507474525
 21
339.257870208765
 31
0.0
  0
LINE
  5
1E3B
102
{ACAD_REACTORS
330
1E0A
102
}
330
1DE0
100
AcDbEntity
  8
PEN35
100
AcDbLine
 10
1591.729937228824
 20
339.257870208765
 30
0.0
 11
1591.729937228824
 21
337.524254918684
 31
0.0
  0
LINE
  5
1E3C
102
{ACAD_REACTORS
330
1E0A
102
}
330
1DE0
100
AcDbEntity
  8
PEN35
100
AcDbLine
 10
1593.9636714856
 20
339.257870208765
 30
0.0
 11
1593.9636714856
 21
337.524254918684
 31
0.0
  0
LINE
  5
1E3D
102
{ACAD_REACTORS
330
1E0A
102
}
330
1DE0
100
AcDbEntity
  8
PEN35
100
AcDbLine
 10
1591.729937228824
 20
336.2037480861713
 30
0.0
 11
1593.9636714856
 21
336.2037480861713
 31
0.0
  0
LINE
  5
1E3E
102
{ACAD_REACTORS
330
1E0A
102
}
330
1DE0
100
AcDbEntity
  8
PEN35
100
AcDbLine
 10
1591.729937228824
 20
337.524254918684
 30
0.0
 11
1593.9636714856
 21
337.524254918684
 31
0.0
  0
ELLIPSE
  5
1E3F
102
{ACAD_REACTORS
330
1E12
102
}
330
1DE0
100
AcDbEntity
  8
PEN35
100
AcDbEllipse
 10
1601.225432391653
 20
336.7114435705642
 30
0.0
 11
-1.490841924782149
 21
0.0
 31
0.0
210
0.0
220
0.0
230
1.0
 40
0.8858773942186537
 41
0.0
 42
6.283185307179585
  0
TEXT
  5
1E40
330
1DE0
100
AcDbEntity
  8
0
 62
     4
100
AcDbText
 10
1574.679172736002
 20
359.6415955038165
 30
0.0
 40
2.5
  1
Name:
  7
ISO9
100
AcDbText
  0
TEXT
  5
1E41
330
1DE0
100
AcDbEntity
  8
0
 62
     4
100
AcDbText
 10
1574.688262638662
 20
364.6415955038165
 30
0.0
 40
2.5
  1
Scale:
  7
ISO9
100
AcDbText
  0
TEXT
  5
1E42
330
1DE0
100
AcDbEntity
  8
0
 62
     4
100
AcDbText
 10
1598.57882050148
 20
364.6415955038165
 30
0.0
 40
2.5
  1
Format:
  7
ISO9
100
AcDbText
  0
LINE
  5
1E43
330
1DE0
100
AcDbEntity
  8
0
 62
     5
100
AcDbLine
 10
1596.393060922116
 20
363.3915955038165
 30
0.0
 11
1596.393060922116
 21
368.3915955038165
 31
0.0
  0
TEXT
  5
1E44
330
1DE0
100
AcDbEntity
  8
0
 62
     4
100
AcDbText
 10
1574.772077332254
 20
375.995034395231
 30
0.0
 40
2.5
  1
A
  7
ISO9
100
AcDbText
  0
TEXT
  5
1E45
330
1DE0
100
AcDbEntity
  8
0
 62
     4
100
AcDbText
 10
1574.772077332254
 20
369.995034395231
 30
0.0
 40
2.5
  1
B
  7
ISO9
100
AcDbText
  0
TEXT
  5
1E46
330
1DE0
100
AcDbEntity
  8
0
 62
   140
100
AcDbText
 10
1573.630265379433
 20
381.6415955038165
 30
0.0
 40
2.5
  1
Rev.
 41
0.65
  7
ISO9
100
AcDbText
  0
TEXT
  5
1E47
330
1DE0
100
AcDbEntity
  8
0
 62
   140
 48
0.5
100
AcDbText
 10
1595.618633519809
 20
381.6415955038165
 30
0.0
 40
2.5
  1
Dev.
 41
0.7
  7
ISO9
100
AcDbText
  0
TEXT
  5
1E48
330
1DE0
100
AcDbEntity
  8
0
 62
   140
100
AcDbText
 10
1602.226310097905
 20
381.6415955038165
 30
0.0
 40
2.5
  1
Date
 41
0.8
  7
ISO9
100
AcDbText
  0
TEXT
  5
1E49
330
1DE0
100
AcDbEntity
  8
0
 62
   140
100
AcDbText
 10
1714.465084024602
 20
381.6415955038165
 30
0.0
 40
2.5
  1
Change nr.
 41
0.7
  7
ISO9
100
AcDbText
  0
LINE
  5
1E4A
330
1DE0
100
AcDbEntity
  8
0
 62
     4
100
AcDbLine
 10
1713.585546643136
 20
368.3915955038165
 30
0.0
 11
1713.585546643136
 21
386.3915955038165
 31
0.0
  0
LINE
  5
1E4B
330
1DE0
100
AcDbEntity
  8
0
 62
     4
100
AcDbLine
 10
1729.725816617243
 20
368.3915955038165
 30
0.0
 11
1729.725816617243
 21
386.3915955038165
 31
0.0
  0
LINE
  5
1E4C
330
1DE0
100
AcDbEntity
  8
0
 62
     4
100
AcDbLine
 10
1735.951818300438
 20
368.3915955038165
 30
0.0
 11
1735.951818300438
 21
386.3915955038165
 31
0.0
  0
TEXT
  5
1E4D
330
1DE0
100
AcDbEntity
  8
0
 62
   140
100
AcDbText
 10
1669.465084024603
 20
381.6415955038165
 30
0.0
 40
2.5
  1
Change nr.
 41
0.7
  7
ISO9
100
AcDbText
  0
TEXT
  5
1E4E
330
1DE0
100
AcDbEntity
  8
0
 62
   140
100
AcDbText
 10
1624.465084024603
 20
381.6415955038165
 30
0.0
 40
2.5
  1
Change nr.
 41
0.7
  7
ISO9
100
AcDbText
  0
LINE
  5
1E4F
330
1DE0
100
AcDbEntity
  8
0
 62
     5
100
AcDbLine
 10
1707.835684028694
 20
368.3915955038165
 30
0.0
 11
1707.835684028694
 21
386.3915955038165
 31
0.0
  0
LINE
  5
1E50
330
1DE0
100
AcDbEntity
  8
0
 62
     4
100
AcDbLine
 10
1639.725816617243
 20
368.3915955038165
 30
0.0
 11
1639.725816617243
 21
386.3915955038165
 31
0.0
  0
LINE
  5
1E51
330
1DE0
100
AcDbEntity
  8
0
 62
     4
100
AcDbLine
 10
1645.95181830044
 20
368.3915955038165
 30
0.0
 11
1645.95181830044
 21
386.3915955038165
 31
0.0
  0
LINE
  5
1E52
330
1DE0
100
AcDbEntity
  8
0
 62
     5
100
AcDbLine
 10
1662.835684028693
 20
368.3915955038165
 30
0.0
 11
1662.835684028693
 21
386.3915955038165
 31
0.0
  0
LINE
  5
1E53
330
1DE0
100
AcDbEntity
  8
0
 62
     4
100
AcDbLine
 10
1668.585546643136
 20
368.3915955038165
 30
0.0
 11
1668.585546643136
 21
386.3915955038165
 31
0.0
  0
LINE
  5
1E54
330
1DE0
100
AcDbEntity
  8
0
 62
     4
100
AcDbLine
 10
1690.951818300439
 20
368.3915955038165
 30
0.0
 11
1690.951818300439
 21
386.3915955038165
 31
0.0
  0
LINE
  5
1E55
330
1DE0
100
AcDbEntity
  8
0
 62
     4
100
AcDbLine
 10
1684.725816617243
 20
368.3915955038165
 30
0.0
 11
1684.725816617243
 21
386.3915955038165
 31
0.0
  0
LINE
  5
1E56
330
1DE0
100
AcDbEntity
  8
0
 62
     4
100
AcDbLine
 10
1623.585546643136
 20
368.3915955038165
 30
0.0
 11
1623.585546643136
 21
386.3915955038165
 31
0.0
  0
LINE
  5
1E57
330
1DE0
100
AcDbEntity
  8
0
 62
     5
100
AcDbLine
 10
1617.835684028693
 20
368.3915955038165
 30
0.0
 11
1617.835684028693
 21
386.3915955038165
 31
0.0
  0
LINE
  5
1E58
330
1DE0
100
AcDbEntity
  8
0
 62
     4
100
AcDbLine
 10
1628.14952855463
 20
337.3915955038165
 30
0.0
 11
1752.835684028694
 21
337.3915955038165
 31
0.0
  0
TEXT
  5
1E59
330
1DE0
100
AcDbEntity
  8
0
 62
     4
100
AcDbText
 10
1657.548402478242
 20
338.6415955038165
 30
0.0
 40
2.5
  1
Date:
  7
ISO9
100
AcDbText
  0
TEXT
  5
1E5A
330
1DE0
100
AcDbEntity
  8
0
 62
     4
100
AcDbText
 10
1629.68060451551
 20
338.6415955038165
 30
0.0
 40
2.5
  1
Drawn:
 41
0.8
  7
ISO9
100
AcDbText
  0
LINE
  5
1E5B
330
1DE0
100
AcDbEntity
  8
0
 62
     4
100
AcDbLine
 10
1655.616489603183
 20
337.3915955038165
 30
0.0
 11
1655.616489603183
 21
343.3915955038165
 31
0.0
  0
TEXT
  5
1E5C
330
1DE0
100
AcDbEntity
  8
0
 62
     4
100
AcDbText
 10
1695.303988022466
 20
338.6415955038165
 30
0.0
 40
2.5
  1
Project:
  7
ISO9
100
AcDbText
  0
TEXT
  5
1E5D
330
1DE0
100
AcDbEntity
  8
0
 62
     4
100
AcDbText
 10
1664.981359527832
 20
375.995034395231
 30
0.0
 40
2.5
  1
E
  7
ISO9
100
AcDbText
  0
TEXT
  5
1E5E
330
1DE0
100
AcDbEntity
  8
0
 62
     4
100
AcDbText
 10
1664.981359527832
 20
369.995034395231
 30
0.0
 40
2.5
  1
F
  7
ISO9
100
AcDbText
  0
TEXT
  5
1E5F
330
1DE0
100
AcDbEntity
  8
0
 62
     4
100
AcDbText
 10
1665.709455529881
 20
364.6541546569744
 30
0.0
 40
2.5
  1
of
  7
ISO9
100
AcDbText
  0
TEXT
  5
1E60
330
1DE0
100
AcDbEntity
  8
0
 62
     4
100
AcDbText
 10
1623.834116649063
 20
364.6415955038165
 30
0.0
 40
2.5
  1
Unit:
  7
ISO9
100
AcDbText
  0
LINE
  5
1E61
330
1DE0
100
AcDbEntity
  8
0
 62
     5
100
AcDbLine
 10
1621.835684028693
 20
363.3915955038165
 30
0.0
 11
1621.835684028693
 21
368.3915955038165
 31
0.0
  0
TEXT
  5
1E62
330
1DE0
100
AcDbEntity
  8
0
 62
     4
100
AcDbText
 10
1646.418831487052
 20
364.6541546569744
 30
0.0
 40
2.5
  1
Sheet:
  7
ISO9
100
AcDbText
  0
LINE
  5
1E63
330
1DE0
100
AcDbEntity
  8
0
 62
     5
100
AcDbLine
 10
1644.835684028693
 20
363.3915955038165
 30
0.0
 11
1644.835684028693
 21
368.3915955038165
 31
0.0
  0
TEXT
  5
1E64
330
1DE0
100
AcDbEntity
  8
0
 62
     4
100
AcDbText
 10
1619.794822290697
 20
375.995034395231
 30
0.0
 40
2.5
  1
C
  7
ISO9
100
AcDbText
  0
TEXT
  5
1E65
330
1DE0
100
AcDbEntity
  8
0
 62
     4
100
AcDbText
 10
1620.007140889748
 20
369.995034395231
 30
0.0
 40
2.5
  1
D
  7
ISO9
100
AcDbText
  0
TEXT
  5
1E66
330
1DE0
100
AcDbEntity
  8
0
 62
     4
100
AcDbText
 10
1679.335334358063
 20
364.6415955038165
 30
0.0
 40
2.5
  1
Tolerance: 
  7
ISO9
100
AcDbText
  0
LINE
  5
1E67
330
1DE0
100
AcDbEntity
  8
0
 62
     5
100
AcDbLine
 10
1677.289624360537
 20
363.3915955038165
 30
0.0
 11
1677.289624360537
 21
368.3915955038165
 31
0.0
  0
TEXT
  5
1E68
330
1DE0
100
AcDbEntity
  8
0
 62
     4
100
AcDbText
 10
1709.819470742407
 20
375.995034395231
 30
0.0
 40
2.5
  1
G
  7
ISO9
100
AcDbText
  0
TEXT
  5
1E69
330
1DE0
100
AcDbEntity
  8
0
 62
     4
100
AcDbText
 10
1709.819470742407
 20
369.995034395231
 30
0.0
 40
2.5
  1
H
  7
ISO9
100
AcDbText
  0
LINE
  5
1E6A
330
1DE0
100
AcDbEntity
  8
0
 62
     5
100
AcDbLine
 10
1749.961164662288
 20
360.683956130017
 30
0.0
 11
1749.961164662288
 21
350.683956130017
 31
0.0
  0
CIRCLE
  5
1E6B
330
1DE0
100
AcDbEntity
  8
0
 62
     5
100
AcDbCircle
 10
1730.742189912233
 20
355.6839561300168
 30
0.0
 40
5.0
  0
CIRCLE
  5
1E6C
330
1DE0
100
AcDbEntity
  8
0
 62
     5
100
AcDbCircle
 10
1730.742189912233
 20
355.6839561300168
 30
0.0
 40
2.5
  0
LINE
  5
1E6D
330
1DE0
100
AcDbEntity
  8
0
 62
     5
100
AcDbLine
 10
1739.961164662288
 20
358.683956130017
 30
0.0
 11
1739.961164662288
 21
352.683956130017
 31
0.0
  0
LINE
  5
1E6E
330
1DE0
100
AcDbEntity
  8
0
  6
CENTER
 62
     4
 48
0.2
100
AcDbLine
 10
1730.742189912233
 20
362.183956130017
 30
0.0
 11
1730.742189912233
 21
349.183956130017
 31
0.0
  0
LINE
  5
1E6F
330
1DE0
100
AcDbEntity
  8
0
 62
     5
100
AcDbLine
 10
1722.832812906666
 20
343.3915955038165
 30
0.0
 11
1722.832812906666
 21
363.3915955038165
 31
0.0
  0
TEXT
  5
1E70
330
1DE0
100
AcDbEntity
  8
0
 62
     4
100
AcDbText
 10
1724.6601886462
 20
344.6415955038165
 30
0.0
 40
2.5
  1
AM. PROJECTION
 41
0.85
  7
ISO9
100
AcDbText
  0
LINE
  5
1E71
330
1DE0
100
AcDbEntity
  8
0
 62
     5
100
AcDbLine
 10
1739.961164662288
 20
352.683956130017
 30
0.0
 11
1749.961164662288
 21
350.683956130017
 31
0.0
  0
LINE
  5
1E72
330
1DE0
100
AcDbEntity
  8
0
  6
CENTER
 62
     4
 48
0.2
100
AcDbLine
 10
1738.461164662288
 20
355.6839561300168
 30
0.0
 11
1751.461164662288
 21
355.6839561300168
 31
0.0
  0
LINE
  5
1E73
330
1DE0
100
AcDbEntity
  8
0
  6
CENTER
 62
     4
 48
0.2
100
AcDbLine
 10
1724.242189912234
 20
355.6839561300168
 30
0.0
 11
1737.242189912234
 21
355.6839561300168
 31
0.0
  0
LINE
  5
1E74
330
1DE0
100
AcDbEntity
  8
0
 62
     5
100
AcDbLine
 10
1749.961164662288
 20
360.683956130017
 30
0.0
 11
1739.961164662288
 21
358.683956130017
 31
0.0
  0
TEXT
  5
1E75
330
1DE0
100
AcDbEntity
  8
0
 62
   140
100
AcDbText
 10
1663.630265379433
 20
381.6415955038165
 30
0.0
 40
2.5
  1
Rev.
 41
0.65
  7
ISO9
100
AcDbText
  0
TEXT
  5
1E76
330
1DE0
100
AcDbEntity
  8
0
 62
   140
 48
0.5
100
AcDbText
 10
1640.61863351981
 20
381.6415955038165
 30
0.0
 40
2.5
  1
Dev.
 41
0.7
  7
ISO9
100
AcDbText
  0
TEXT
  5
1E77
330
1DE0
100
AcDbEntity
  8
0
 62
   140
100
AcDbText
 10
1618.630265379433
 20
381.6415955038165
 30
0.0
 40
2.5
  1
Rev.
 41
0.65
  7
ISO9
100
AcDbText
  0
TEXT
  5
1E78
330
1DE0
100
AcDbEntity
  8
0
 62
   140
100
AcDbText
 10
1647.226310097904
 20
381.6415955038165
 30
0.0
 40
2.5
  1
Date
 41
0.8
  7
ISO9
100
AcDbText
  0
TEXT
  5
1E79
330
1DE0
100
AcDbEntity
  8
0
 62
   140
 48
0.5
100
AcDbText
 10
1685.618633519808
 20
381.6415955038165
 30
0.0
 40
2.5
  1
Dev.
 41
0.7
  7
ISO9
100
AcDbText
  0
TEXT
  5
1E7A
330
1DE0
100
AcDbEntity
  8
0
 62
   140
100
AcDbText
 10
1692.226310097904
 20
381.6415955038165
 30
0.0
 40
2.5
  1
Date
 41
0.8
  7
ISO9
100
AcDbText
  0
TEXT
  5
1E7B
330
1DE0
100
AcDbEntity
  8
0
 62
   140
100
AcDbText
 10
1708.630265379433
 20
381.6415955038165
 30
0.0
 40
2.5
  1
Rev.
 41
0.65
  7
ISO9
100
AcDbText
  0
TEXT
  5
1E7C
330
1DE0
100
AcDbEntity
  8
0
 62
   140
100
AcDbText
 10
1737.226310097904
 20
381.6415955038165
 30
0.0
 40
2.5
  1
Date
 41
0.8
  7
ISO9
100
AcDbText
  0
TEXT
  5
1E7D
330
1DE0
100
AcDbEntity
  8
0
 62
   140
 48
0.5
100
AcDbText
 10
1730.618633519809
 20
381.6415955038165
 30
0.0
 40
2.5
  1
Dev.
 41
0.7
  7
ISO9
100
AcDbText
  0
ENDBLK
  5
1E7F
330
1DE0
100
AcDbEntity
  8
0
100
AcDbBlockEnd
  0
ENDSEC
  0
SECTION
  2
ENTITIES
  0
LINE
  5
2DE
330
1A
100
AcDbEntity
  8
0
100
AcDbLine
 10
2053.428867941824
 20
868.1482207328679
 30
0.0
 11
2018.428867941825
 21
868.1482207328679
 31
0.0
  0
LINE
  5
2DF
330
1A
100
AcDbEntity
  8
0
100
AcDbLine
 10
2053.428867941824
 20
918.1482285551517
 30
0.0
 11
2018.428867941825
 21
918.1482285551517
 31
0.0
  0
LINE
  5
2E1
330
1A
100
AcDbEntity
  8
0
100
AcDbLine
 10
2053.428867941824
 20
918.1482285551517
 30
0.0
 11
2018.428867941825
 21
918.1482285551517
 31
0.0
  0
LINE
  5
2E2
330
1A
100
AcDbEntity
  8
0
100
AcDbLine
 10
2053.428867941824
 20
868.1482207328674
 30
0.0
 11
2018.428867941825
 21
868.1482207328679
 31
0.0
  0
ARC
  5
2EC
330
1A
100
AcDbEntity
  8
0
100
AcDbCircle
 10
1088.428867941827
 20
1770.018485626991
 30
0.0
 40
859.9999999999999
100
AcDbArc
 50
2.65015051027934
 51
28.07248693585295
  0
ARC
  5
2ED
330
1A
100
AcDbEntity
  8
0
100
AcDbCircle
 10
1088.428867941825
 20
1770.018485626991
 30
0.0
 40
899.9999999999996
100
AcDbArc
 50
2.561278200611186
 51
29.62900845320723
  0
ARC
  5
2EE
330
1A
100
AcDbEntity
  8
0
100
AcDbCircle
 10
1826.331300516755
 20
2150.018485626992
 30
0.0
 40
10.0
100
AcDbArc
 50
27.2472551861197
 51
90.0
  0
LINE
  5
2EF
330
1A
100
AcDbEntity
  8
0
100
AcDbLine
 10
1388.428867941825
 20
2240.018485626992
 30
0.0
 11
1388.428867941825
 21
2128.970330041329
 31
0.0
  0
ARC
  5
2F0
330
1A
100
AcDbEntity
  8
0
100
AcDbCircle
 10
350.5264353668943
 20
2150.018485626992
 30
0.0
 40
10.0
100
AcDbArc
 50
90.0
 51
152.7527448138821
  0
LINE
  5
2F1
330
1A
100
AcDbEntity
  8
0
100
AcDbLine
 10
788.4288679418249
 20
2240.018485626992
 30
0.0
 11
788.4288679418249
 21
2128.970330041329
 31
0.0
  0
ARC
  5
2F2
330
1A
100
AcDbEntity
  8
0
100
AcDbCircle
 10
1088.428867941823
 20
1770.018485626991
 30
0.0
 40
860.0000000000003
100
AcDbArc
 50
151.927513064147
 51
177.3498494897206
  0
ARC
  5
2F3
330
1A
100
AcDbEntity
  8
0
100
AcDbCircle
 10
1088.428867941825
 20
1770.018485626991
 30
0.0
 40
899.9999999999996
100
AcDbArc
 50
150.3709915467926
 51
177.4387217993888
  0
ARC
  5
2F7
330
1A
100
AcDbEntity
  8
0
100
AcDbCircle
 10
1088.428867941825
 20
1770.018485626991
 30
0.0
 40
920.0
100
AcDbArc
 50
149.6358157578382
 51
210.3641842421617
  0
ARC
  5
2F9
330
1A
100
AcDbEntity
  8
0
100
AcDbCircle
 10
1088.428867941825
 20
1770.018485626991
 30
0.0
 40
920.0
100
AcDbArc
 50
329.6358157578381
 51
30.36418424216179
  0
LINE
  5
2FA
330
1A
100
AcDbEntity
  8
0
100
AcDbLine
 10
1038.539963372439
 20
868.1482207328679
 30
0.0
 11
302.1679020719883
 21
840.5381097406577
 31
0.0
  0
LINE
  5
2FB
330
1A
100
AcDbEntity
  8
0
100
AcDbLine
 10
123.428867941825
 20
868.1482207328679
 30
0.0
 11
2018.428867941825
 21
868.1482207328679
 31
0.0
  0
CIRCLE
  5
2FC
330
1A
100
AcDbEntity
  8
0
100
AcDbCircle
 10
1088.428867941825
 20
1685.018485626992
 30
0.0
 40
57.5
  0
CIRCLE
  5
2FE
330
1A
100
AcDbEntity
  8
0
100
AcDbCircle
 10
1088.428867941825
 20
1855.018485626992
 30
0.0
 40
57.5
  0
ARC
  5
300
330
1A
100
AcDbEntity
  8
0
100
AcDbCircle
 10
1088.428867941825
 20
3551.734030404036
 30
0.0
 40
1502.721178426481
100
AcDbArc
 50
258.5770382363542
 51
281.4229617636456
  0
LINE
  5
303
330
1A
100
AcDbEntity
  8
0
100
AcDbLine
 10
1388.428867941825
 20
2130.018485626992
 30
0.0
 11
788.4288679418249
 21
2130.018485626992
 31
0.0
  0
ARC
  5
304
330
1A
100
AcDbEntity
  8
0
100
AcDbCircle
 10
1088.428867941825
 20
1392.319852363887
 30
0.0
 40
75.52786404500061
100
AcDbArc
 50
180.0
 51
0.000000000000007
  0
ARC
  5
306
330
1A
100
AcDbEntity
  8
0
100
AcDbCircle
 10
1088.428867941825
 20
1392.319852363887
 30
0.0
 40
95.52786404500059
100
AcDbArc
 50
180.0
 51
0.000000000000007
  0
ARC
  5
308
330
1A
100
AcDbEntity
  8
0
100
AcDbCircle
 10
1046.280705526703
 20
433.1482285551531
 30
0.0
 40
20.00000000000044
100
AcDbArc
 50
213.690067525978
 51
270.0000000000006
  0
LINE
  5
309
330
1A
100
AcDbEntity
  8
0
100
AcDbLine
 10
1146.016136619687
 20
428.1482285551511
 30
0.0
 11
1030.84159926393
 21
428.1482285551521
 31
0.0
  0
LINE
  5
30A
330
1A
100
AcDbEntity
  8
0
100
AcDbLine
 10
123.4288679418241
 20
1245.018485626992
 30
0.0
 11
2053.428867941823
 21
1245.018485626992
 31
0.0
  0
ARC
  5
30C
330
1A
100
AcDbEntity
  8
0
100
AcDbCircle
 10
1088.428867941825
 20
-11.69705915005261
 30
0.0
 40
1502.721178426481
100
AcDbArc
 50
78.57703823635431
 51
101.4229617636455
  0
LINE
  5
30D
330
1A
100
AcDbEntity
  8
0
100
AcDbLine
 10
788.4288679418249
 20
1410.018485626991
 30
0.0
 11
1388.428867941825
 21
1410.018485626991
 31
0.0
  0
LINE
  5
30E
330
1A
100
AcDbEntity
  8
0
100
AcDbLine
 10
788.4288679418249
 20
918.1482285551522
 30
0.0
 11
1388.428867941825
 21
918.1482285551517
 31
0.0
  0
ARC
  5
310
330
1A
100
AcDbEntity
  8
0
100
AcDbCircle
 10
728.4288679418231
 20
1770.018485626991
 30
0.0
 40
314.9999999999999
100
AcDbArc
 50
78.57703823635429
 51
281.4229617636456
  0
LINE
  5
311
330
1A
100
AcDbEntity
  8
0
100
AcDbLine
 10
981.9222920805914
 20
408.1482285551525
 30
0.0
 11
472.1821358406622
 21
408.1482285551564
 31
0.0
  0
LINE
  5
312
330
1A
100
AcDbEntity
  8
0
100
AcDbLine
 10
158.428867941825
 20
918.1482285551517
 30
0.0
 11
788.4288679418249
 21
918.1482285551526
 31
0.0
  0
LINE
  5
313
330
1A
100
AcDbEntity
  8
0
100
AcDbLine
 10
1030.84159926393
 20
428.1482285551521
 30
0.0
 11
472.1821358406622
 21
437.8996657619666
 31
0.0
  0
LINE
  5
314
330
1A
100
AcDbEntity
  8
0
100
AcDbLine
 10
416.3030043331755
 20
580.5796436396231
 30
0.0
 11
415.6685030914786
 21
592.6866485609764
 31
0.0
  0
LINE
  5
315
330
1A
100
AcDbEntity
  8
0
100
AcDbLine
 10
472.1821358406622
 20
437.899665761967
 30
0.0
 11
472.1821358406622
 21
408.1482285551564
 31
0.0
  0
LINE
  5
316
330
1A
100
AcDbEntity
  8
0
100
AcDbLine
 10
416.3030043331755
 20
580.5796436396231
 30
0.0
 11
419.7571774452089
 21
514.6700943458211
 31
0.0
  0
LINE
  5
317
330
1A
100
AcDbEntity
  8
0
100
AcDbLine
 10
423.5889130582318
 20
480.6029925572458
 30
0.0
 11
420.4130419424646
 21
502.1554542250408
 31
0.0
  0
LINE
  5
318
330
1A
100
AcDbEntity
  8
0
100
AcDbLine
 10
420.4130419424646
 20
502.1554542250408
 30
0.0
 11
419.7571774452089
 21
514.6700943458211
 31
0.0
  0
ARC
  5
319
330
1A
100
AcDbEntity
  8
0
100
AcDbCircle
 10
473.0547561625271
 20
487.8920505197868
 30
0.0
 40
50.00000000000021
100
AcDbArc
 50
188.382517000065
 51
268.9999999999995
  0
LINE
  5
31A
330
1A
100
AcDbEntity
  8
0
100
AcDbLine
 10
302.1679020719883
 20
840.5381097406577
 30
0.0
 11
238.4288705497846
 21
838.1482285551117
 31
0.0
  0
ARC
  5
31B
330
1A
100
AcDbEntity
  8
0
100
AcDbCircle
 10
178.4288679418249
 20
858.1482207312358
 30
0.0
 40
19.99999999999971
100
AcDbArc
 50
179.9999999999985
 51
270.0000074712489
  0
LINE
  5
31C
330
1A
100
AcDbEntity
  8
0
100
AcDbLine
 10
187.4288705497829
 20
838.1482219048182
 30
0.0
 11
178.4288705497829
 21
838.1482207312362
 31
0.0
  0
LINE
  5
31D
330
1A
100
AcDbEntity
  8
0
100
AcDbLine
 10
238.4288705497846
 20
838.1482285551117
 30
0.0
 11
229.4288705497847
 21
838.1482273815315
 31
0.0
  0
LINE
  5
31E
330
1A
100
AcDbEntity
  8
0
100
AcDbLine
 10
229.4288705497847
 20
838.1482273815315
 30
0.0
 11
187.4288705497829
 21
838.1482219048182
 31
0.0
  0
LINE
  5
31F
330
1A
100
AcDbEntity
  8
0
100
AcDbLine
 10
158.428867941825
 20
858.1482207312362
 30
0.0
 11
158.428867941825
 21
868.1482207328679
 31
0.0
  0
LINE
  5
320
330
1A
100
AcDbEntity
  8
0
100
AcDbLine
 10
123.428867941825
 20
918.1482285551517
 30
0.0
 11
158.428867941825
 21
918.1482285551517
 31
0.0
  0
ARC
  5
321
330
1A
100
AcDbEntity
  8
0
100
AcDbCircle
 10
123.428867941825
 20
908.1482285551517
 30
0.0
 40
10.0
100
AcDbArc
 50
90.0
 51
180.0
  0
LINE
  5
322
330
1A
100
AcDbEntity
  8
0
100
AcDbLine
 10
113.428867941825
 20
868.1482207328679
 30
0.0
 11
113.428867941825
 21
908.1482285551517
 31
0.0
  0
LINE
  5
323
330
1A
100
AcDbEntity
  8
0
100
AcDbLine
 10
123.428867941825
 20
868.1482207328679
 30
0.0
 11
113.428867941825
 21
868.1482207328679
 31
0.0
  0
LINE
  5
324
330
1A
100
AcDbEntity
  8
0
100
AcDbLine
 10
123.428867941825
 20
918.1482285551517
 30
0.0
 11
158.428867941825
 21
918.1482285551517
 31
0.0
  0
LINE
  5
325
330
1A
100
AcDbEntity
  8
0
100
AcDbLine
 10
113.428867941825
 20
868.1482207328679
 30
0.0
 11
113.428867941825
 21
908.1482285551517
 31
0.0
  0
LINE
  5
326
330
1A
100
AcDbEntity
  8
0
100
AcDbLine
 10
123.428867941825
 20
868.1482207328679
 30
0.0
 11
113.428867941825
 21
868.1482207328679
 31
0.0
  0
LINE
  5
327
330
1A
100
AcDbEntity
  8
0
100
AcDbLine
 10
123.428867941825
 20
868.1482207328674
 30
0.0
 11
158.428867941825
 21
868.1482207328679
 31
0.0
  0
ARC
  5
328
330
1A
100
AcDbEntity
  8
0
100
AcDbCircle
 10
123.428867941825
 20
908.1482285551517
 30
0.0
 40
10.0
100
AcDbArc
 50
90.0
 51
180.0
  0
ARC
  5
329
330
1A
100
AcDbEntity
  8
0
100
AcDbCircle
 10
424.6559728791607
 20
610.5535281658632
 30
0.0
 40
20.00000000000003
100
AcDbArc
 50
188.3825170001086
 51
243.2965052172336
  0
ARC
  5
32A
330
1A
100
AcDbEntity
  8
0
100
AcDbCircle
 10
374.6700880280123
 20
606.7936372904442
 30
0.0
 40
30.00000000000113
100
AcDbArc
 50
8.382517000051651
 51
24.27393812953337
  0
LINE
  5
32B
330
1A
100
AcDbEntity
  8
0
100
AcDbLine
 10
404.8696356374448
 20
607.6379049808312
 30
0.0
 11
404.3495938905916
 21
611.1670720679613
 31
0.0
  0
ARC
  5
32C
330
1A
100
AcDbEntity
  8
0
100
AcDbCircle
 10
374.6700880280123
 20
606.7936372904471
 30
0.0
 40
30.0
100
AcDbArc
 50
8.382517000069052
 51
24.2739381295363
  0
LINE
  5
32D
330
1A
100
AcDbEntity
  8
0
100
AcDbLine
 10
418.6600926870331
 20
680.1888693463057
 30
0.0
 11
332.584465335788
 21
682.5719431331978
 31
0.0
  0
LINE
  5
32F
330
1A
100
AcDbEntity
  8
0
100
AcDbLine
 10
402.0177990082109
 20
619.1266297960612
 30
0.0
 11
373.9219953437791
 21
681.4274799766888
 31
0.0
  0
LINE
  5
330
330
1A
100
AcDbEntity
  8
0
100
AcDbLine
 10
304.1100583799933
 20
836.2314883456058
 30
0.0
 11
307.5362569690831
 21
729.3536391217481
 31
0.0
  0
LINE
  5
331
330
1A
100
AcDbEntity
  8
0
100
AcDbLine
 10
981.9222920805914
 20
429.0021182382806
 30
0.0
 11
981.9222920805914
 21
408.1482285551525
 31
0.0
  0
LINE
  5
332
330
1A
100
AcDbEntity
  8
0
100
AcDbLine
 10
1029.639699639946
 20
422.0542246306488
 30
0.0
 11
1025.515046811005
 21
428.2412038740606
 31
0.0
  0
ARC
  5
333
330
1A
100
AcDbEntity
  8
0
100
AcDbCircle
 10
756.4651302770133
 20
877.9162859111441
 30
0.0
 40
10.0
100
AcDbArc
 50
271.9200025868356
 51
282.364131088123
  0
LINE
  5
334
330
1A
100
AcDbEntity
  8
0
100
AcDbLine
 10
384.5134719590686
 20
2128.970330041329
 30
0.0
 11
788.4288679418249
 21
2128.970330041329
 31
0.0
  0
LINE
  5
335
330
1A
100
AcDbEntity
  8
0
100
AcDbLine
 10
384.5134719590686
 20
1411.066641212653
 30
0.0
 11
788.4288679418249
 21
1411.066641212653
 31
0.0
  0
LINE
  5
336
330
1A
100
AcDbEntity
  8
0
100
AcDbLine
 10
314.8010504481671
 20
1320.018485626992
 30
0.0
 11
773.4288679418249
 21
1320.018485626992
 31
0.0
  0
LINE
  5
337
330
1A
100
AcDbEntity
  8
0
100
AcDbLine
 10
338.4288679418213
 20
1360.018485626993
 30
0.0
 11
773.4288679418249
 21
1360.018485626993
 31
0.0
  0
LINE
  5
338
330
1A
100
AcDbEntity
  8
0
100
AcDbLine
 10
303.2537282436815
 20
1300.018485626992
 30
0.0
 11
773.4288679418249
 21
1300.018485626992
 31
0.0
  0
LINE
  5
339
330
1A
100
AcDbEntity
  8
0
100
AcDbLine
 10
350.5264353668943
 20
1380.018485626993
 30
0.0
 11
788.4288679418249
 21
1380.018485626993
 31
0.0
  0
ARC
  5
33D
330
1A
100
AcDbEntity
  8
0
100
AcDbCircle
 10
1088.428867941825
 20
1770.018485626991
 30
0.0
 40
801.2715517241382
100
AcDbArc
 50
154.2880892537361
 51
205.7119107462639
  0
ARC
  5
33E
330
1A
100
AcDbEntity
  8
0
100
AcDbCircle
 10
1088.428867941823
 20
1770.018485626991
 30
0.0
 40
840.0
100
AcDbArc
 50
152.7527448138805
 51
207.2472551861193
  0
ARC
  5
33F
330
1A
100
AcDbEntity
  8
0
100
AcDbCircle
 10
1088.428867941823
 20
1770.018485626991
 30
0.0
 40
860.0000000000003
100
AcDbArc
 50
182.6501505102791
 51
208.0724869358528
  0
ARC
  5
340
330
1A
100
AcDbEntity
  8
0
100
AcDbCircle
 10
1088.428867941825
 20
1770.018485626991
 30
0.0
 40
899.9999999999996
100
AcDbArc
 50
182.561278200611
 51
209.6290084532071
  0
LINE
  5
341
330
1A
100
AcDbEntity
  8
0
100
AcDbLine
 10
315.7660133360503
 20
1640.629811244605
 30
0.0
 11
354.5888701014273
 21
1495.740937301245
 31
0.0
  0
ARC
  5
345
330
1A
100
AcDbEntity
  8
0
100
AcDbCircle
 10
303.2537282436815
 20
1310.018485626992
 30
0.0
 40
10.0
100
AcDbArc
 50
210.3641842421601
 51
270.0
  0
ARC
  5
346
330
1A
100
AcDbEntity
  8
0
100
AcDbCircle
 10
314.8010504481671
 20
1330.018485626992
 30
0.0
 40
10.0
100
AcDbArc
 50
209.6290084532069
 51
270.0
  0
LINE
  5
348
330
1A
100
AcDbEntity
  8
0
100
AcDbLine
 10
393.2169118357677
 20
1506.091289889157
 30
0.0
 11
354.5888701014273
 21
1495.740937301245
 31
0.0
  0
ARC
  5
349
330
1A
100
AcDbEntity
  8
0
100
AcDbCircle
 10
384.5134719590686
 20
1431.066641212653
 30
0.0
 40
20.0
100
AcDbArc
 50
205.711910746033
 51
270.0
  0
ARC
  5
34A
330
1A
100
AcDbEntity
  8
0
100
AcDbCircle
 10
338.4288679418213
 20
1370.018485626993
 30
0.0
 40
10.0
100
AcDbArc
 50
208.0724869358509
 51
270.0
  0
ARC
  5
34B
330
1A
100
AcDbEntity
  8
0
100
AcDbCircle
 10
350.5264353668943
 20
1390.018485626993
 30
0.0
 40
10.0
100
AcDbArc
 50
207.2472551861206
 51
270.0
  0
ARC
  5
34D
330
1A
100
AcDbEntity
  8
0
100
AcDbCircle
 10
208.4288679418231
 20
1770.018485626993
 30
0.0
 40
39.99999999999856
100
AcDbArc
 50
125.5785257324578
 51
234.4214742675418
  0
ARC
  5
34E
330
1A
100
AcDbEntity
  8
0
100
AcDbCircle
 10
239.3379588509133
 20
1809.32024257466
 30
0.0
 40
10.0
100
AcDbArc
 50
177.349849489721
 51
231.8165175667906
  0
ARC
  5
34F
330
1A
100
AcDbEntity
  8
0
100
AcDbCircle
 10
239.3379588509133
 20
1730.716728679325
 30
0.0
 40
10.0
100
AcDbArc
 50
128.183482433209
 51
182.6501505102785
  0
ARC
  5
350
330
1A
100
AcDbEntity
  8
0
100
AcDbCircle
 10
179.3379588509151
 20
1810.684429711256
 30
0.0
 40
10.0
100
AcDbArc
 50
305.578525732458
 51
357.4387217993872
  0
ARC
  5
351
330
1A
100
AcDbEntity
  8
0
100
AcDbCircle
 10
179.3379588509151
 20
1729.352541542729
 30
0.0
 40
10.0
100
AcDbArc
 50
2.561278200610423
 51
54.42147426754188
  0
CIRCLE
  5
352
330
1A
100
AcDbEntity
  8
0
100
AcDbCircle
 10
208.4288679418231
 20
1770.018485626993
 30
0.0
 40
19.99999999999855
  0
ARC
  5
354
330
1A
100
AcDbEntity
  8
0
100
AcDbCircle
 10
208.4288679418231
 20
1770.018485626993
 30
0.0
 40
39.99999999999856
100
AcDbArc
 50
308.1834824332086
 51
51.8165175667911
  0
LINE
  5
355
330
1A
100
AcDbEntity
  8
0
100
AcDbLine
 10
354.394055070389
 20
1650.980163832517
 30
0.0
 11
315.7660133360503
 21
1640.629811244605
 31
0.0
  0
ARC
  5
356
330
1A
100
AcDbEntity
  8
0
100
AcDbCircle
 10
431.344456007192
 20
1817.018485626991
 30
0.0
 40
2.0
100
AcDbArc
 50
180.0000000000025
 51
269.9999999999961
  0
ARC
  5
357
330
1A
100
AcDbEntity
  8
0
100
AcDbCircle
 10
431.344456007192
 20
1723.018485626991
 30
0.0
 40
2.0
100
AcDbArc
 50
90.00000000000367
 51
179.999999999997
  0
ARC
  5
35B
330
1A
100
AcDbEntity
  8
0
100
AcDbCircle
 10
384.5134719590686
 20
2108.97033004133
 30
0.0
 40
20.0
100
AcDbArc
 50
90.0
 51
154.288089253967
  0
LINE
  5
35C
330
1A
100
AcDbEntity
  8
0
100
AcDbLine
 10
393.2169118357677
 20
2033.945681364828
 30
0.0
 11
354.5888701014273
 21
2044.296033952741
 31
0.0
  0
LINE
  5
35E
330
1A
100
AcDbEntity
  8
0
100
AcDbLine
 10
354.394055070389
 20
1889.056807421468
 30
0.0
 11
315.7660133360503
 21
1899.407160009379
 31
0.0
  0
LINE
  5
35F
330
1A
100
AcDbEntity
  8
0
100
AcDbLine
 10
315.7660133360503
 20
1899.407160009379
 30
0.0
 11
354.5888701014273
 21
2044.296033952741
 31
0.0
  0
LINE
  5
361
330
1A
100
AcDbEntity
  8
0
100
AcDbLine
 10
773.4288679418249
 20
1300.018485626994
 30
0.0
 11
788.4288679418249
 21
1300.018485626994
 31
0.0
  0
LINE
  5
362
330
1A
100
AcDbEntity
  8
0
100
AcDbLine
 10
773.4288679418249
 20
1300.018485626994
 30
0.0
 11
773.4288679418249
 21
1380.018485626993
 31
0.0
  0
LINE
  5
363
330
1A
100
AcDbEntity
  8
0
100
AcDbLine
 10
788.4288679418249
 20
1300.018485626994
 30
0.0
 11
788.4288679418249
 21
1411.066641212653
 31
0.0
  0
LINE
  5
364
330
1A
100
AcDbEntity
  8
0
100
AcDbLine
 10
992.9010038968236
 20
1410.018485626991
 30
0.0
 11
992.9010038968236
 21
1392.319852363887
 31
0.0
  0
LINE
  5
365
330
1A
100
AcDbEntity
  8
0
100
AcDbLine
 10
1012.901003896823
 20
1410.018485626991
 30
0.0
 11
1012.901003896823
 21
1392.319852363887
 31
0.0
  0
LINE
  5
367
330
1A
100
AcDbEntity
  8
0
100
AcDbLine
 10
1138.317772511211
 20
868.1482207328679
 30
0.0
 11
1874.689833811662
 21
840.5381097406577
 31
0.0
  0
LINE
  5
368
330
1A
100
AcDbEntity
  8
0
100
AcDbLine
 10
1705.973585650274
 20
408.1482285551468
 30
0.0
 11
1195.737320675289
 21
408.1482285551509
 31
0.0
  0
LINE
  5
369
330
1A
100
AcDbEntity
  8
0
100
AcDbLine
 10
1388.75221297299
 20
918.1482285551517
 30
0.0
 11
2018.428867941825
 21
918.1482285551517
 31
0.0
  0
LINE
  5
36A
330
1A
100
AcDbEntity
  8
0
100
AcDbLine
 10
1705.973585650273
 20
437.9223221850191
 30
0.0
 11
1146.016136619687
 21
428.1482285551511
 31
0.0
  0
ARC
  5
36B
330
1A
100
AcDbEntity
  8
0
100
AcDbCircle
 10
1130.577030356944
 20
433.1482285551512
 30
0.0
 40
19.99999999999951
100
AcDbArc
 50
270.0
 51
326.309932474022
  0
LINE
  5
36C
330
1A
100
AcDbEntity
  8
0
100
AcDbLine
 10
1151.342689072645
 20
428.2412038740615
 30
0.0
 11
1147.218036243702
 21
422.0542246306469
 31
0.0
  0
LINE
  5
36D
330
1A
100
AcDbEntity
  8
0
100
AcDbLine
 10
1130.577030356944
 20
413.1482285551522
 30
0.0
 11
1046.280705526703
 21
413.1482285551522
 31
0.0
  0
LINE
  5
36E
330
1A
100
AcDbEntity
  8
0
100
AcDbLine
 10
1195.737320675289
 20
429.0161150511496
 30
0.0
 11
1195.737320675289
 21
408.1482285551509
 31
0.0
  0
LINE
  5
36F
330
1A
100
AcDbEntity
  8
0
100
AcDbLine
 10
1772.546921501055
 20
611.0634185145684
 30
0.0
 11
1754.632715628501
 21
481.0878692994357
 31
0.0
  0
LINE
  5
372
330
1A
100
AcDbEntity
  8
0
100
AcDbLine
 10
1705.973585650274
 20
437.9223221850184
 30
0.0
 11
1705.973585650274
 21
408.1482285551468
 31
0.0
  0
ARC
  5
373
330
1A
100
AcDbEntity
  8
0
100
AcDbCircle
 10
1705.10096532841
 20
487.9147069428382
 30
0.0
 40
50.00000000000032
100
AcDbArc
 50
271.0
 51
352.1525077443143
  0
LINE
  5
374
330
1A
100
AcDbEntity
  8
0
100
AcDbLine
 10
1802.717642145078
 20
680.943859163383
 30
0.0
 11
1774.918260700911
 21
619.3003084341437
 31
0.0
  0
ARC
  5
376
330
1A
100
AcDbEntity
  8
0
100
AcDbCircle
 10
1802.265971681113
 20
606.9673159285249
 30
0.0
 40
30.00000000000346
100
AcDbArc
 50
155.7260618704648
 51
172.1525077443119
  0
ARC
  5
377
330
1A
100
AcDbEntity
  8
0
100
AcDbCircle
 10
1998.428867941824
 20
858.1482207312367
 30
0.0
 40
20.00000000000062
100
AcDbArc
 50
269.9999925287484
 51
359.9999999999987
  0
LINE
  5
378
330
1A
100
AcDbEntity
  8
0
100
AcDbLine
 10
1877.093615087023
 20
840.4023459387946
 30
0.0
 11
1938.428865333865
 21
838.1482285551117
 31
0.0
  0
LINE
  5
379
330
1A
100
AcDbEntity
  8
0
100
AcDbLine
 10
1873.432796866555
 20
798.5590022079211
 30
0.0
 11
1877.093615087023
 21
840.4023459387946
 31
0.0
  0
LINE
  5
37A
330
1A
100
AcDbEntity
  8
0
100
AcDbLine
 10
1845.229884649256
 20
681.6859131165367
 30
0.0
 11
1802.717642145078
 21
680.943859163383
 31
0.0
  0
LINE
  5
37B
330
1A
100
AcDbEntity
  8
0
100
AcDbLine
 10
1867.680517845209
 20
732.8101521338663
 30
0.0
 11
1864.804730482347
 21
699.9397521647113
 31
0.0
  0
ARC
  5
37C
330
1A
100
AcDbEntity
  8
0
100
AcDbCircle
 10
1844.880836520512
 20
701.6828670196643
 30
0.0
 40
19.99999999999996
100
AcDbArc
 50
270.9999999999979
 51
355.0000000000001
  0
LINE
  5
37D
330
1A
100
AcDbEntity
  8
0
100
AcDbLine
 10
1873.432796866554
 20
798.5590022079211
 30
0.0
 11
1867.680517845209
 21
732.8101521338659
 31
0.0
  0
LINE
  5
37E
330
1A
100
AcDbEntity
  8
0
100
AcDbLine
 10
1989.428865333865
 20
838.1482219048182
 30
0.0
 11
1998.428865333865
 21
838.1482207312362
 31
0.0
  0
LINE
  5
37F
330
1A
100
AcDbEntity
  8
0
100
AcDbLine
 10
1938.428865333865
 20
838.1482285551117
 30
0.0
 11
1947.428865333865
 21
838.1482273815315
 31
0.0
  0
LINE
  5
380
330
1A
100
AcDbEntity
  8
0
100
AcDbLine
 10
1947.428865333865
 20
838.1482273815315
 30
0.0
 11
1989.428865333865
 21
838.1482219048182
 31
0.0
  0
LINE
  5
381
330
1A
100
AcDbEntity
  8
0
100
AcDbLine
 10
2018.428867941825
 20
868.1482207328679
 30
0.0
 11
2018.428867941825
 21
858.1482207312362
 31
0.0
  0
LINE
  5
382
330
1A
100
AcDbEntity
  8
0
100
AcDbLine
 10
1792.34426392458
 20
2128.970330041329
 30
0.0
 11
1388.428867941825
 21
2128.970330041329
 31
0.0
  0
LINE
  5
383
330
1A
100
AcDbEntity
  8
0
100
AcDbLine
 10
1792.34426392458
 20
1411.066641212653
 30
0.0
 11
1388.428867941825
 21
1411.066641212653
 31
0.0
  0
LINE
  5
384
330
1A
100
AcDbEntity
  8
0
100
AcDbLine
 10
1826.331300516757
 20
1380.018485626993
 30
0.0
 11
1388.428867941825
 21
1380.018485626993
 31
0.0
  0
LINE
  5
385
330
1A
100
AcDbEntity
  8
0
100
AcDbLine
 10
1838.428867941828
 20
1360.018485626993
 30
0.0
 11
1403.428867941825
 21
1360.018485626992
 31
0.0
  0
LINE
  5
386
330
1A
100
AcDbEntity
  8
0
100
AcDbLine
 10
1862.056685435483
 20
1320.018485626992
 30
0.0
 11
1403.428867941825
 21
1320.018485626992
 31
0.0
  0
LINE
  5
387
330
1A
100
AcDbEntity
  8
0
100
AcDbLine
 10
1873.604007639968
 20
1300.018485626992
 30
0.0
 11
1403.428867941825
 21
1300.018485626992
 31
0.0
  0
ARC
  5
388
330
1A
100
AcDbEntity
  8
0
100
AcDbCircle
 10
1448.428867941825
 20
1770.018485626993
 30
0.0
 40
314.9999999999993
100
AcDbArc
 50
258.5770382363542
 51
101.4229617636455
  0
LINE
  5
39F
330
1A
100
AcDbEntity
  8
0
100
AcDbLine
 10
1183.956731986824
 20
1410.018485626991
 30
0.0
 11
1183.956731986824
 21
1392.319852363887
 31
0.0
  0
LINE
  5
3A0
330
1A
100
AcDbEntity
  8
0
100
AcDbLine
 10
1163.956731986824
 20
1410.018485626991
 30
0.0
 11
1163.956731986824
 21
1392.319852363887
 31
0.0
  0
LINE
  5
3A1
330
1A
100
AcDbEntity
  8
0
100
AcDbLine
 10
1403.428867941825
 20
1300.018485626994
 30
0.0
 11
1403.428867941825
 21
1380.018485626993
 31
0.0
  0
LINE
  5
3A2
330
1A
100
AcDbEntity
  8
0
100
AcDbLine
 10
1388.428867941825
 20
1300.018485626994
 30
0.0
 11
1388.428867941825
 21
1411.066641212653
 31
0.0
  0
LINE
  5
3A3
330
1A
100
AcDbEntity
  8
0
100
AcDbLine
 10
1388.428867941825
 20
1300.018485626992
 30
0.0
 11
1403.428867941825
 21
1300.018485626992
 31
0.0
  0
ARC
  5
3AB
330
1A
100
AcDbEntity
  8
0
100
AcDbCircle
 10
1088.428867941827
 20
1770.018485626991
 30
0.0
 40
859.9999999999999
100
AcDbArc
 50
331.9275130641472
 51
357.3498494897206
  0
ARC
  5
3AC
330
1A
100
AcDbEntity
  8
0
100
AcDbCircle
 10
1088.428867941825
 20
1770.018485626991
 30
0.0
 40
899.9999999999996
100
AcDbArc
 50
330.3709915467929
 51
357.4387217993888
  0
ARC
  5
3AD
330
1A
100
AcDbEntity
  8
0
100
AcDbCircle
 10
1088.428867941825
 20
1770.018485626991
 30
0.0
 40
801.2715517241382
100
AcDbArc
 50
334.288089253742
 51
25.71191074625793
  0
ARC
  5
3AE
330
1A
100
AcDbEntity
  8
0
100
AcDbCircle
 10
1088.428867941825
 20
1770.018485626991
 30
0.0
 40
840.0
100
AcDbArc
 50
332.7527448138806
 51
27.24725518611935
  0
ARC
  5
3AF
330
1A
100
AcDbEntity
  8
0
100
AcDbCircle
 10
1682.211515745575
 20
1580.773085681808
 30
0.0
 40
2.0
100
AcDbArc
 50
330.0000000000026
 51
59.99999999999628
  0
ARC
  5
3B1
330
1A
100
AcDbEntity
  8
0
100
AcDbCircle
 10
1873.604007639968
 20
1310.018485626992
 30
0.0
 40
10.0
100
AcDbArc
 50
270.0
 51
329.6358157578362
  0
ARC
  5
3B2
330
1A
100
AcDbEntity
  8
0
100
AcDbCircle
 10
1862.056685435483
 20
1330.018485626992
 30
0.0
 40
10.0
100
AcDbArc
 50
270.0
 51
330.3709915467921
  0
ARC
  5
3B3
330
1A
100
AcDbEntity
  8
0
100
AcDbCircle
 10
1826.331300516757
 20
1390.018485626993
 30
0.0
 40
10.0
100
AcDbArc
 50
270.0
 51
332.7527448138826
  0
ARC
  5
3B4
330
1A
100
AcDbEntity
  8
0
100
AcDbCircle
 10
1838.428867941828
 20
1370.018485626993
 30
0.0
 40
10.0
100
AcDbArc
 50
270.0
 51
331.9275130641472
  0
ARC
  5
3B5
330
1A
100
AcDbEntity
  8
0
100
AcDbCircle
 10
1792.34426392458
 20
1431.066641212653
 30
0.0
 40
20.0
100
AcDbArc
 50
270.0
 51
334.2880892539727
  0
ARC
  5
3B7
330
1A
100
AcDbEntity
  8
0
100
AcDbCircle
 10
1729.211515745578
 20
1877.85749761644
 30
0.0
 40
2.0
100
AcDbArc
 50
30.00000000000273
 51
119.9999999999961
  0
ARC
  5
3B8
330
1A
100
AcDbEntity
  8
0
100
AcDbCircle
 10
1729.211515745578
 20
1662.179473637546
 30
0.0
 40
2.0
100
AcDbArc
 50
240.0000000000038
 51
329.9999999999971
  0
ARC
  5
3B9
330
1A
100
AcDbEntity
  8
0
100
AcDbCircle
 10
1682.211515745575
 20
1959.263885572178
 30
0.0
 40
2.0
100
AcDbArc
 50
300.0000000000038
 51
29.99999999999729
  0
LINE
  5
3BB
330
1A
100
AcDbEntity
  8
0
100
AcDbLine
 10
1828.26143586706
 20
1845.018485626993
 30
0.0
 11
1868.252127370508
 21
1845.018485626993
 31
0.0
  0
LINE
  5
3BD
330
1A
100
AcDbEntity
  8
0
100
AcDbLine
 10
1828.26143586706
 20
1695.018485626991
 30
0.0
 11
1868.252127370508
 21
1695.018485626991
 31
0.0
  0
LINE
  5
3BE
330
1A
100
AcDbEntity
  8
0
100
AcDbLine
 10
1868.252127370508
 20
1695.018485626991
 30
0.0
 11
1868.252127370508
 21
1845.018485626993
 31
0.0
  0
ARC
  5
3C1
330
1A
100
AcDbEntity
  8
0
100
AcDbCircle
 10
1997.519777032733
 20
1810.684429711256
 30
0.0
 40
10.0
100
AcDbArc
 50
182.5612782006126
 51
234.4214742675419
  0
ARC
  5
3C2
330
1A
100
AcDbEntity
  8
0
100
AcDbCircle
 10
1968.428867941825
 20
1770.018485626993
 30
0.0
 40
39.99999999999856
100
AcDbArc
 50
305.578525732458
 51
54.42147426754207
  0
ARC
  5
3C3
330
1A
100
AcDbEntity
  8
0
100
AcDbCircle
 10
1997.519777032733
 20
1729.352541542729
 30
0.0
 40
10.0
100
AcDbArc
 50
125.5785257324581
 51
177.4387217993895
  0
ARC
  5
3C4
330
1A
100
AcDbEntity
  8
0
100
AcDbCircle
 10
1937.519777032735
 20
1809.32024257466
 30
0.0
 40
10.0
100
AcDbArc
 50
308.1834824332094
 51
2.650150510279009
  0
ARC
  5
3C5
330
1A
100
AcDbEntity
  8
0
100
AcDbCircle
 10
1937.519777032735
 20
1730.716728679325
 30
0.0
 40
10.0
100
AcDbArc
 50
357.3498494897213
 51
51.81651756679094
  0
ARC
  5
3C6
330
1A
100
AcDbEntity
  8
0
100
AcDbCircle
 10
1968.428867941825
 20
1770.018485626993
 30
0.0
 40
39.99999999999856
100
AcDbArc
 50
128.1834824332087
 51
231.8165175667913
  0
CIRCLE
  5
3C8
330
1A
100
AcDbEntity
  8
0
100
AcDbCircle
 10
1968.428867941825
 20
1770.018485626993
 30
0.0
 40
19.99999999999855
  0
ARC
  5
3C9
330
1A
100
AcDbEntity
  8
0
100
AcDbCircle
 10
1792.34426392458
 20
2108.97033004133
 30
0.0
 40
20.0
100
AcDbArc
 50
25.71191074602698
 51
90.0
  0
LINE
  5
3CB
330
1A
100
AcDbEntity
  8
0
100
AcDbLine
 10
2053.428867941821
 20
2295.018485626992
 30
0.0
 11
123.4288679418241
 21
2295.018485626992
 31
0.0
  0
LINE
  5
3CC
330
1A
100
AcDbEntity
  8
0
100
AcDbLine
 10
788.4288679418249
 20
2160.018485626991
 30
0.0
 11
350.5264353668943
 21
2160.018485626991
 31
0.0
  0
LINE
  5
3CD
330
1A
100
AcDbEntity
  8
0
100
AcDbLine
 10
771.4051272144741
 20
2180.018485626992
 30
0.0
 11
338.4288679418213
 21
2180.018485626992
 31
0.0
  0
LINE
  5
3CE
330
1A
100
AcDbEntity
  8
0
100
AcDbLine
 10
771.405127214478
 20
2220.018485626991
 30
0.0
 11
314.8010504481671
 21
2220.018485626991
 31
0.0
  0
LINE
  5
3CF
330
1A
100
AcDbEntity
  8
0
100
AcDbLine
 10
788.4288679418249
 20
2240.018485626992
 30
0.0
 11
303.2537282436815
 21
2240.018485626992
 31
0.0
  0
ARC
  5
3D1
330
1A
100
AcDbEntity
  8
0
100
AcDbCircle
 10
338.4288679418213
 20
2170.018485626992
 30
0.0
 40
10.0
100
AcDbArc
 50
90.0
 51
151.9275130641495
  0
ARC
  5
3D2
330
1A
100
AcDbEntity
  8
0
100
AcDbCircle
 10
303.2537282436815
 20
2230.018485626992
 30
0.0
 40
10.0
100
AcDbArc
 50
90.0
 51
149.635815757839
  0
ARC
  5
3D3
330
1A
100
AcDbEntity
  8
0
100
AcDbCircle
 10
314.8010504481671
 20
2210.018485626992
 30
0.0
 40
10.0
100
AcDbArc
 50
90.0
 51
150.3709915467926
  0
LINE
  5
3D4
330
1A
100
AcDbEntity
  8
0
100
AcDbLine
 10
773.4288679418249
 20
2240.018485626992
 30
0.0
 11
773.4288679418249
 21
2160.018485626991
 31
0.0
  0
LINE
  5
3D5
330
1A
100
AcDbEntity
  8
0
100
AcDbLine
 10
1388.428867941825
 20
2160.018485626991
 30
0.0
 11
1826.331300516755
 21
2160.018485626991
 31
0.0
  0
LINE
  5
3D6
330
1A
100
AcDbEntity
  8
0
100
AcDbLine
 10
1405.452608669175
 20
2180.018485626992
 30
0.0
 11
1838.428867941827
 21
2180.018485626992
 31
0.0
  0
LINE
  5
3D7
330
1A
100
AcDbEntity
  8
0
100
AcDbLine
 10
1405.452608669172
 20
2220.018485626991
 30
0.0
 11
1862.05668543548
 21
2220.018485626991
 31
0.0
  0
LINE
  5
3D8
330
1A
100
AcDbEntity
  8
0
100
AcDbLine
 10
1388.428867941825
 20
2240.018485626992
 30
0.0
 11
1873.604007639968
 21
2240.018485626992
 31
0.0
  0
LINE
  5
3D9
330
1A
100
AcDbEntity
  8
0
100
AcDbLine
 10
1403.428867941825
 20
2240.018485626992
 30
0.0
 11
1403.428867941825
 21
2160.018485626991
 31
0.0
  0
ARC
  5
3DB
330
1A
100
AcDbEntity
  8
0
100
AcDbCircle
 10
1873.604007639968
 20
2230.018485626992
 30
0.0
 40
10.0
100
AcDbArc
 50
30.36418424216158
 51
90.0
  0
ARC
  5
3DC
330
1A
100
AcDbEntity
  8
0
100
AcDbCircle
 10
1862.05668543548
 20
2210.018485626992
 30
0.0
 40
10.0
100
AcDbArc
 50
29.62900845320661
 51
90.0
  0
ARC
  5
3DD
330
1A
100
AcDbEntity
  8
0
100
AcDbCircle
 10
1838.428867941827
 20
2170.018485626992
 30
0.0
 40
10.0
100
AcDbArc
 50
28.0724869358551
 51
90.0
  0
ARC
  5
3DE
330
1A
100
AcDbEntity
  8
0
100
AcDbCircle
 10
2053.428867941824
 20
908.1482285551517
 30
0.0
 40
10.0
100
AcDbArc
 50
0.000000000000007
 51
90.0
  0
LINE
  5
3DF
330
1A
100
AcDbEntity
  8
0
100
AcDbLine
 10
2063.428867941825
 20
868.1482207328679
 30
0.0
 11
2063.428867941825
 21
908.1482285551517
 31
0.0
  0
LINE
  5
3E0
330
1A
100
AcDbEntity
  8
0
100
AcDbLine
 10
2053.428867941824
 20
868.1482207328679
 30
0.0
 11
2063.428867941825
 21
868.1482207328679
 31
0.0
  0
LINE
  5
3E1
330
1A
100
AcDbEntity
  8
0
100
AcDbLine
 10
2063.428867941825
 20
868.1482207328679
 30
0.0
 11
2063.428867941825
 21
908.1482285551517
 31
0.0
  0
LINE
  5
3E2
330
1A
100
AcDbEntity
  8
0
100
AcDbLine
 10
2053.428867941824
 20
868.1482207328679
 30
0.0
 11
2063.428867941825
 21
868.1482207328679
 31
0.0
  0
ARC
  5
3E3
330
1A
100
AcDbEntity
  8
0
100
AcDbCircle
 10
2053.428867941824
 20
908.1482285551517
 30
0.0
 40
10.0
100
AcDbArc
 50
0.000000000000007
 51
90.0
  0
LINE
  5
56A
330
1A
100
AcDbEntity
  8
0
100
AcDbLine
 10
2063.428867941822
 20
2285.018485626991
 30
0.0
 11
2063.428867941823
 21
1255.018485626992
 31
0.0
  0
ARC
  5
56B
330
1A
100
AcDbEntity
  8
0
100
AcDbCircle
 10
2053.428867941823
 20
1255.018485626992
 30
0.0
 40
10.0
100
AcDbArc
 50
270.0
 51
0.000000000000007
  0
ARC
  5
56C
330
1A
100
AcDbEntity
  8
0
100
AcDbCircle
 10
2053.428867941821
 20
2285.018485626991
 30
0.0
 40
10.0
100
AcDbArc
 50
0.0000000000000579
 51
90.0
  0
LINE
  5
56D
330
1A
100
AcDbEntity
  8
0
100
AcDbLine
 10
113.428867941824
 20
2285.018485626991
 30
0.0
 11
113.428867941824
 21
1255.018485626992
 31
0.0
  0
ARC
  5
56E
330
1A
100
AcDbEntity
  8
0
100
AcDbCircle
 10
123.4288679418241
 20
2285.018485626991
 30
0.0
 40
10.0
100
AcDbArc
 50
90.0
 51
180.0
  0
ARC
  5
56F
330
1A
100
AcDbEntity
  8
0
100
AcDbCircle
 10
123.4288679418241
 20
1255.018485626992
 30
0.0
 40
10.0
100
AcDbArc
 50
180.0
 51
270.0
  0
ARC
  5
173B
330
1A
100
AcDbEntity
  8
0
100
AcDbCircle
 10
1088.428867941827
 20
2920.700303808811
 30
0.0
 40
915.681818181817
100
AcDbArc
 50
252.6272908375273
 51
287.3727091624727
  0
ARC
  5
173C
330
1A
100
AcDbEntity
  8
0
100
AcDbCircle
 10
1448.428867941825
 20
1770.018485626993
 30
0.0
 40
289.9999999999995
100
AcDbArc
 50
252.6272908375273
 51
107.3727091624727
  0
ARC
  5
173D
330
1A
100
AcDbEntity
  8
0
100
AcDbCircle
 10
728.4288679418267
 20
1770.018485626993
 30
0.0
 40
290.0000000000006
100
AcDbArc
 50
72.62729083752724
 51
287.3727091624727
  0
LINE
  5
1743
330
1A
100
AcDbEntity
  8
0
100
AcDbLine
 10
1130.928867941825
 20
1530.415226850917
 30
0.0
 11
1130.928867941825
 21
1514.415226850917
 31
0.0
  0
LINE
  5
1744
330
1A
100
AcDbEntity
  8
0
100
AcDbLine
 10
1123.428867941825
 20
1510.415226850916
 30
0.0
 11
1123.428867941825
 21
1513.246730129814
 31
0.0
  0
LINE
  5
1745
330
1A
100
AcDbEntity
  8
0
100
AcDbLine
 10
1053.428867941825
 20
1510.415226850916
 30
0.0
 11
1053.428867941825
 21
1513.246730129814
 31
0.0
  0
LINE
  5
1746
330
1A
100
AcDbEntity
  8
0
100
AcDbLine
 10
1045.928867941825
 20
1530.415226850917
 30
0.0
 11
1045.928867941825
 21
1514.415226850917
 31
0.0
  0
ARC
  5
1750
330
1A
100
AcDbEntity
  8
0
100
AcDbCircle
 10
1088.42886794183
 20
619.3366674451754
 30
0.0
 40
915.681818181817
100
AcDbArc
 50
72.62729083752731
 51
107.3727091624728
  0
CIRCLE
  5
2045
330
1A
100
AcDbEntity
  8
0
100
AcDbCircle
 10
1088.428867941825
 20
1360.018485626992
 30
0.0
 40
25.5
  0
CIRCLE
  5
205A
330
1A
100
AcDbEntity
  8
0
100
AcDbCircle
 10
1088.428867941825
 20
1855.018485626992
 30
0.0
 40
25.5
  0
CIRCLE
  5
205B
330
1A
100
AcDbEntity
  8
0
100
AcDbCircle
 10
1088.428867941825
 20
1685.018485626992
 30
0.0
 40
25.5
  0
ARC
  5
2292
330
1A
100
AcDbEntity
  8
0
100
AcDbCircle
 10
1861.544449369595
 20
1843.649927521439
 30
0.0
 40
1.368558105554257
100
AcDbArc
 50
90.00000000001902
 51
169.5103761968907
  0
ARC
  5
2293
330
1A
100
AcDbEntity
  8
0
100
AcDbCircle
 10
2054.338837436163
 20
1807.953712733621
 30
0.0
 40
197.4397079979855
100
AcDbArc
 50
169.5103761968869
 51
175.6144363191846
  0
ARC
  5
2294
330
1A
100
AcDbEntity
  8
0
100
AcDbCircle
 10
2347.706647025729
 20
1785.454643562842
 30
0.0
 40
491.6690060240847
100
AcDbArc
 50
175.6144363191856
 51
178.180495998085
  0
ARC
  5
2295
330
1A
100
AcDbEntity
  8
0
100
AcDbCircle
 10
2833.624444561214
 20
1770.018485626964
 30
0.0
 40
977.8319220651567
100
AcDbArc
 50
178.1804959980829
 51
179.9999999999983
  0
ARC
  5
2296
330
1A
100
AcDbEntity
  8
0
100
AcDbCircle
 10
2833.624444562105
 20
1770.018485627037
 30
0.0
 40
977.8319220660495
100
AcDbArc
 50
180.0000000000025
 51
181.8195040019162
  0
ARC
  5
2297
330
1A
100
AcDbEntity
  8
0
100
AcDbCircle
 10
2347.706647026158
 20
1754.582327691164
 30
0.0
 40
491.6690060245158
100
AcDbArc
 50
181.8195040019156
 51
184.385563680813
  0
ARC
  5
2298
330
1A
100
AcDbEntity
  8
0
100
AcDbCircle
 10
2054.338837436243
 20
1732.083258520358
 30
0.0
 40
197.4397079980649
100
AcDbArc
 50
184.385563680812
 51
190.489623803107
  0
ARC
  5
2299
330
1A
100
AcDbEntity
  8
0
100
AcDbCircle
 10
1861.544449369595
 20
1696.387043732547
 30
0.0
 40
1.368558105556165
100
AcDbArc
 50
190.4896238031344
 51
269.9999999999905
  0
LINE
  5
22B2
330
1A
100
AcDbEntity
  8
0
100
AcDbLine
 10
545.4966005966817
 20
918.1482285551517
 30
0.0
 11
619.5726287299513
 21
918.1482285551517
 31
0.0
  0
ARC
  5
22CC
330
1A
100
AcDbEntity
  8
0
100
AcDbCircle
 10
478.1792126160524
 20
750.8505571150126
 30
0.0
 40
171.991673621547
100
AcDbArc
 50
187.1800704160675
 51
189.3207772200103
  0
ARC
  5
22CD
330
1A
100
AcDbEntity
  8
0
100
AcDbCircle
 10
406.1615559694138
 20
739.0303958154727
 30
0.0
 40
99.01044944696742
100
AcDbArc
 50
189.3207772200264
 51
201.6155324405579
  0
ARC
  5
22CE
330
1A
100
AcDbEntity
  8
0
100
AcDbCircle
 10
361.0233616421238
 20
721.1447640820766
 30
0.0
 40
50.45787578057089
100
AcDbArc
 50
201.6155324405554
 51
223.7296680897315
  0
ARC
  5
22CF
330
1A
100
AcDbEntity
  8
0
100
AcDbCircle
 10
333.2496657799253
 20
694.5761155814762
 30
0.0
 40
12.02258906387816
100
AcDbArc
 50
223.7296680897423
 51
266.8282496611376
  0
ARC
  5
22E2
330
1A
100
AcDbEntity
  8
0
100
AcDbCircle
 10
431.3444560071931
 20
1725.465033732882
 30
0.0
 40
0.4465481058914521
100
AcDbArc
 50
270.0000000000948
 51
353.8950673437045
  0
ARC
  5
22E3
330
1A
100
AcDbEntity
  8
0
100
AcDbCircle
 10
227.1085111058319
 20
1747.309343634968
 30
0.0
 40
205.8473637441215
100
AcDbArc
 50
353.8950673437377
 51
357.4632994437715
  0
ARC
  5
22E4
330
1A
100
AcDbEntity
  8
0
100
AcDbCircle
 10
-75.55310777327867
 20
1760.718078874909
 30
0.0
 40
508.8058587946133
100
AcDbArc
 50
357.4632994437695
 51
358.9486951468042
  0
ARC
  5
22E5
330
1A
100
AcDbEntity
  8
0
100
AcDbCircle
 10
-582.3654274705484
 20
1770.018485626986
 30
0.0
 40
1015.703506217326
100
AcDbArc
 50
358.9486951468112
 51
0.0000000000003207
  0
ARC
  5
22E6
330
1A
100
AcDbEntity
  8
0
100
AcDbCircle
 10
-582.3654274676568
 20
1770.018485627013
 30
0.0
 40
1015.703506214434
100
AcDbArc
 50
359.9999999999987
 51
1.051304853190199
  0
ARC
  5
22E7
330
1A
100
AcDbEntity
  8
0
100
AcDbCircle
 10
-75.5531077717502
 20
1779.31889237913
 30
0.0
 40
508.805858793084
100
AcDbArc
 50
1.051304853191288
 51
2.536700556231699
  0
ARC
  5
22E8
330
1A
100
AcDbEntity
  8
0
100
AcDbCircle
 10
227.108511106277
 20
1792.727627619023
 30
0.0
 40
205.8473637436764
100
AcDbArc
 50
2.536700556231644
 51
6.104932656273909
  0
ARC
  5
22E9
330
1A
100
AcDbEntity
  8
0
100
AcDbCircle
 10
431.3444560071938
 20
1814.571937521103
 30
0.0
 40
0.4465481058890336
100
AcDbArc
 50
6.104932656271592
 51
89.99999999999269
  0
ARC
  5
22EA
330
1A
100
AcDbEntity
  8
0
100
AcDbCircle
 10
431.3444560071931
 20
1814.571937521101
 30
0.0
 40
0.4465481058900879
100
AcDbArc
 50
89.99999999990519
 51
173.8950673436263
  0
ARC
  5
22EB
330
1A
100
AcDbEntity
  8
0
100
AcDbCircle
 10
635.5804009087035
 20
1792.727627619006
 30
0.0
 40
205.8473637442694
100
AcDbArc
 50
173.8950673437392
 51
177.4632994437711
  0
ARC
  5
22EC
330
1A
100
AcDbEntity
  8
0
100
AcDbCircle
 10
938.242019786726
 20
1779.318892379168
 30
0.0
 40
508.8058587936695
100
AcDbArc
 50
177.4632994437754
 51
178.9486951468121
  0
ARC
  5
22ED
330
1A
100
AcDbEntity
  8
0
100
AcDbCircle
 10
1445.054339483315
 20
1770.018485626921
 30
0.0
 40
1015.703506215706
100
AcDbArc
 50
178.9486951468048
 51
179.9999999999959
  0
ARC
  5
22EE
330
1A
100
AcDbEntity
  8
0
100
AcDbCircle
 10
1445.054339481654
 20
1770.018485626945
 30
0.0
 40
1015.703506214044
100
AcDbArc
 50
179.9999999999973
 51
181.0513048531904
  0
ARC
  5
22EF
330
1A
100
AcDbEntity
  8
0
100
AcDbCircle
 10
938.2420197859959
 20
1760.718078874863
 30
0.0
 40
508.8058587929425
100
AcDbArc
 50
181.0513048531954
 51
182.5367005562336
  0
ARC
  5
22F0
330
1A
100
AcDbEntity
  8
0
100
AcDbCircle
 10
635.5804009086308
 20
1747.309343634971
 30
0.0
 40
205.8473637441968
100
AcDbArc
 50
182.5367005562281
 51
186.1049326562613
  0
ARC
  5
22F1
330
1A
100
AcDbEntity
  8
0
100
AcDbCircle
 10
431.3444560071929
 20
1725.465033732882
 30
0.0
 40
0.4465481058900347
100
AcDbArc
 50
186.1049326563751
 51
270.0000000001094
  0
ARC
  5
22F2
330
1A
100
AcDbEntity
  8
0
100
AcDbCircle
 10
350.0169004239578
 20
1538.720238090291
 30
0.0
 40
0.6981294541454336
100
AcDbArc
 50
284.99999999991
 51
3.117582327934971
  0
ARC
  5
22F3
330
1A
100
AcDbEntity
  8
0
100
AcDbCircle
 10
274.3131240585061
 20
1534.596968410021
 30
0.0
 40
76.51411133690266
100
AcDbArc
 50
3.11758232796471
 51
10.01893060629746
  0
ARC
  5
22F4
330
1A
100
AcDbEntity
  8
0
100
AcDbCircle
 10
161.9003406583509
 20
1514.737263376296
 30
0.0
 40
190.6676997859598
100
AcDbArc
 50
10.01893060630641
 51
12.93245775751922
  0
ARC
  5
22F5
330
1A
100
AcDbEntity
  8
0
100
AcDbCircle
 10
-21.2474870830859
 20
1472.68160243817
 30
0.0
 40
378.5820564044728
100
AcDbArc
 50
12.93245775749991
 51
14.99999999999788
  0
ARC
  5
22F6
330
1A
100
AcDbEntity
  8
0
100
AcDbCircle
 10
-21.24748708365472
 20
1472.681602438015
 30
0.0
 40
378.5820564050626
100
AcDbArc
 50
14.99999999999833
 51
17.06754224249553
  0
ARC
  5
22F7
330
1A
100
AcDbEntity
  8
0
100
AcDbCircle
 10
158.3910148577427
 20
1527.834245563367
 30
0.0
 40
190.6676997862511
100
AcDbArc
 50
17.06754224250035
 51
19.98106939370386
  0
ARC
  5
22F8
330
1A
100
AcDbEntity
  8
0
100
AcDbCircle
 10
265.6731935094903
 20
1566.841628192706
 30
0.0
 40
76.51411133692853
100
AcDbArc
 50
19.98106939369366
 51
26.88241767202408
  0
ARC
  5
22F9
330
1A
100
AcDbEntity
  8
0
100
AcDbCircle
 10
333.2962218445516
 20
1601.122660085663
 30
0.0
 40
0.6981294541462939
100
AcDbArc
 50
26.88241767212228
 51
105.0000000000399
  0
ARC
  5
22FA
330
1A
100
AcDbEntity
  8
0
100
AcDbCircle
 10
333.2962218445508
 20
1601.122660085663
 30
0.0
 40
0.6981294541465917
100
AcDbArc
 50
104.9999999999762
 51
183.1175823279301
  0
ARC
  5
22FB
330
1A
100
AcDbEntity
  8
0
100
AcDbCircle
 10
408.9999982100581
 20
1605.245929765954
 30
0.0
 40
76.51411133696033
100
AcDbArc
 50
183.1175823279794
 51
190.0189306063066
  0
ARC
  5
22FC
330
1A
100
AcDbEntity
  8
0
100
AcDbCircle
 10
521.4127816105754
 20
1625.105634799702
 30
0.0
 40
190.667699786378
100
AcDbArc
 50
190.0189306062978
 51
192.9324577575044
  0
ARC
  5
22FD
330
1A
100
AcDbEntity
  8
0
100
AcDbCircle
 10
704.5606093524392
 20
1667.161295737999
 30
0.0
 40
378.5820564053456
100
AcDbArc
 50
192.9324577575032
 51
194.9999999999963
  0
ARC
  5
22FE
330
1A
100
AcDbEntity
  8
0
100
AcDbCircle
 10
704.5606093518765
 20
1667.1612957379
 30
0.0
 40
378.5820564047761
100
AcDbArc
 50
195.0000000000035
 51
197.0675422425006
  0
ARC
  5
22FF
330
1A
100
AcDbEntity
  8
0
100
AcDbCircle
 10
524.9221074106562
 20
1612.00865261252
 30
0.0
 40
190.6676997861257
100
AcDbArc
 50
197.0675422424874
 51
199.9810693936962
  0
ARC
  5
2300
330
1A
100
AcDbEntity
  8
0
100
AcDbCircle
 10
417.639928758941
 20
1573.001269983232
 30
0.0
 40
76.5141113368517
100
AcDbArc
 50
199.9810693937027
 51
206.8824176720399
  0
ARC
  5
2301
330
1A
100
AcDbEntity
  8
0
100
AcDbCircle
 10
350.0169004239574
 20
1538.72023809029
 30
0.0
 40
0.6981294541450659
100
AcDbArc
 50
206.882417672006
 51
284.9999999999511
  0
ARC
  5
2302
330
1A
100
AcDbEntity
  8
0
100
AcDbCircle
 10
360.7137806148957
 20
1498.798937735229
 30
0.0
 40
1.368558105554323
100
AcDbArc
 50
284.9999999999848
 51
4.510376196859181
  0
ARC
  5
2303
330
1A
100
AcDbEntity
  8
0
100
AcDbCircle
 10
165.2498417926461
 20
1483.379974079026
 30
0.0
 40
197.4397079979837
100
AcDbArc
 50
4.510376196887808
 51
10.6144363191856
  0
ARC
  5
2304
330
1A
100
AcDbEntity
  8
0
100
AcDbCircle
 10
-123.9448896902394
 20
1429.183229716752
 30
0.0
 40
491.6690060240775
100
AcDbArc
 50
10.61443631918659
 51
13.1804959980861
  0
ARC
  5
2305
330
1A
100
AcDbEntity
  8
0
100
AcDbCircle
 10
-597.3006114402847
 20
1318.3286329692
 30
0.0
 40
977.8319220651598
100
AcDbArc
 50
13.18049599808561
 51
15.00000000000099
  0
ARC
  5
2306
330
1A
100
AcDbEntity
  8
0
100
AcDbCircle
 10
-597.3006114411572
 20
1318.328632969015
 30
0.0
 40
977.8319220660511
100
AcDbArc
 50
14.99999999999835
 51
16.8195040019119
  0
ARC
  5
2307
330
1A
100
AcDbEntity
  8
0
100
AcDbCircle
 10
-131.9352330046673
 20
1459.003596934441
 30
0.0
 40
491.669006024513
100
AcDbArc
 50
16.81950400191747
 51
19.38556368081494
  0
ARC
  5
2308
330
1A
100
AcDbEntity
  8
0
100
AcDbCircle
 10
145.6131232815966
 20
1556.665205255868
 30
0.0
 40
197.4397079980674
100
AcDbArc
 50
19.38556368081575
 51
25.48962380311076
  0
ARC
  5
2309
330
1A
100
AcDbEntity
  8
0
100
AcDbCircle
 10
322.5993416536101
 20
1641.043960440723
 30
0.0
 40
1.368558105555959
100
AcDbArc
 50
25.4896238031138
 51
104.9999999999652
  0
ARC
  5
230A
330
1A
100
AcDbEntity
  8
0
100
AcDbCircle
 10
386.9475285727146
 20
1529.488946758996
 30
0.0
 40
24.22303683475206
100
AcDbArc
 50
284.9999999999989
 51
321.6678713326471
  0
ARC
  5
230B
330
1A
100
AcDbEntity
  8
0
100
AcDbCircle
 10
363.3083321165705
 20
1548.179592128605
 30
0.0
 40
54.3585944606646
100
AcDbArc
 50
321.667871332648
 51
345.9101456685977
  0
ARC
  5
230C
330
1A
100
AcDbEntity
  8
0
100
AcDbCircle
 10
331.289343501232
 20
1556.21617894436
 30
0.0
 40
87.37074918580095
100
AcDbArc
 50
345.9101456685997
 51
2.022627717660508
  0
ARC
  5
230D
330
1A
100
AcDbEntity
  8
0
100
AcDbCircle
 10
284.3167205722851
 20
1554.557285115268
 30
0.0
 40
134.3726558871382
100
AcDbArc
 50
2.022627717663155
 51
15.0000000000003
  0
ARC
  5
230E
330
1A
100
AcDbEntity
  8
0
100
AcDbCircle
 10
284.316720572319
 20
1554.557285115276
 30
0.0
 40
134.3726558871034
100
AcDbArc
 50
15.00000000000057
 51
27.97737228234103
  0
ARC
  5
230F
330
1A
100
AcDbEntity
  8
0
100
AcDbCircle
 10
325.8256522257018
 20
1576.606952381582
 30
0.0
 40
87.3707491857788
100
AcDbArc
 50
27.9773722823355
 51
44.08985433139988
  0
ARC
  5
2310
330
1A
100
AcDbEntity
  8
0
100
AcDbCircle
 10
349.5366163621771
 20
1599.576335031397
 30
0.0
 40
54.3585944606653
100
AcDbArc
 50
44.08985433140349
 51
68.33212866735388
  0
ARC
  5
2311
330
1A
100
AcDbEntity
  8
0
100
AcDbCircle
 10
360.6634383334419
 20
1627.582506962679
 30
0.0
 40
24.22303683475176
100
AcDbArc
 50
68.33212866735104
 51
104.999999999998
  0
ARC
  5
2312
330
1A
100
AcDbEntity
  8
0
100
AcDbCircle
 10
360.7137806148957
 20
2041.238033518756
 30
0.0
 40
1.368558105554323
100
AcDbArc
 50
355.4896238031407
 51
75.00000000001508
  0
ARC
  5
2313
330
1A
100
AcDbEntity
  8
0
100
AcDbCircle
 10
165.2498417926376
 20
2056.656997174959
 30
0.0
 40
197.439707997992
100
AcDbArc
 50
349.3855636808146
 51
355.4896238031124
  0
ARC
  5
2314
330
1A
100
AcDbEntity
  8
0
100
AcDbCircle
 10
-123.9448896902394
 20
2110.853741537232
 30
0.0
 40
491.6690060240775
100
AcDbArc
 50
346.8195040019139
 51
349.3855636808134
  0
ARC
  5
2315
330
1A
100
AcDbEntity
  8
0
100
AcDbCircle
 10
-597.3006114402847
 20
2221.708338284783
 30
0.0
 40
977.8319220651598
100
AcDbArc
 50
344.9999999999988
 51
346.8195040019143
  0
ARC
  5
2316
330
1A
100
AcDbEntity
  8
0
100
AcDbCircle
 10
-597.3006114411288
 20
2221.708338284969
 30
0.0
 40
977.8319220660234
100
AcDbArc
 50
343.1804959980876
 51
345.0000000000012
  0
ARC
  5
2317
330
1A
100
AcDbEntity
  8
0
100
AcDbCircle
 10
-131.9352330046877
 20
2081.033374319544
 30
0.0
 40
491.6690060245324
100
AcDbArc
 50
340.6144363191858
 51
343.1804959980833
  0
ARC
  5
2318
330
1A
100
AcDbEntity
  8
0
100
AcDbCircle
 10
145.6131232815966
 20
1983.371765998116
 30
0.0
 40
197.4397079980674
100
AcDbArc
 50
334.5103761968891
 51
340.6144363191841
  0
ARC
  5
2319
330
1A
100
AcDbEntity
  8
0
100
AcDbCircle
 10
322.5993416536106
 20
1898.993010813262
 30
0.0
 40
1.368558105555694
100
AcDbArc
 50
255.000000000009
 51
334.5103761968597
  0
ARC
  5
231A
330
1A
100
AcDbEntity
  8
0
100
AcDbCircle
 10
386.9475285727146
 20
2010.54802449499
 30
0.0
 40
24.22303683475206
100
AcDbArc
 50
38.33212866735292
 51
75.0000000000011
  0
ARC
  5
231B
330
1A
100
AcDbEntity
  8
0
100
AcDbCircle
 10
363.3083321165705
 20
1991.85737912538
 30
0.0
 40
54.3585944606646
100
AcDbArc
 50
14.08985433140228
 51
38.33212866735197
  0
ARC
  5
231C
330
1A
100
AcDbEntity
  8
0
100
AcDbCircle
 10
331.289343501232
 20
1983.820792309624
 30
0.0
 40
87.37074918580095
100
AcDbArc
 50
357.9773722823395
 51
14.08985433140017
  0
ARC
  5
231D
330
1A
100
AcDbEntity
  8
0
100
AcDbCircle
 10
284.3167205722851
 20
1985.479686138718
 30
0.0
 40
134.3726558871382
100
AcDbArc
 50
344.9999999999997
 51
357.9773722823368
  0
ARC
  5
231E
330
1A
100
AcDbEntity
  8
0
100
AcDbCircle
 10
284.3167205723151
 20
1985.479686138709
 30
0.0
 40
134.372655887107
100
AcDbArc
 50
332.0226277176594
 51
345.0
  0
ARC
  5
231F
330
1A
100
AcDbEntity
  8
0
100
AcDbCircle
 10
325.8256522257049
 20
1963.430018872402
 30
0.0
 40
87.37074918577619
100
AcDbArc
 50
315.9101456685988
 51
332.0226277176631
  0
ARC
  5
2320
330
1A
100
AcDbEntity
  8
0
100
AcDbCircle
 10
349.5366163621751
 20
1940.460636222588
 30
0.0
 40
54.35859446066647
100
AcDbArc
 50
291.6678713326478
 51
315.9101456685983
  0
ARC
  5
2321
330
1A
100
AcDbEntity
  8
0
100
AcDbCircle
 10
360.6634383334433
 20
1912.454464291305
 30
0.0
 40
24.22303683475167
100
AcDbArc
 50
254.9999999999985
 51
291.6678713326455
  0
ARC
  5
2322
330
1A
100
AcDbEntity
  8
0
100
AcDbCircle
 10
350.0169004239574
 20
2001.316733163693
 30
0.0
 40
0.6981294541460054
100
AcDbArc
 50
356.8824176720299
 51
75.0000000000591
  0
ARC
  5
2323
330
1A
100
AcDbEntity
  8
0
100
AcDbCircle
 10
274.3131240585136
 20
2005.440002843962
 30
0.0
 40
76.51411133689518
100
AcDbArc
 50
349.9810693937019
 51
356.8824176720346
  0
ARC
  5
2324
330
1A
100
AcDbEntity
  8
0
100
AcDbCircle
 10
161.9003406583329
 20
2025.299707877687
 30
0.0
 40
190.6676997859774
100
AcDbArc
 50
347.0675422424818
 51
349.9810693936946
  0
ARC
  5
2325
330
1A
100
AcDbEntity
  8
0
100
AcDbCircle
 10
-21.24748708306071
 20
2067.355368815815
 30
0.0
 40
378.5820564044484
100
AcDbArc
 50
345.0000000000012
 51
347.0675422424991
  0
ARC
  5
2326
330
1A
100
AcDbEntity
  8
0
100
AcDbCircle
 10
-21.24748708365472
 20
2067.355368815971
 30
0.0
 40
378.5820564050626
100
AcDbArc
 50
342.9324577575044
 51
345.0000000000016
  0
ARC
  5
2327
330
1A
100
AcDbEntity
  8
0
100
AcDbCircle
 10
158.3910148577427
 20
2012.202725690618
 30
0.0
 40
190.6676997862511
100
AcDbArc
 50
340.0189306062961
 51
342.9324577574996
  0
ARC
  5
2328
330
1A
100
AcDbEntity
  8
0
100
AcDbCircle
 10
265.6731935094903
 20
1973.195343061276
 30
0.0
 40
76.51411133692853
100
AcDbArc
 50
333.1175823279758
 51
340.0189306063063
  0
ARC
  5
2329
330
1A
100
AcDbEntity
  8
0
100
AcDbCircle
 10
333.2962218445511
 20
1938.91431116832
 30
0.0
 40
0.6981294541465953
100
AcDbArc
 50
255.0000000000145
 51
333.1175823279321
  0
ARC
  5
232A
330
1A
100
AcDbEntity
  8
0
100
AcDbCircle
 10
333.2962218445508
 20
1938.91431116832
 30
0.0
 40
0.6981294541465917
100
AcDbArc
 50
176.8824176720698
 51
255.0000000000236
  0
ARC
  5
232B
330
1A
100
AcDbEntity
  8
0
100
AcDbCircle
 10
408.9999982100658
 20
1934.791041488028
 30
0.0
 40
76.51411133696784
100
AcDbArc
 50
169.981069393694
 51
176.8824176720209
  0
ARC
  5
232C
330
1A
100
AcDbEntity
  8
0
100
AcDbCircle
 10
521.4127816105754
 20
1914.931336454283
 30
0.0
 40
190.667699786378
100
AcDbArc
 50
167.0675422424953
 51
169.981069393702
  0
ARC
  5
232D
330
1A
100
AcDbEntity
  8
0
100
AcDbCircle
 10
704.5606093524392
 20
1872.875675515984
 30
0.0
 40
378.5820564053456
100
AcDbArc
 50
165.0000000000035
 51
167.0675422424966
  0
ARC
  5
232E
330
1A
100
AcDbEntity
  8
0
100
AcDbCircle
 10
704.5606093518765
 20
1872.875675516084
 30
0.0
 40
378.5820564047761
100
AcDbArc
 50
162.9324577574991
 51
164.9999999999961
  0
ARC
  5
232F
330
1A
100
AcDbEntity
  8
0
100
AcDbCircle
 10
524.9221074106562
 20
1928.028318641463
 30
0.0
 40
190.6676997861257
100
AcDbArc
 50
160.0189306063038
 51
162.9324577575124
  0
ARC
  5
2330
330
1A
100
AcDbEntity
  8
0
100
AcDbCircle
 10
417.6399287589334
 20
1967.035701270753
 30
0.0
 40
76.51411133684473
100
AcDbArc
 50
153.1175823279576
 51
160.0189306062949
  0
ARC
  5
2331
330
1A
100
AcDbEntity
  8
0
100
AcDbCircle
 10
350.0169004239581
 20
2001.316733163695
 30
0.0
 40
0.6981294541453674
100
AcDbArc
 50
75.00000000010351
 51
153.1175823280483
  0
ARC
  5
2344
330
1A
100
AcDbEntity
  8
0
100
AcDbCircle
 10
1046.403113904419
 20
1530.415226850917
 30
0.0
 40
0.4742459625952053
100
AcDbArc
 50
96.79547078679206
 51
180.0
  0
ARC
  5
2345
330
1A
100
AcDbEntity
  8
0
100
AcDbCircle
 10
1066.968511945983
 20
1357.832581770764
 30
0.0
 40
174.2778851059392
100
AcDbArc
 50
92.82575580730769
 51
96.79547078679071
  0
ARC
  5
2346
330
1A
100
AcDbEntity
  8
0
100
AcDbCircle
 10
1079.649569782101
 20
1100.916571042622
 30
0.0
 40
431.506666147847
100
AcDbArc
 50
91.17125311687541
 51
92.82575580730732
  0
ARC
  5
2347
330
1A
100
AcDbEntity
  8
0
100
AcDbCircle
 10
1088.428867941825
 20
671.5075433883104
 30
0.0
 40
861.0054311137073
100
AcDbArc
 50
90.00000000000005
 51
91.17125311687781
  0
ARC
  5
2348
330
1A
100
AcDbEntity
  8
0
100
AcDbCircle
 10
1088.428867941825
 20
671.5075433872352
 30
0.0
 40
861.0054311147822
100
AcDbArc
 50
88.8287468831244
 51
90.0
  0
ARC
  5
2349
330
1A
100
AcDbEntity
  8
0
100
AcDbCircle
 10
1097.208166101522
 20
1100.916571042124
 30
0.0
 40
431.5066661483455
100
AcDbArc
 50
87.17424419269256
 51
88.82874688312403
  0
ARC
  5
234A
330
1A
100
AcDbEntity
  8
0
100
AcDbCircle
 10
1109.889223937666
 20
1357.832581770772
 30
0.0
 40
174.2778851059315
100
AcDbArc
 50
83.20452921320924
 51
87.1742441926924
  0
ARC
  5
234B
330
1A
100
AcDbEntity
  8
0
100
AcDbCircle
 10
1130.454621979229
 20
1530.415226850917
 30
0.0
 40
0.474245962595199
100
AcDbArc
 50
0.0
 51
83.20452921323525
  0
ARC
  5
234C
330
1A
100
AcDbEntity
  8
0
100
AcDbCircle
 10
1130.454621979229
 20
1530.415226850917
 30
0.0
 40
0.4742459625956599
100
AcDbArc
 50
276.7954707868399
 51
0.0
  0
ARC
  5
234D
330
1A
100
AcDbEntity
  8
0
100
AcDbCircle
 10
1109.889223937658
 20
1702.997871931251
 30
0.0
 40
174.2778851061218
100
AcDbArc
 50
272.8257558073075
 51
276.7954707867864
  0
ARC
  5
234E
330
1A
100
AcDbEntity
  8
0
100
AcDbCircle
 10
1097.208166101517
 20
1959.913882659797
 30
0.0
 40
431.5066661484343
100
AcDbArc
 50
271.1712531168769
 51
272.8257558073075
  0
ARC
  5
234F
330
1A
100
AcDbEntity
  8
0
100
AcDbCircle
 10
1088.428867941825
 20
2389.32291031491
 30
0.0
 40
861.0054311150939
100
AcDbArc
 50
270.0
 51
271.1712531168752
  0
ARC
  5
2350
330
1A
100
AcDbEntity
  8
0
100
AcDbCircle
 10
1088.428867941825
 20
2389.322910316033
 30
0.0
 40
861.0054311162175
100
AcDbArc
 50
268.8287468831254
 51
270.0
  0
ARC
  5
2351
330
1A
100
AcDbEntity
  8
0
100
AcDbCircle
 10
1079.649569782161
 20
1959.913882660444
 30
0.0
 40
431.5066661490813
100
AcDbArc
 50
267.1742441926924
 51
268.8287468831193
  0
ARC
  5
2352
330
1A
100
AcDbEntity
  8
0
100
AcDbCircle
 10
1066.968511945982
 20
1702.997871931061
 30
0.0
 40
174.2778851059308
100
AcDbArc
 50
263.2045292132092
 51
267.1742441926924
  0
ARC
  5
2353
330
1A
100
AcDbEntity
  8
0
100
AcDbCircle
 10
1046.403113904419
 20
1530.415226850917
 30
0.0
 40
0.474245962595199
100
AcDbArc
 50
180.0
 51
263.2045292132351
  0
ARC
  5
2354
330
1A
100
AcDbEntity
  8
0
100
AcDbCircle
 10
1130.454621979229
 20
1514.415226850917
 30
0.0
 40
0.4742459625956599
100
AcDbArc
 50
276.7954707868399
 51
0.0
  0
ARC
  5
2355
330
1A
100
AcDbEntity
  8
0
100
AcDbCircle
 10
1109.889223937658
 20
1686.997871931251
 30
0.0
 40
174.2778851061218
100
AcDbArc
 50
272.8257558073075
 51
276.7954707867864
  0
ARC
  5
2356
330
1A
100
AcDbEntity
  8
0
100
AcDbCircle
 10
1097.208166101517
 20
1943.913882659797
 30
0.0
 40
431.5066661484343
100
AcDbArc
 50
271.1712531168769
 51
272.8257558073075
  0
ARC
  5
2357
330
1A
100
AcDbEntity
  8
0
100
AcDbCircle
 10
1088.428867941825
 20
2373.32291031491
 30
0.0
 40
861.0054311150939
100
AcDbArc
 50
270.0
 51
271.1712531168752
  0
ARC
  5
2358
330
1A
100
AcDbEntity
  8
0
100
AcDbCircle
 10
1088.428867941825
 20
2373.322910316033
 30
0.0
 40
861.0054311162175
100
AcDbArc
 50
268.8287468831254
 51
270.0
  0
ARC
  5
2359
330
1A
100
AcDbEntity
  8
0
100
AcDbCircle
 10
1079.649569782161
 20
1943.913882660444
 30
0.0
 40
431.5066661490813
100
AcDbArc
 50
267.1742441926924
 51
268.8287468831193
  0
ARC
  5
235A
330
1A
100
AcDbEntity
  8
0
100
AcDbCircle
 10
1066.968511945982
 20
1686.997871931059
 30
0.0
 40
174.2778851059308
100
AcDbArc
 50
263.2045292132092
 51
267.1742441926924
  0
ARC
  5
235B
330
1A
100
AcDbEntity
  8
0
100
AcDbCircle
 10
1046.403113904419
 20
1514.415226850917
 30
0.0
 40
0.474245962595199
100
AcDbArc
 50
180.0
 51
263.2045292132351
  0
ARC
  5
235C
330
1A
100
AcDbEntity
  8
0
100
AcDbCircle
 10
1123.148116827844
 20
1510.415226850916
 30
0.0
 40
0.2807511139808412
100
AcDbArc
 50
275.0130771392366
 51
0.000000000092805
  0
ARC
  5
235D
330
1A
100
AcDbEntity
  8
0
100
AcDbCircle
 10
1106.071613097235
 20
1705.088798562644
 30
0.0
 40
195.7018515680075
100
AcDbArc
 50
272.0808841454275
 51
275.0130771391436
  0
ARC
  5
235E
330
1A
100
AcDbEntity
  8
0
100
AcDbCircle
 10
1095.667456391289
 20
1991.434461709605
 30
0.0
 40
482.236466021192
100
AcDbArc
 50
270.8622445044373
 51
272.0808841454277
  0
ARC
  5
235F
330
1A
100
AcDbEntity
  8
0
100
AcDbCircle
 10
1088.428867941825
 20
2472.399264686915
 30
0.0
 40
963.2557368053699
100
AcDbArc
 50
269.9999999999999
 51
270.8622445044355
  0
ARC
  5
2360
330
1A
100
AcDbEntity
  8
0
100
AcDbCircle
 10
1088.428867941825
 20
2472.399264684181
 30
0.0
 40
963.2557368026354
100
AcDbArc
 50
269.1377554955632
 51
270.0
  0
ARC
  5
2361
330
1A
100
AcDbEntity
  8
0
100
AcDbCircle
 10
1081.190279492315
 20
1991.434461708447
 30
0.0
 40
482.2364660200319
100
AcDbArc
 50
267.9191158545725
 51
269.1377554955684
  0
ARC
  5
2362
330
1A
100
AcDbEntity
  8
0
100
AcDbCircle
 10
1070.786122786414
 20
1705.088798562643
 30
0.0
 40
195.7018515680061
100
AcDbArc
 50
264.9869228608563
 51
267.9191158545723
  0
ARC
  5
2363
330
1A
100
AcDbEntity
  8
0
100
AcDbCircle
 10
1053.709619055805
 20
1510.415226850916
 30
0.0
 40
0.2807511139806774
100
AcDbArc
 50
179.9999999999071
 51
264.9869228607632
  0
ARC
  5
2364
330
1A
100
AcDbEntity
  8
0
100
AcDbCircle
 10
1828.261435867059
 20
1820.79544879224
 30
0.0
 40
24.22303683475183
100
AcDbArc
 50
89.99999999999731
 51
126.6678713326452
  0
ARC
  5
2365
330
1A
100
AcDbEntity
  8
0
100
AcDbCircle
 10
1846.257651249858
 20
1796.623397465954
 30
0.0
 40
54.35859446066428
100
AcDbArc
 50
126.6678713326484
 51
150.910145668598
  0
ARC
  5
2366
330
1A
100
AcDbEntity
  8
0
100
AcDbCircle
 10
1875.105597559533
 20
1780.573526646827
 30
0.0
 40
87.37074918580312
100
AcDbArc
 50
150.9101456685975
 51
167.0226277176581
  0
ARC
  5
2367
330
1A
100
AcDbEntity
  8
0
100
AcDbCircle
 10
1920.907020491911
 20
1770.018485626994
 30
0.0
 40
134.3726558871382
100
AcDbArc
 50
167.0226277176642
 51
180.0000000000013
  0
ARC
  5
2368
330
1A
100
AcDbEntity
  8
0
100
AcDbCircle
 10
1920.907020491879
 20
1770.018485626993
 30
0.0
 40
134.3726558871051
100
AcDbArc
 50
180.0000000000004
 51
192.9773722823408
  0
ARC
  5
2369
330
1A
100
AcDbEntity
  8
0
100
AcDbCircle
 10
1875.105597559512
 20
1759.463444607143
 30
0.0
 40
87.37074918577778
100
AcDbArc
 50
192.9773722823366
 51
209.0898543314011
  0
ARC
  5
236A
330
1A
100
AcDbEntity
  8
0
100
AcDbCircle
 10
1846.257651249857
 20
1743.41357378803
 30
0.0
 40
54.35859446066269
100
AcDbArc
 50
209.0898543314013
 51
233.3321286673518
  0
ARC
  5
236B
330
1A
100
AcDbEntity
  8
0
100
AcDbCircle
 10
1828.26143586706
 20
1719.241522461745
 30
0.0
 40
24.22303683475275
100
AcDbArc
 50
233.3321286673518
 51
269.9999999999989
  0
ARC
  5
236C
330
1A
100
AcDbEntity
  8
0
100
AcDbCircle
 10
1683.434789798521
 20
1582.891858493089
 30
0.0
 40
0.446548105890803
100
AcDbArc
 50
156.1049326563949
 51
239.9999999999856
  0
ARC
  5
236D
330
1A
100
AcDbEntity
  8
0
100
AcDbCircle
 10
1871.23046140008
 20
1499.691613345764
 30
0.0
 40
205.8473637441336
100
AcDbArc
 50
152.5367005562328
 51
156.1049326562669
  0
ARC
  5
236E
330
1A
100
AcDbEntity
  8
0
100
AcDbCircle
 10
2140.047479719862
 20
1359.97310925659
 30
0.0
 40
508.8058587946187
100
AcDbArc
 50
151.0513048531938
 51
152.5367005562284
  0
ARC
  5
236F
330
1A
100
AcDbEntity
  8
0
100
AcDbCircle
 10
2583.610026904687
 20
1114.621337920775
 30
0.0
 40
1015.703506217362
100
AcDbArc
 50
149.999999999999
 51
151.0513048531881
  0
ARC
  5
2370
330
1A
100
AcDbEntity
  8
0
100
AcDbCircle
 10
2583.610026902167
 20
1114.621337922245
 30
0.0
 40
1015.703506214444
100
AcDbArc
 50
148.9486951468084
 51
149.9999999999998
  0
ARC
  5
2371
330
1A
100
AcDbEntity
  8
0
100
AcDbCircle
 10
2149.347886470641
 20
1376.081886283156
 30
0.0
 40
508.8058587930358
100
AcDbArc
 50
147.4632994437741
 51
148.9486951468146
  0
ARC
  5
2372
330
1A
100
AcDbEntity
  8
0
100
AcDbCircle
 10
1893.939603391711
 20
1539.025001072467
 30
0.0
 40
205.8473637436819
100
AcDbArc
 50
143.8950673437273
 51
147.4632994437696
  0
ARC
  5
2373
330
1A
100
AcDbEntity
  8
0
100
AcDbCircle
 10
1727.988241692631
 20
1660.060700826265
 30
0.0
 40
0.4465481058897083
100
AcDbArc
 50
60.00000000000306
 51
143.895067343763
  0
ARC
  5
2374
330
1A
100
AcDbEntity
  8
0
100
AcDbCircle
 10
1727.988241692631
 20
1660.060700826264
 30
0.0
 40
0.4465481058906894
100
AcDbArc
 50
336.1049326562763
 51
60.00000000001087
  0
ARC
  5
2375
330
1A
100
AcDbEntity
  8
0
100
AcDbCircle
 10
1540.192570090963
 20
1743.26094597367
 30
0.0
 40
205.8473637442653
100
AcDbArc
 50
332.5367005562264
 51
336.1049326562583
  0
ARC
  5
2376
330
1A
100
AcDbEntity
  8
0
100
AcDbCircle
 10
1271.375551772118
 20
1882.979450062313
 30
0.0
 40
508.8058587936749
100
AcDbArc
 50
331.0513048531936
 51
332.5367005562302
  0
ARC
  5
2377
330
1A
100
AcDbEntity
  8
0
100
AcDbCircle
 10
827.8130045879196
 20
2128.331221397663
 30
0.0
 40
1015.703506215645
100
AcDbArc
 50
330.0000000000028
 51
331.051304853194
  0
ARC
  5
2378
330
1A
100
AcDbEntity
  8
0
100
AcDbCircle
 10
827.8130045893002
 20
2128.33122139689
 30
0.0
 40
1015.703506214062
100
AcDbArc
 50
328.9486951468086
 51
330.0000000000016
  0
ARC
  5
2379
330
1A
100
AcDbEntity
  8
0
100
AcDbCircle
 10
1262.075145020617
 20
1866.870673036224
 30
0.0
 40
508.8058587929602
100
AcDbArc
 50
327.4632994437652
 51
328.9486951468035
  0
ARC
  5
237A
330
1A
100
AcDbEntity
  8
0
100
AcDbCircle
 10
1517.483428099009
 20
1703.927558247152
 30
0.0
 40
205.847363744188
100
AcDbArc
 50
323.8950673437386
 51
327.4632994437718
  0
ARC
  5
237B
330
1A
100
AcDbEntity
  8
0
100
AcDbCircle
 10
1683.434789798521
 20
1582.891858493089
 30
0.0
 40
0.4465481058896087
100
AcDbArc
 50
239.9999999999233
 51
323.8950673436814
  0
ARC
  5
237C
330
1A
100
AcDbEntity
  8
0
100
AcDbCircle
 10
1683.434789798521
 20
1957.145112760894
 30
0.0
 40
0.446548105891538
100
AcDbArc
 50
120.000000000061
 51
203.8950673436228
  0
ARC
  5
237D
330
1A
100
AcDbEntity
  8
0
100
AcDbCircle
 10
1871.230461400065
 20
2040.345357908221
 30
0.0
 40
205.8473637441204
100
AcDbArc
 50
203.8950673437347
 51
207.4632994437688
  0
ARC
  5
237E
330
1A
100
AcDbEntity
  8
0
100
AcDbCircle
 10
2140.047479719862
 20
2180.063861997395
 30
0.0
 40
508.8058587946187
100
AcDbArc
 50
207.4632994437715
 51
208.9486951468061
  0
ARC
  5
237F
330
1A
100
AcDbEntity
  8
0
100
AcDbCircle
 10
2583.610026904687
 20
2425.41563333321
 30
0.0
 40
1015.703506217362
100
AcDbArc
 50
208.9486951468118
 51
210.0000000000008
  0
ARC
  5
2380
330
1A
100
AcDbEntity
  8
0
100
AcDbCircle
 10
2583.610026902167
 20
2425.41563333174
 30
0.0
 40
1015.703506214444
100
AcDbArc
 50
210.0
 51
211.0513048531915
  0
ARC
  5
2381
330
1A
100
AcDbEntity
  8
0
100
AcDbCircle
 10
2149.347886470641
 20
2163.955084970829
 30
0.0
 40
508.8058587930357
100
AcDbArc
 50
211.0513048531851
 51
212.5367005562255
  0
ARC
  5
2382
330
1A
100
AcDbEntity
  8
0
100
AcDbCircle
 10
1893.939603391711
 20
2001.011970181517
 30
0.0
 40
205.8473637436819
100
AcDbArc
 50
212.5367005562302
 51
216.1049326562725
  0
ARC
  5
2383
330
1A
100
AcDbEntity
  8
0
100
AcDbCircle
 10
1727.988241692631
 20
1879.97627042772
 30
0.0
 40
0.4465481058897083
100
AcDbArc
 50
216.1049326562369
 51
299.9999999999968
  0
ARC
  5
2384
330
1A
100
AcDbEntity
  8
0
100
AcDbCircle
 10
1727.988241692631
 20
1879.976270427721
 30
0.0
 40
0.4465481058906894
100
AcDbArc
 50
299.9999999999891
 51
23.89506734372353
  0
ARC
  5
2385
330
1A
100
AcDbEntity
  8
0
100
AcDbCircle
 10
1540.192570090963
 20
1796.776025280315
 30
0.0
 40
205.8473637442653
100
AcDbArc
 50
23.89506734374149
 51
27.46329944377345
  0
ARC
  5
2386
330
1A
100
AcDbEntity
  8
0
100
AcDbCircle
 10
1271.375551772118
 20
1657.057521191672
 30
0.0
 40
508.8058587936749
100
AcDbArc
 50
27.46329944376975
 51
28.9486951468063
  0
ARC
  5
2387
330
1A
100
AcDbEntity
  8
0
100
AcDbCircle
 10
827.8130045879196
 20
1411.705749856322
 30
0.0
 40
1015.703506215645
100
AcDbArc
 50
28.94869514680596
 51
29.99999999999714
  0
ARC
  5
2388
330
1A
100
AcDbEntity
  8
0
100
AcDbCircle
 10
827.8130045893002
 20
1411.705749857094
 30
0.0
 40
1015.703506214062
100
AcDbArc
 50
29.99999999999836
 51
31.05130485319142
  0
ARC
  5
2389
330
1A
100
AcDbEntity
  8
0
100
AcDbCircle
 10
1262.075145020617
 20
1673.166298217761
 30
0.0
 40
508.8058587929602
100
AcDbArc
 50
31.05130485319649
 51
32.53670055623475
  0
ARC
  5
238A
330
1A
100
AcDbEntity
  8
0
100
AcDbCircle
 10
1517.483428099009
 20
1836.109413006833
 30
0.0
 40
205.847363744188
100
AcDbArc
 50
32.53670055622807
 51
36.10493265626127
  0
ARC
  5
238B
330
1A
100
AcDbEntity
  8
0
100
AcDbCircle
 10
1683.434789798521
 20
1957.145112760897
 30
0.0
 40
0.4465481058896087
100
AcDbArc
 50
36.10493265631847
 51
120.0000000000766
  0
ARC
  5
2417
330
1A
100
AcDbEntity
  8
0
100
AcDbCircle
 10
1861.544449369592
 20
1802.320356172846
 30
0.0
 40
0.6981294541451462
100
AcDbArc
 50
89.99999999996267
 51
168.1175823279758
  0
ARC
  5
2418
330
1A
100
AcDbEntity
  8
0
100
AcDbCircle
 10
1935.735862829939
 20
1786.70954973621
 30
0.0
 40
76.51411133690112
100
AcDbArc
 50
168.1175823279635
 51
175.0189306062963
  0
ARC
  5
2419
330
1A
100
AcDbEntity
  8
0
100
AcDbCircle
 10
2049.458343414042
 20
1776.797982473828
 30
0.0
 40
190.6676997859648
100
AcDbArc
 50
175.0189306063075
 51
177.9324577575204
  0
ARC
  5
241A
330
1A
100
AcDbEntity
  8
0
100
AcDbCircle
 10
2237.250366263368
 20
1770.018485626972
 30
0.0
 40
378.582056404447
100
AcDbArc
 50
177.9324577574989
 51
179.9999999999967
  0
ARC
  5
241B
330
1A
100
AcDbEntity
  8
0
100
AcDbCircle
 10
2237.250366263987
 20
1770.018485627008
 30
0.0
 40
378.5820564050658
100
AcDbArc
 50
180.0000000000022
 51
182.0675422424994
  0
ARC
  5
241C
330
1A
100
AcDbEntity
  8
0
100
AcDbCircle
 10
2049.458343414327
 20
1763.238988780185
 30
0.0
 40
190.6676997862509
100
AcDbArc
 50
182.0675422424901
 51
184.9810693936935
  0
ARC
  5
241D
330
1A
100
AcDbEntity
  8
0
100
AcDbCircle
 10
1935.735862829973
 20
1753.327421517778
 30
0.0
 40
76.51411133693428
100
AcDbArc
 50
184.981069393704
 51
191.8824176720345
  0
ARC
  5
241E
330
1A
100
AcDbEntity
  8
0
100
AcDbCircle
 10
1861.544449369592
 20
1737.716615081138
 30
0.0
 40
0.6981294541458356
100
AcDbArc
 50
191.8824176720491
 51
269.9999999999813
  0
ARC
  5
241F
330
1A
100
AcDbEntity
  8
0
100
AcDbCircle
 10
1861.544449369592
 20
1737.716615081139
 30
0.0
 40
0.6981294541469652
100
AcDbArc
 50
269.9999999999627
 51
348.1175823279335
  0
ARC
  5
2420
330
1A
100
AcDbEntity
  8
0
100
AcDbCircle
 10
1787.353035909183
 20
1753.327421517769
 30
0.0
 40
76.51411133696249
100
AcDbArc
 50
348.1175823279775
 51
355.0189306063046
  0
ARC
  5
2421
330
1A
100
AcDbEntity
  8
0
100
AcDbCircle
 10
1673.630555324737
 20
1763.238988780218
 30
0.0
 40
190.6676997863747
100
AcDbArc
 50
355.0189306063001
 51
357.9324577575066
  0
ARC
  5
2422
330
1A
100
AcDbEntity
  8
0
100
AcDbCircle
 10
1485.838532474896
 20
1770.018485626979
 30
0.0
 40
378.5820564053683
100
AcDbArc
 50
357.9324577575091
 51
0.0000000000021335
  0
ARC
  5
2423
330
1A
100
AcDbEntity
  8
0
100
AcDbCircle
 10
1485.838532475509
 20
1770.018485627023
 30
0.0
 40
378.5820564047554
100
AcDbArc
 50
359.9999999999955
 51
2.067542242492623
  0
ARC
  5
2424
330
1A
100
AcDbEntity
  8
0
100
AcDbCircle
 10
1673.630555324985
 20
1776.797982473778
 30
0.0
 40
190.6676997861273
100
AcDbArc
 50
2.067542242494269
 51
4.981069393702997
  0
ARC
  5
2425
330
1A
100
AcDbEntity
  8
0
100
AcDbCircle
 10
1787.353035909302
 20
1786.709549736217
 30
0.0
 40
76.51411133684343
100
AcDbArc
 50
4.981069393702141
 51
11.88241767203943
  0
ARC
  5
2426
330
1A
100
AcDbEntity
  8
0
100
AcDbCircle
 10
1861.544449369592
 20
1802.320356172846
 30
0.0
 40
0.6981294541459647
100
AcDbArc
 50
11.88241767200875
 51
89.99999999996267
  0
VIEWPORT
  5
22
330
17
100
AcDbEntity
 67
     1
  8
0
100
AcDbViewport
 10
214.9592664406425
 20
159.6473914836048
 30
0.0
 40
506.0554792558192
 41
302.1296872437249
 68
     1
 69
     1
1001
ACAD
1000
MVIEW
1002
{
1070
    16
1010
0.0
1020
0.0
1030
0.0
1010
0.0
1020
0.0
1030
1.0
1040
0.0
1040
302.1296872437249
1040
214.9592664406425
1040
159.6473914836048
1040
50.0
1040
0.0
1040
0.0
1070
     0
1070
   100
1070
     1
1070
     1
1070
     0
1070
     0
1070
     0
1070
     0
1040
0.0
1040
0.0
1040
0.0
1040
1.0
1040
1.0
1040
10.0
1040
10.0
1070
     0
1002
{
1002
}
1002
}
  0
VIEWPORT
  5
DC
330
17
100
AcDbEntity
 67
     1
  8
VIEWPORT
100
AcDbViewport
 10
214.9559047923478
 20
159.6571088632168
 30
0.0
 40
437.2023467972008
 41
299.3142177264337
 68
     2
 69
     2
1001
ACAD
1000
MVIEW
1002
{
1070
    16
1010
0.0
1020
0.0
1030
0.0
1010
0.0
1020
0.0
1030
1.0
1040
0.0
1040
2993.142176294625
1040
1862.048733877998
1040
1389.183751794377
1040
50.0
1040
0.0
1040
0.0
1070
     0
1070
   100
1070
     1
1070
     1
1070
     0
1070
     0
1070
     0
1070
     0
1040
0.0
1040
0.0
1040
0.0
1040
1.0
1040
1.0
1040
10.0
1040
10.0
1070
     0
1002
{
1002
}
1002
}
  0
LWPOLYLINE
  5
DD
330
17
100
AcDbEntity
 67
     1
  8
KADER
100
AcDbPolyline
 90
        4
 70
     1
 43
0.0
 10
-3.645268606252443
 20
10.0
 10
433.5570781909483
 20
10.0
 10
433.5570781909483
 20
309.3142177264336
 10
-3.645268606252443
 20
309.3142177264336
  0
ENDSEC
  0
SECTION
  2
OBJECTS
  0
DICTIONARY
  5
C
330
0
100
AcDbDictionary
  3
ACAD_GROUP
350
D
  3
ACAD_LAYOUT
350
BD7
  3
ACAD_MLINESTYLE
350
E
  3
ACAD_PLOTSETTINGS
350
BD8
  3
ACAD_PLOTSTYLENAME
350
BD5
  3
ACDBHEADERROUNDTRIPXREC
350
2532
  3
ACDBVARIABLEDICTIONARY
350
5D
  0
DICTIONARY
  5
1E80
330
2
100
AcDbDictionary
280
     1
  3
ACAD_LAYERSTATES
360
1E81
  0
DICTIONARY
  5
19D2
330
1A
100
AcDbDictionary
280
     1
  3
ACAD_LAYOUTSELFREF
360
2554
  0
DICTIONARY
  5
19D0
330
17
100
AcDbDictionary
280
     1
  3
ACAD_LAYOUTSELFREF
360
2553
  0
DICTIONARY
  5
D
102
{ACAD_REACTORS
330
C
102
}
330
C
100
AcDbDictionary
  0
DICTIONARY
  5
BD7
102
{ACAD_REACTORS
330
C
102
}
330
C
100
AcDbDictionary
  0
DICTIONARY
  5
E
102
{ACAD_REACTORS
330
C
102
}
330
C
100
AcDbDictionary
  3
STANDARD
350
13
  0
DICTIONARY
  5
BD8
102
{ACAD_REACTORS
330
C
102
}
330
C
100
AcDbDictionary
  0
ACDBDICTIONARYWDFLT
  5
BD5
102
{ACAD_REACTORS
330
C
102
}
330
C
100
AcDbDictionary
281
     1
  3
Normal
350
BD6
100
AcDbDictionaryWithDefault
340
BD6
  0
DICTIONARY
  5
2532
102
{ACAD_REACTORS
330
C
102
}
330
C
100
AcDbDictionary
  3
CEPSNTYPE
350
253C
  3
DIMSTYLEDATA
350
2540
  3
FINGERPRINTGUID
350
253D
  3
HYPERLINKBASE
350
2535
  3
INSUNITS
350
253B
  3
LAYOUTDICT
350
2537
  3
LWETCUNION
350
253A
  3
PLOTSETDICT
350
2538
  3
PLOTSTYLNAMDICT
350
2539
  3
PSVPSCALE
350
253F
  3
PUCSBASE
350
2543
  3
PUCSORGBACK
350
2549
  3
PUCSORGBOTTOM
350
2545
  3
PUCSORGFRONT
350
2548
  3
PUCSORGLEFT
350
2546
  3
PUCSORGRIGHT
350
2547
  3
PUCSORGTOP
350
2544
  3
PUCSORTHOREF
350
2541
  3
PUCSORTHOVIEW
350
2542
  3
STYLESHEET
350
2536
  3
TSTACKALIGN
350
2533
  3
TSTACKSIZE
350
2534
  3
UCSBASE
350
254C
  3
UCSORGBACK
350
2552
  3
UCSORGBOTTOM
350
254E
  3
UCSORGFRONT
350
2551
  3
UCSORGLEFT
350
254F
  3
UCSORGRIGHT
350
2550
  3
UCSORGTOP
350
254D
  3
UCSORTHOREF
350
254A
  3
UCSORTHOVIEW
350
254B
  3
VERSIONGUID
350
253E
  0
DICTIONARY
  5
5D
102
{ACAD_REACTORS
330
C
102
}
330
C
100
AcDbDictionary
  3
DIMADEC
350
5E
  3
DIMASSOC
350
19E2
  3
SORTENTS
350
975
  0
DICTIONARY
  5
1E81
102
{ACAD_REACTORS
330
1E80
102
}
330
1E80
100
AcDbDictionary
  0
XRECORD
  5
2554
102
{ACAD_REACTORS
330
19D2
102
}
330
19D2
100
AcDbXrecord
340
1A
  0
XRECORD
  5
2553
102
{ACAD_REACTORS
330
19D0
102
}
330
19D0
100
AcDbXrecord
340
17
  0
MLINESTYLE
  5
13
102
{ACAD_REACTORS
330
E
102
}
330
E
100
AcDbMlineStyle
  2
STANDARD
 70
     0
  3

 62
     0
 51
90.0
 52
90.0
 71
     2
 49
0.5
 62
   256
  6
BYLAYER
 49
-0.5
 62
   256
  6
BYLAYER
  0
ACDBPLACEHOLDER
  5
BD6
102
{ACAD_REACTORS
330
BD5
102
}
330
BD5
100
AcDbPlaceHolder
280
     0
  0
XRECORD
  5
253C
102
{ACAD_REACTORS
330
2532
102
}
330
2532
100
AcDbXrecord
 90
        0
  0
XRECORD
  5
2540
102
{ACAD_REACTORS
330
2532
102
}
330
2532
100
AcDbXrecord
1000
DSTYLE
1002
{
1070
   277
 70
     6
1002
}
  0
XRECORD
  5
253D
102
{ACAD_REACTORS
330
2532
102
}
330
2532
100
AcDbXrecord
  1
{65B81993-EFC9-41C0-A82F-2D62A8B5EC3A}
  0
XRECORD
  5
2535
102
{ACAD_REACTORS
330
2532
102
}
330
2532
100
AcDbXrecord
  1

  0
XRECORD
  5
253B
102
{ACAD_REACTORS
330
2532
102
}
330
2532
100
AcDbXrecord
 90
        0
  0
XRECORD
  5
2537
102
{ACAD_REACTORS
330
2532
102
}
330
2532
100
AcDbXrecord
340
BD7
  0
XRECORD
  5
253A
102
{ACAD_REACTORS
330
2532
102
}
330
2532
100
AcDbXrecord
 90
    10269
  0
XRECORD
  5
2538
102
{ACAD_REACTORS
330
2532
102
}
330
2532
100
AcDbXrecord
340
BD8
  0
XRECORD
  5
2539
102
{ACAD_REACTORS
330
2532
102
}
330
2532
100
AcDbXrecord
340
BD5
  0
XRECORD
  5
253F
102
{ACAD_REACTORS
330
2532
102
}
330
2532
100
AcDbXrecord
 40
0.0
  0
XRECORD
  5
2543
102
{ACAD_REACTORS
330
2532
102
}
330
2532
100
AcDbXrecord
340
0
  0
XRECORD
  5
2549
102
{ACAD_REACTORS
330
2532
102
}
330
2532
100
AcDbXrecord
 10
0.0
 20
0.0
 30
0.0
  0
XRECORD
  5
2545
102
{ACAD_REACTORS
330
2532
102
}
330
2532
100
AcDbXrecord
 10
0.0
 20
0.0
 30
0.0
  0
XRECORD
  5
2548
102
{ACAD_REACTORS
330
2532
102
}
330
2532
100
AcDbXrecord
 10
0.0
 20
0.0
 30
0.0
  0
XRECORD
  5
2546
102
{ACAD_REACTORS
330
2532
102
}
330
2532
100
AcDbXrecord
 10
0.0
 20
0.0
 30
0.0
  0
XRECORD
  5
2547
102
{ACAD_REACTORS
330
2532
102
}
330
2532
100
AcDbXrecord
 10
0.0
 20
0.0
 30
0.0
  0
XRECORD
  5
2544
102
{ACAD_REACTORS
330
2532
102
}
330
2532
100
AcDbXrecord
 10
0.0
 20
0.0
 30
0.0
  0
XRECORD
  5
2541
102
{ACAD_REACTORS
330
2532
102
}
330
2532
100
AcDbXrecord
340
0
  0
XRECORD
  5
2542
102
{ACAD_REACTORS
330
2532
102
}
330
2532
100
AcDbXrecord
 70
     0
  0
XRECORD
  5
2536
102
{ACAD_REACTORS
330
2532
102
}
330
2532
100
AcDbXrecord
  1

  0
XRECORD
  5
2533
102
{ACAD_REACTORS
330
2532
102
}
330
2532
100
AcDbXrecord
 90
        1
  0
XRECORD
  5
2534
102
{ACAD_REACTORS
330
2532
102
}
330
2532
100
AcDbXrecord
 90
       70
  0
XRECORD
  5
254C
102
{ACAD_REACTORS
330
2532
102
}
330
2532
100
AcDbXrecord
340
0
  0
XRECORD
  5
2552
102
{ACAD_REACTORS
330
2532
102
}
330
2532
100
AcDbXrecord
 10
0.0
 20
0.0
 30
0.0
  0
XRECORD
  5
254E
102
{ACAD_REACTORS
330
2532
102
}
330
2532
100
AcDbXrecord
 10
0.0
 20
0.0
 30
0.0
  0
XRECORD
  5
2551
102
{ACAD_REACTORS
330
2532
102
}
330
2532
100
AcDbXrecord
 10
0.0
 20
0.0
 30
0.0
  0
XRECORD
  5
254F
102
{ACAD_REACTORS
330
2532
102
}
330
2532
100
AcDbXrecord
 10
0.0
 20
0.0
 30
0.0
  0
XRECORD
  5
2550
102
{ACAD_REACTORS
330
2532
102
}
330
2532
100
AcDbXrecord
 10
0.0
 20
0.0
 30
0.0
  0
XRECORD
  5
254D
102
{ACAD_REACTORS
330
2532
102
}
330
2532
100
AcDbXrecord
 10
0.0
 20
0.0
 30
0.0
  0
XRECORD
  5
254A
102
{ACAD_REACTORS
330
2532
102
}
330
2532
100
AcDbXrecord
340
0
  0
XRECORD
  5
254B
102
{ACAD_REACTORS
330
2532
102
}
330
2532
100
AcDbXrecord
 70
     0
  0
XRECORD
  5
253E
102
{ACAD_REACTORS
330
2532
102
}
330
2532
100
AcDbXrecord
  1
{F4017FFA-42EF-418F-A353-54A1A7F9D6D9}
  0
DICTIONARYVAR
  5
5E
102
{ACAD_REACTORS
330
5D
102
}
330
5D
100
DictionaryVariables
280
     0
  1
0
  0
DICTIONARYVAR
  5
19E2
102
{ACAD_REACTORS
330
5D
102
}
330
5D
100
DictionaryVariables
280
     0
  1
1
  0
DICTIONARYVAR
  5
975
102
{ACAD_REACTORS
330
5D
102
}
330
5D
100
DictionaryVariables
280
     0
  1
96
  0
ENDSEC
  0
EOF
