  0
SECTION
  2
HEADER
  9
$ACADVER
  1
AC1014
  9
$ACADMAINTVER
 70
     9
  9
$DWGCODEPAGE
  3
ANSI_1250
  9
$INSBASE
 10
0.0
 20
0.0
 30
0.0
  9
$EXTMIN
 10
3.948609998063901
 20
3.754852348187533
 30
-0.0015258207003583
  9
$EXTMAX
 10
14.61887517366428
 20
16.24058537050219
 30
0.0000000349246037
  9
$LIMMIN
 10
0.0
 20
0.0
  9
$LIMMAX
 10
0.0
 20
0.0
  9
$ORTHOMODE
 70
     0
  9
$REGENMODE
 70
     1
  9
$FILLMODE
 70
     1
  9
$QTEXTMODE
 70
     0
  9
$MIRRTEXT
 70
     1
  9
$DRAGMODE
 70
     2
  9
$LTSCALE
 40
1.0
  9
$OSMODE
 70
  1007
  9
$ATTMODE
 70
     1
  9
$TEXTSIZE
 40
2.5
  9
$TRACEWID
 40
1.0
  9
$TEXTSTYLE
  7
STANDARD
  9
$CLAYER
  8
0
  9
$CELTYPE
  6
BYLAYER
  9
$CECOLOR
 62
   256
  9
$CELTSCALE
 40
1.0
  9
$DELOBJ
 70
     1
  9
$DISPSILH
 70
     0
  9
$DIMSCALE
 40
1.0
  9
$DIMASZ
 40
0.3
  9
$DIMEXO
 40
0.1
  9
$DIMDLI
 40
3.75
  9
$DIMRND
 40
0.0
  9
$DIMDLE
 40
0.0
  9
$DIMEXE
 40
0.1
  9
$DIMTP
 40
0.0
  9
$DIMTM
 40
0.0
  9
$DIMTXT
 40
0.2822222222222222
  9
$DIMCEN
 40
2.5
  9
$DIMTSZ
 40
0.0
  9
$DIMTOL
 70
     0
  9
$DIMLIM
 70
     0
  9
$DIMTIH
 70
     1
  9
$DIMTOH
 70
     1
  9
$DIMSE1
 70
     0
  9
$DIMSE2
 70
     0
  9
$DIMTAD
 70
     1
  9
$DIMZIN
 70
     0
  9
$DIMBLK
  1

  9
$DIMASO
 70
     1
  9
$DIMSHO
 70
     1
  9
$DIMPOST
  1

  9
$DIMAPOST
  1

  9
$DIMALT
 70
     0
  9
$DIMALTD
 70
     3
  9
$DIMALTF
 40
0.3937007874015748
  9
$DIMLFAC
 40
15.0
  9
$DIMTOFL
 70
     1
  9
$DIMTVP
 40
0.0
  9
$DIMTIX
 70
     0
  9
$DIMSOXD
 70
     0
  9
$DIMSAH
 70
     0
  9
$DIMBLK1
  1

  9
$DIMBLK2
  1

  9
$DIMSTYLE
  2
ISO-25
  9
$DIMCLRD
 70
     0
  9
$DIMCLRE
 70
     0
  9
$DIMCLRT
 70
     0
  9
$DIMTFAC
 40
1.0
  9
$DIMGAP
 40
0.1524
  9
$DIMJUST
 70
     0
  9
$DIMSD1
 70
     0
  9
$DIMSD2
 70
     0
  9
$DIMTOLJ
 70
     0
  9
$DIMTZIN
 70
     0
  9
$DIMALTZ
 70
     0
  9
$DIMALTTZ
 70
     0
  9
$DIMFIT
 70
     3
  9
$DIMUPT
 70
     0
  9
$DIMUNIT
 70
     2
  9
$DIMDEC
 70
     2
  9
$DIMTDEC
 70
     2
  9
$DIMALTU
 70
     2
  9
$DIMALTTD
 70
     3
  9
$DIMTXSTY
  7
STANDARD
  9
$DIMAUNIT
 70
     0
  9
$LUNITS
 70
     2
  9
$LUPREC
 70
     2
  9
$SKETCHINC
 40
1.0
  9
$FILLETRAD
 40
10.0
  9
$AUNITS
 70
     0
  9
$AUPREC
 70
     0
  9
$MENU
  1
.
  9
$ELEVATION
 40
0.0
  9
$PELEVATION
 40
0.0
  9
$THICKNESS
 40
0.0
  9
$LIMCHECK
 70
     0
  9
$BLIPMODE
 70
     0
  9
$CHAMFERA
 40
10.0
  9
$CHAMFERB
 40
10.0
  9
$CHAMFERC
 40
20.0
  9
$CHAMFERD
 40
0.0
  9
$SKPOLY
 70
     0
  9
$TDCREATE
 40
2454418.386645683
  9
$TDUPDATE
 40
2454420.424352754
  9
$TDINDWG
 40
0.0005467130
  9
$TDUSRTIMER
 40
0.0005467130
  9
$USRTIMER
 70
     1
  9
$ANGBASE
 50
0.0
  9
$ANGDIR
 70
     0
  9
$PDMODE
 70
     0
  9
$PDSIZE
 40
-1.0
  9
$PLINEWID
 40
0.0
  9
$COORDS
 70
     1
  9
$SPLFRAME
 70
     0
  9
$SPLINETYPE
 70
     6
  9
$SPLINESEGS
 70
     8
  9
$ATTDIA
 70
     0
  9
$ATTREQ
 70
     1
  9
$HANDLING
 70
 22529
  9
$HANDSEED
  5
2C9
  9
$SURFTAB1
 70
     6
  9
$SURFTAB2
 70
     6
  9
$SURFTYPE
 70
     6
  9
$SURFU
 70
     6
  9
$SURFV
 70
     6
  9
$UCSNAME
  2

  9
$UCSORG
 10
0.0
 20
0.0
 30
0.0
  9
$UCSXDIR
 10
1.0
 20
0.0
 30
0.0
  9
$UCSYDIR
 10
0.0
 20
1.0
 30
0.0
  9
$PUCSNAME
  2

  9
$PUCSORG
 10
0.0
 20
0.0
 30
0.0
  9
$PUCSXDIR
 10
1.0
 20
0.0
 30
0.0
  9
$PUCSYDIR
 10
0.0
 20
1.0
 30
0.0
  9
$USERI1
 70
     0
  9
$USERI2
 70
     0
  9
$USERI3
 70
     0
  9
$USERI4
 70
     0
  9
$USERI5
 70
     0
  9
$USERR1
 40
0.0
  9
$USERR2
 40
0.0
  9
$USERR3
 40
0.0
  9
$USERR4
 40
0.0
  9
$USERR5
 40
0.0
  9
$WORLDVIEW
 70
     1
  9
$SHADEDGE
 70
     3
  9
$SHADEDIF
 70
    70
  9
$TILEMODE
 70
     1
  9
$MAXACTVP
 70
    64
  9
$PINSBASE
 10
0.0
 20
0.0
 30
0.0
  9
$PLIMCHECK
 70
     0
  9
$PEXTMIN
 10
1.000000000000000E+20
 20
1.000000000000000E+20
 30
1.000000000000000E+20
  9
$PEXTMAX
 10
-1.000000000000000E+20
 20
-1.000000000000000E+20
 30
-1.000000000000000E+20
  9
$PLIMMIN
 10
0.0
 20
0.0
  9
$PLIMMAX
 10
420.0
 20
297.0
  9
$UNITMODE
 70
     0
  9
$VISRETAIN
 70
     1
  9
$PLINEGEN
 70
     0
  9
$PSLTSCALE
 70
     1
  9
$TREEDEPTH
 70
  3020
  9
$PICKSTYLE
 70
     1
  9
$CMLSTYLE
  2
STANDARD
  9
$CMLJUST
 70
     0
  9
$CMLSCALE
 40
20.0
  9
$PROXYGRAPHICS
 70
     1
  9
$MEASUREMENT
 70
     1
  0
ENDSEC
  0
SECTION
  2
CLASSES
  0
CLASS
  1
ACDBDICTIONARYWDFLT
  2
AcDbDictionaryWithDefault
  3
AutoCAD 2000
 90
        0
280
     0
281
     0
  0
CLASS
  1
ACDBPLACEHOLDER
  2
AcDbPlaceHolder
  3
AutoCAD 2000
 90
        0
280
     0
281
     0
  0
CLASS
  1
LAYOUT
  2
AcDbLayout
  3
AutoCAD 2000
 90
        0
280
     0
281
     0
  0
CLASS
  1
DICTIONARYVAR
  2
AcDbDictionaryVar
  3
AutoCAD 2000
 90
        0
280
     0
281
     0
  0
CLASS
  1
LONG_TRANSACTION
  2
AcDbLongTransaction
  3
AutoCAD 2000
 90
        0
280
     0
281
     0
  0
CLASS
  1
LWPOLYLINE
  2
AcDbPolyline
  3
AutoCAD 2000
 90
        0
280
     0
281
     1
  0
CLASS
  1
HATCH
  2
AcDbHatch
  3
AutoCAD 2000
 90
        0
280
     0
281
     1
  0
CLASS
  1
XRECORD
  2
AcDbXrecord
  3
AutoCAD 2000
 90
        0
280
     0
281
     0
  0
ENDSEC
  0
SECTION
  2
TABLES
  0
TABLE
  2
VPORT
  5
8
330
0
100
AcDbSymbolTable
 70
     3
  0
VPORT
  5
2A1
330
8
100
AcDbSymbolTableRecord
100
AcDbViewportTableRecord
  2
*ACTIVE
 70
     0
 10
0.0
 20
0.0
 11
1.0
 21
1.0
 12
9.283742585864093
 22
9.99771885934486
 13
0.0
 23
0.0
 14
10.0
 24
10.0
 15
10.0
 25
10.0
 16
0.0
 26
0.0
 36
1.0
 17
0.0
 27
0.0
 37
0.0
 40
12.60874517031775
 41
1.981907894736842
 42
50.0
 43
0.0
 44
0.0
 50
0.0
 51
0.0
 71
     0
 72
  2000
 73
     1
 74
     3
 75
     0
 76
     0
 77
     0
 78
     0
  0
ENDTAB
  0
TABLE
  2
LTYPE
  5
5
330
0
100
AcDbSymbolTable
 70
     6
  0
LTYPE
  5
14
330
5
100
AcDbSymbolTableRecord
100
AcDbLinetypeTableRecord
  2
BYBLOCK
 70
     0
  3

 72
    65
 73
     0
 40
0.0
  0
LTYPE
  5
15
330
5
100
AcDbSymbolTableRecord
100
AcDbLinetypeTableRecord
  2
BYLAYER
 70
     0
  3

 72
    65
 73
     0
 40
0.0
  0
LTYPE
  5
16
330
5
100
AcDbSymbolTableRecord
100
AcDbLinetypeTableRecord
  2
CONTINUOUS
 70
     0
  3
Solid line
 72
    65
 73
     0
 40
0.0
  0
ENDTAB
  0
TABLE
  2
LAYER
  5
2
330
0
100
AcDbSymbolTable
 70
     3
  0
LAYER
  5
10
330
2
100
AcDbSymbolTableRecord
100
AcDbLayerTableRecord
  2
0
 70
     0
 62
     7
  6
CONTINUOUS
  0
ENDTAB
  0
TABLE
  2
STYLE
  5
3
330
0
100
AcDbSymbolTable
 70
     4
  0
STYLE
  5
11
330
3
100
AcDbSymbolTableRecord
100
AcDbTextStyleTableRecord
  2
STANDARD
 70
     0
 40
0.0
 41
1.0
 50
0.0
 71
     0
 42
2.5
  3
ARIAL.TTF
  4

1001
ACAD
1000
Arial
1071
       34
  0
ENDTAB
  0
TABLE
  2
VIEW
  5
6
330
0
100
AcDbSymbolTable
 70
     0
  0
ENDTAB
  0
TABLE
  2
UCS
  5
7
330
0
100
AcDbSymbolTable
 70
     0
  0
ENDTAB
  0
TABLE
  2
APPID
  5
9
330
0
100
AcDbSymbolTable
 70
     1
  0
APPID
  5
12
330
9
100
AcDbSymbolTableRecord
100
AcDbRegAppTableRecord
  2
ACAD
 70
     0
  0
ENDTAB
  0
TABLE
  2
DIMSTYLE
  5
A
330
0
100
AcDbSymbolTable
 70
     7
  0
DIMSTYLE
105
27
330
A
100
AcDbSymbolTableRecord
100
AcDbDimStyleTableRecord
  2
ISO-25
 70
     0
  3

  4

  5

  6

  7

 40
1.0
 41
2.5
 42
0.625
 43
3.75
 44
1.25
 45
0.0
 46
0.0
 47
0.0
 48
0.0
140
2.5
141
2.5
142
0.0
143
0.03937007874016
144
1.0
145
0.0
146
1.0
147
0.625
 71
     0
 72
     0
 73
     0
 74
     0
 75
     0
 76
     0
 77
     1
 78
     8
170
     0
171
     3
172
     1
173
     0
174
     0
175
     0
176
     0
177
     0
178
     0
270
     2
271
     2
272
     2
273
     2
274
     3
340
11
275
     0
280
     0
281
     0
282
     0
283
     0
284
     8
285
     0
286
     0
287
     3
288
     0
  0
ENDTAB
  0
TABLE
  2
BLOCK_RECORD
  5
1
330
0
100
AcDbSymbolTable
 70
    27
  0
BLOCK_RECORD
  5
1F
102
{ACAD_XDICTIONARY
360
2C5
102
}
330
1
100
AcDbSymbolTableRecord
100
AcDbBlockTableRecord
  2
*MODEL_SPACE
  0
BLOCK_RECORD
  5
1B
102
{ACAD_XDICTIONARY
360
2C3
102
}
330
1
100
AcDbSymbolTableRecord
100
AcDbBlockTableRecord
  2
*PAPER_SPACE
  0
ENDTAB
  0
ENDSEC
  0
SECTION
  2
BLOCKS
  0
BLOCK
  5
20
330
1F
100
AcDbEntity
  8
0
100
AcDbBlockBegin
  2
*MODEL_SPACE
 70
     0
 10
0.0
 20
0.0
 30
0.0
  3
*MODEL_SPACE
  1

  0
ENDBLK
  5
21
330
1F
100
AcDbEntity
  8
0
100
AcDbBlockEnd
  0
BLOCK
  5
1C
330
1B
100
AcDbEntity
 67
     1
  8
0
100
AcDbBlockBegin
  2
*PAPER_SPACE
 70
     0
 10
0.0
 20
0.0
 30
0.0
  3
*PAPER_SPACE
  1

  0
ENDBLK
  5
1D
330
1B
100
AcDbEntity
 67
     1
  8
0
100
AcDbBlockEnd
  0
ENDSEC
  0
SECTION
  2
ENTITIES
  0
POINT
  5
D6
330
1F
100
AcDbEntity
  8
0
100
AcDbPoint
 10
14.61677479370731
 20
14.6019199144765
 30
0.0
  0
ARC
  5
D7
330
1F
100
AcDbEntity
  8
0
100
AcDbCircle
 10
12.88058333466153
 20
14.38013708361463
 30
0.0
 40
1.435969886490741
100
AcDbArc
 50
300.5572016111979
 51
335.1416750714287
  0
ARC
  5
D8
330
1F
100
AcDbEntity
  8
0
100
AcDbCircle
 10
12.89081391510004
 20
14.37553373574585
 30
0.0
 40
1.424752037763228
100
AcDbArc
 50
335.136694813159
 51
28.87884757947804
  0
LINE
  5
D9
330
1F
100
AcDbEntity
  8
0
100
AcDbLine
 10
14.61677479370731
 20
12.90676498738261
 30
0.0
 11
14.61677479370731
 21
16.24009832071594
 31
0.0
  0
LWPOLYLINE
  5
DA
330
1F
100
AcDbEntity
  8
0
100
AcDbPolyline
 90
       20
 70
   128
 43
0.0
 10
13.61062801670901
 20
13.14359178435446
 10
13.56358483325592
 20
13.11702296896134
 10
13.51553378354143
 20
13.09223808661898
 10
13.46657882343321
 20
13.06929004932936
 10
13.4168239087989
 20
13.04823176909441
 10
13.3754998405505
 20
13.03256804363166
 10
13.3336525723158
 20
13.0183025253103
 10
13.29140568400993
 20
13.00518112765159
 10
13.24888275554804
 20
12.99294976417674
 10
13.20620736684529
 20
12.98135434840702
 10
11.18615729959775
 20
12.44396596697857
 10
8.955928545265287
 20
11.85066432562917
 10
7.840814168099057
 20
11.55401350495448
 10
7.48604187578408
 20
11.45963440463714
 10
7.426892848338442
 20
11.44380346818753
 10
7.367691664418522
 20
11.42805442681052
 10
7.308365815334953
 20
11.41279869489839
 10
7.248842792398361
 20
11.3984476868434
 10
7.18905008691938
 20
11.3854128170378
 10
7.128915190208635
 20
11.37410549987388
  0
LINE
  5
DB
330
1F
100
AcDbEntity
  8
0
100
AcDbLine
 10
7.098748215321061
 20
10.90676498738261
 30
0.0
 11
14.61677479370731
 21
12.90676498738261
 31
0.0
  0
LINE
  5
DC
330
1F
100
AcDbEntity
  8
0
100
AcDbLine
 10
3.950108127040651
 20
10.90676498738261
 30
0.0
 11
7.098748215321061
 21
10.90676498738261
 31
0.0
  0
ARC
  5
DD
330
1F
100
AcDbEntity
  8
0
100
AcDbCircle
 10
6.751981414809658
 20
13.55562462302837
 30
0.0
 40
2.213617021581983
100
AcDbArc
 50
235.0270726915681
 51
275.117271498969
  0
LWPOLYLINE
  5
DE
330
1F
100
AcDbEntity
  8
0
100
AcDbPolyline
 90
       42
 70
   128
 43
0.0
 10
5.482487041554885
 20
15.40580006898018
 10
5.522457548339873
 20
15.4331195377856
 10
5.56301754785482
 20
15.45955629940644
 10
5.614891259649643
 20
15.49156351271732
 10
5.667649160952109
 20
15.52213835966992
 10
5.721230181267491
 20
15.55124736861862
 10
5.77557325010106
 20
15.57885706791778
 10
5.830658333819055
 20
15.60495491423406
 10
5.886463602430498
 20
15.6295333158422
 10
5.9429247467885
 20
15.65256596145355
 10
5.999977457746171
 20
15.67402653977945
 10
6.060566125893736
 20
15.69487989499564
 10
6.121758914325239
 20
15.71397875406462
 10
6.183478340024191
 20
15.73130135397845
 10
6.245646919974105
 20
15.74682593172917
 10
6.313971506522217
 20
15.76170511255511
 10
6.382765706589596
 20
15.77442879327424
 10
6.451926536252217
 20
15.78498084458474
 10
6.521351011586053
 20
15.79334513718478
 10
6.57793663579281
 20
15.79837549389928
 10
6.634657886572585
 20
15.80183231245531
 10
6.691465386295206
 20
15.80397736710801
 10
6.74830975733051
 20
15.80507243211253
 10
6.80514162204833
 20
15.805379281724
 10
7.363234601426579
 20
15.805379281724
 10
7.921327580804829
 20
15.80537928172401
 10
8.524816848938975
 20
15.80537928172401
 10
10.75718876645197
 20
15.805379281724
 10
12.08325871823104
 20
15.805379281724
 10
12.41022543710438
 20
15.805379281724
 10
12.73719215597772
 20
15.805379281724
 10
12.81893504690492
 20
15.80555958215945
 10
12.90067551541439
 20
15.80529500080125
 10
12.95529298678641
 20
15.80365135000205
 10
13.00982745318534
 20
15.79991561575981
 10
13.06415887485105
 20
15.79409692683444
 10
13.11978168809354
 20
15.78592909034336
 10
13.17512347690024
 20
15.77554836218245
 10
13.2300565015689
 20
15.76298640488527
 10
13.2844530223973
 20
15.74827488098536
 10
13.33818529968321
 20
15.73144545301625
 10
13.39112559372439
 20
15.71252978351148
  0
LINE
  5
DF
330
1F
100
AcDbEntity
  8
0
100
AcDbLine
 10
14.61677479370731
 20
16.24009832071594
 30
0.0
 11
3.95010812704065
 21
16.24009832071594
 31
0.0
  0
LWPOLYLINE
  5
E0
330
1F
100
AcDbEntity
  8
0
100
AcDbPolyline
 90
       57
 70
   128
 43
0.0
 10
13.27230404055089
 20
13.05618853902359
 10
13.27052154501363
 20
13.05867092984773
 10
13.26670797757056
 20
13.06050902915404
 10
13.26093251991149
 20
13.06167820611178
 10
13.25321919030794
 20
13.06217317724978
 10
13.24365931263707
 20
13.06202929267694
 10
13.2324234291392
 20
13.06128282257041
 10
13.21957840643399
 20
13.05997803907981
 10
13.20527290398368
 20
13.0581296077886
 10
13.18978788431875
 20
13.0557283316392
 10
13.17326921506394
 20
13.05276318407863
 10
13.15588089397848
 20
13.04927094098318
 10
13.13794971342075
 20
13.04531723481679
 10
13.11963367783781
 20
13.04093193594411
 10
13.10111690081622
 20
13.0361636604329
 10
13.08274761022427
 20
13.03110208082254
 10
13.06470387321949
 20
13.02579157300642
 10
13.04715166380656
 20
13.02028575967155
 10
13.03042107012452
 20
13.0146881835478
 10
13.01468392616974
 20
13.00905118626026
 10
13.00007516282994
 20
13.00342857378947
 10
12.98686951358119
 20
12.9979260853984
 10
12.97521320627912
 20
12.99259812732271
 10
12.96519491626046
 20
12.98749262262029
 10
12.95700304822293
 20
12.98270558578745
 10
12.95074173779993
 20
12.97828735378004
 10
12.94644340730567
 20
12.97427456377206
 10
12.94418889145904
 20
12.97074268058704
 10
12.94402849316852
 20
12.9677322967911
 10
12.94593472635578
 20
12.9652646331109
 10
12.94987174225955
 20
12.96338609661079
 10
12.95583033979202
 20
12.96212295896326
 10
12.96372622332917
 20
12.96147863197167
 10
12.97341090230544
 20
12.96146523289674
 10
12.98481670898959
 20
12.96209175058553
 10
12.99781204190409
 20
12.96334340326315
 10
13.01215250986393
 20
12.96519665225746
 10
13.02771960751784
 20
12.96764219016575
 10
13.04434926460305
 20
12.97064870816792
 10
13.06172874256734
 20
12.97415966546565
 10
13.07970205901878
 20
12.97814850774557
 10
13.09809117258692
 20
12.98257092897426
 10
13.11655025625171
 20
12.98734376077337
 10
13.13490343641205
 20
12.99242619571624
 10
13.1529787734037
 20
12.99776592572534
 10
13.17043634111197
 20
13.00326253144604
 10
13.18710020314093
 20
13.00886555306618
 10
13.20282390642544
 20
13.01452057780308
 10
13.21731174984698
 20
13.02012125684629
 10
13.23040576364073
 20
13.02562036031369
 10
13.24199356946618
 20
13.03099671250242
 10
13.25184803987519
 20
13.03618312088431
 10
13.25984923110044
 20
13.04112055844258
 10
13.26596400939894
 20
13.0457203087625
 10
13.27008578353017
 20
13.04986514007468
 10
13.27209684825637
 20
13.05328146328271
 10
13.27230404055089
 20
13.05618853902359
  0
ARC
  5
E1
330
1F
100
AcDbEntity
  8
0
100
AcDbCircle
 10
9.092307354858247
 20
38.25167591201068
 30
0.0
 40
22.84846277769669
100
AcDbArc
 50
268.4614873067642
 51
269.7540742263529
  0
ARC
  5
E2
330
1F
100
AcDbEntity
  8
0
100
AcDbCircle
 10
8.261366419834095
 20
6.731041309920706
 30
0.0
 40
8.683132698011389
100
AcDbArc
 50
88.56477074315433
 51
89.85838944174654
  0
LINE
  5
E3
330
1F
100
AcDbEntity
  8
0
100
AcDbLine
 10
8.282827372583364
 20
15.41414748678976
 30
0.0
 11
7.385680448258007
 21
15.41687793395034
 31
0.0
  0
LWPOLYLINE
  5
E4
330
1F
100
AcDbEntity
  8
0
100
AcDbPolyline
 90
      104
 70
   128
 43
0.0
 10
7.385680448258007
 20
15.41687793395034
 10
7.385680049309116
 20
15.41687793153854
 10
7.325564956411359
 20
15.41546125225792
 10
7.26548096132563
 20
15.41194521582657
 10
7.205536838294318
 20
15.40634092593831
 10
7.145841361559812
 20
15.39865948628697
 10
7.086503305364503
 20
15.38891200056637
 10
7.029497763450074
 20
15.37751976083361
 10
6.972860458239871
 20
15.36419921143278
 10
6.916685770598554
 20
15.34897864892084
 10
6.861068081390792
 20
15.33188636985474
 10
6.80610177148125
 20
15.31295067079143
 10
6.75020344016418
 20
15.29152697486876
 10
6.695029812069286
 20
15.2681600247837
 10
6.640677219406655
 20
15.24289634561471
 10
6.587241994386376
 20
15.21578246244023
 10
6.534820469218538
 20
15.18686490033874
 10
6.48518281532682
 20
15.1572381029844
 10
6.436516484540151
 20
15.12595030943167
 10
6.388900298598711
 20
15.09305581410021
 10
6.342413079242681
 20
15.05860891140969
 10
6.297133648212239
 20
15.02266389577977
 10
6.251820267532743
 20
14.98412568753554
 10
6.207807062018424
 20
14.9440298005116
 10
6.165167985754641
 20
14.90244860790189
 10
6.123976992826762
 20
14.85945448290037
 10
6.084308037320153
 20
14.81511979870097
 10
6.047400644972554
 20
14.77097143239038
 10
6.011935849228079
 20
14.72559533838743
 10
5.977966706125513
 20
14.67906789112903
 10
5.945546271703651
 20
14.63146546505208
 10
5.914727602001279
 20
14.58286443459349
 10
5.884724253983023
 20
14.53186139402062
 10
5.856434495756557
 20
14.47982976334776
 10
5.82990114661686
 20
14.42686057478374
 10
5.80516702585891
 20
14.37304486053743
 10
5.782274952777688
 20
14.31847365281767
 10
5.7618177521187
 20
14.26477003807397
 10
5.743109311648549
 20
14.21038307184231
 10
5.726176233223421
 20
14.15540052054756
 10
5.711045118699509
 20
14.09991015061464
 10
5.697742569933001
 20
14.04399972846841
 10
5.685981217708706
 20
13.9861097984302
 10
5.676154418734971
 20
13.9278092511611
 10
5.66827651853347
 20
13.86919627390951
 10
5.662361862625882
 20
13.81036905392383
 10
5.658424796533881
 20
13.75142577845248
 10
5.656496008486032
 20
13.69397050772941
 10
5.656436726972517
 20
13.63643693553045
 10
5.658244133317055
 20
13.57891616248438
 10
5.661915408843366
 20
13.52149928921998
 10
5.66744773487517
 20
13.46427741636603
 10
5.675078092932944
 20
13.40568880824985
 10
5.684673330033686
 20
13.34733947248983
 10
5.696212573223039
 20
13.28932617601223
 10
5.709674949546647
 20
13.23174568574334
 10
5.725039586050154
 20
13.17469476860944
 10
5.741874493492582
 20
13.11953356467523
 10
5.760517367110566
 20
13.06490829409339
 10
5.78093512780642
 20
13.01090501845902
 10
5.803094696482462
 20
12.9576097993672
 10
5.826962994041006
 20
12.90510869841303
 10
5.853277328099014
 20
12.85198394383914
 10
5.881383566781426
 20
12.79972853946135
 10
5.911232656117623
 20
12.74843005942656
 10
5.942775542136985
 20
12.69817607788165
 10
5.975963170868896
 20
12.64905416897355
 10
6.009928912324584
 20
12.60222444256455
 10
6.045439855071933
 20
12.55649696783313
 10
6.082438041670421
 20
12.51194522155266
 10
6.120865514679531
 20
12.46864268049649
 10
6.160664316658741
 20
12.42666282143798
 10
6.203014363789375
 20
12.38488855467604
 10
6.246790783429926
 20
12.34453757109766
 10
6.291916485773661
 20
12.30567704327135
 10
6.338314381013853
 20
12.26837414376565
 10
6.385907379343779
 20
12.23269604514906
 10
6.433572916204766
 20
12.19941087697701
 10
6.482357775301927
 20
12.16770299263798
 10
6.532179425470349
 20
12.1376218542181
 10
6.582955335545112
 20
12.10921692380353
 10
6.6346029743613
 20
12.08253766348041
 10
6.688650705345517
 20
12.05689991156623
 10
6.743593355776394
 20
12.03311146839912
 10
6.799333063587504
 20
12.01121212025681
 10
6.855771966712421
 20
11.99124165341704
 10
6.912812203084718
 20
11.97323985415755
 10
6.968946467273124
 20
11.95760540462098
 10
7.025619572929434
 20
11.94385007842299
 10
7.082735776596305
 20
11.93199657562503
 10
7.140199334816389
 20
11.92206759628854
 10
7.197914504132345
 20
11.91408584047497
 10
7.257588544462823
 20
11.90790882388711
 10
7.317493294969355
 20
11.90379831791626
 10
7.377520842039748
 20
11.90176084466129
 10
7.437563272061805
 20
11.90180292622104
 10
7.497512671423329
 20
11.90393108469437
 10
7.555115113585348
 20
11.90795780474796
 10
7.612613823922545
 20
11.9139195552088
 10
7.669912975111864
 20
11.9218019036566
 10
7.726916739830254
 20
11.93159041767106
 10
7.783529290754663
 20
11.94327066483189
 10
7.839654800562036
 20
11.95682821271879
 10
7.839655187426836
 20
11.95682831309848
  0
LINE
  5
E5
330
1F
100
AcDbEntity
  8
0
100
AcDbLine
 10
7.839655187426836
 20
11.95682831309848
 30
0.0
 11
8.677017754663715
 21
12.18222671370247
 31
0.0
  0
ARC
  5
E6
330
1F
100
AcDbEntity
  8
0
100
AcDbCircle
 10
6.283052200762163
 20
21.09446351350071
 30
0.0
 40
9.22816535661045
100
AcDbArc
 50
285.0356169830877
 51
286.2029927910776
  0
ARC
  5
E7
330
1F
100
AcDbEntity
  8
0
100
AcDbCircle
 10
15.68986873254339
 20
-11.09531599051018
 30
0.0
 40
24.30795077299964
100
AcDbArc
 50
105.1242971100673
 51
106.3229508123219
  0
LWPOLYLINE
  5
E8
330
1F
100
AcDbEntity
  8
0
100
AcDbPolyline
 90
       10
 70
   128
 43
0.0
 10
9.347586302286357
 20
12.37065776634522
 10
10.57534749630039
 20
12.7011977599449
 10
11.1892414746773
 20
12.86643570654434
 10
11.80316400640303
 20
13.03160308503033
 10
12.04875454305944
 20
13.09764924108332
 10
12.29436593299421
 20
13.16365361406882
 10
12.54001389625428
 20
13.22955413895071
 10
12.78571415288656
 20
13.29528875069283
 10
13.031482422938
 20
13.36079538425906
 10
13.03148280950104
 20
13.36079548706463
  0
ARC
  5
E9
330
1F
100
AcDbEntity
  8
0
100
AcDbCircle
 10
12.76255194678531
 20
14.35949875808558
 30
0.0
 40
1.034278508173203
100
AcDbArc
 50
285.0711206558382
 51
89.82608791657595
  0
LWPOLYLINE
  5
EA
330
1F
100
AcDbEntity
  8
0
100
AcDbPolyline
 90
       11
 70
   128
 43
0.0
 10
12.76569132730376
 20
15.39377250171391
 10
12.76569092736133
 20
15.39377250168421
 10
12.5702210750378
 20
15.39384977167272
 10
12.37475488406485
 20
15.39408399529857
 10
12.17929685941989
 20
15.39443524938362
 10
11.62475413584154
 20
15.39569623958908
 10
11.07023463017477
 20
15.39717847634073
 10
10.51573073841711
 20
15.39880549816682
 10
9.961234856566086
 20
15.40050084359561
 10
9.406739380619207
 20
15.40218805115534
 10
8.994237153532418
 20
15.4034236038055
  0
ARC
  5
EB
330
1F
100
AcDbEntity
  8
0
100
AcDbCircle
 10
6.788071647430952
 20
13.60390019491364
 30
0.0
 40
2.273862465531484
100
AcDbArc
 50
209.87789846013
 51
234.979143817495
  0
ARC
  5
EC
330
1F
100
AcDbEntity
  8
0
100
AcDbCircle
 10
6.734694052950911
 20
13.57401984218146
 30
0.0
 40
2.212694450443376
100
AcDbArc
 50
150.1267711370395
 51
209.8955401401176
  0
ARC
  5
ED
330
1F
100
AcDbEntity
  8
0
100
AcDbCircle
 10
6.783939984257688
 20
13.54783083404956
 30
0.0
 40
2.268442073322229
100
AcDbArc
 50
125.0101148751222
 51
150.1727220846038
  0
ARC
  5
EE
330
1F
100
AcDbEntity
  8
0
100
AcDbCircle
 10
12.8807596060919
 20
14.37008252248163
 30
0.0
 40
1.43618873758941
100
AcDbArc
 50
28.87555612255837
 51
69.18440688257302
  0
ARC
  5
EF
330
1F
100
AcDbEntity
  8
0
100
AcDbCircle
 10
6.749953764058163
 20
13.59283911841173
 30
0.0
 40
2.25086441895998
100
AcDbArc
 50
275.0841860671572
 51
279.692631833098
  0
LINE
  5
F0
330
1F
100
AcDbEntity
  8
0
100
AcDbLine
 10
3.95010812704065
 20
16.24009832071594
 30
0.0
 11
3.950108127040651
 21
10.90676498738261
 31
0.0
  0
LWPOLYLINE
  5
F1
330
1F
100
AcDbEntity
  8
0
100
AcDbPolyline
 90
       23
 70
   128
 43
0.0
 10
13.26056657083979
 20
13.04166016650922
 10
13.25864289329646
 20
13.04178428348121
 10
13.24908206341841
 20
13.04164331696903
 10
13.23784530960193
 20
13.04089936151106
 10
13.22499984805291
 20
13.03959596643252
 10
13.21069420840534
 20
13.03774787241403
 10
13.19520917022484
 20
13.03534654633101
 10
13.17869028586002
 20
13.03238133989767
 10
13.16130174429195
 20
13.02888902964423
 10
13.14337034851104
 20
13.02493525059993
 10
13.12505429247598
 20
13.02054992018407
 10
13.10653751332305
 20
13.01578161759808
 10
13.08816823896064
 20
13.0107200158905
 10
13.07012453664864
 20
13.00540949123635
 10
13.05257237980825
 20
12.99990366640889
 10
13.0358418555898
 20
12.99430608435411
 10
13.02010479756136
 20
12.98866908683205
 10
13.00549613557081
 20
12.98304647974656
 10
12.99229060118822
 20
12.97754400225934
 10
12.98063442135852
 20
12.97221606057908
 10
12.97061627003946
 20
12.9671105775327
 10
12.96242454932035
 20
12.96232356720925
 10
12.96148620736176
 20
12.96166142376978
  0
LWPOLYLINE
  5
F2
330
1F
100
AcDbEntity
  8
0
100
AcDbPolyline
 90
      100
 70
   128
 43
0.0
 10
8.567355443348153
 20
12.56438270556989
 10
8.293665053847828
 20
12.49071165975563
 10
8.019974664347504
 20
12.41704061394137
 10
7.746284274847178
 20
12.34336956812711
 10
7.700261039528655
 20
12.33167128730863
 10
7.653860275065796
 20
12.32130954712807
 10
7.607143196725125
 20
12.31238777906808
 10
7.560171019773169
 20
12.30500941461128
 10
7.513004959476451
 20
12.29927788524031
 10
7.465706231101496
 20
12.29529662243781
 10
7.409183970252118
 20
12.29282092952582
 10
7.352558218952487
 20
12.29271021160963
 10
7.295976621940147
 20
12.29495741466856
 10
7.239586823952645
 20
12.29955548468192
 10
7.193337247425316
 20
12.30510972473626
 10
7.147265268748665
 20
12.312257395701
 10
7.101451403889718
 20
12.32098172049989
 10
7.0559761688155
 20
12.3312659220567
 10
7.010920079493029
 20
12.34309322329521
 10
6.956602233987722
 20
12.35959008548977
 10
6.902972880632719
 20
12.37835508090271
 10
6.85017114803249
 20
12.39933695654664
 10
6.798336164791504
 20
12.42248445943422
 10
6.756417488243451
 20
12.44315667141019
 10
6.715195562036988
 20
12.46527347296384
 10
6.67474216717213
 20
12.48879436822512
 10
6.635129084648892
 20
12.51367886132397
 10
6.596428095467291
 20
12.53988645639032
 10
6.550643300529214
 20
12.57350656710237
 10
6.506257489631971
 20
12.60903268059613
 10
6.463383130348514
 20
12.64636972348626
 10
6.422132690251801
 20
12.68542262238743
 10
6.389424253287277
 20
12.71884077723792
 10
6.357853577115898
 20
12.7533919205397
 10
6.327472500650718
 20
12.78901233392012
 10
6.298332862804792
 20
12.82563829900652
 10
6.270486502491176
 20
12.86320609742626
 10
6.238401692527598
 20
12.9101214253933
 10
6.20826952982396
 20
12.95837270303186
 10
6.180164098195072
 20
13.0078325713804
 10
6.154159481455745
 20
13.0583736714774
 10
6.134349602837847
 20
13.10076090222615
 10
6.115985054926405
 20
13.14383904188087
 10
6.099096331405924
 20
13.18753180014815
 10
6.08371392596091
 20
13.23176288673456
 10
6.069868332275873
 20
13.27645601134669
 10
6.055148635596607
 20
13.33125019254352
 10
6.042699439387088
 20
13.38665470702949
 10
6.032552788407543
 20
13.44252673198786
 10
6.024740727418195
 20
13.49872344460189
 10
6.020072910868277
 20
13.54518819269673
 10
6.016992355659172
 20
13.59182609479927
 10
6.015501495998441
 20
13.63855557798788
 10
6.015602766093651
 20
13.68529506934089
 10
6.017298600152364
 20
13.73196299593667
 10
6.02150201599325
 20
13.78843424017322
 10
6.028049349682318
 20
13.84473093709886
 10
6.036918206788871
 20
13.90070894157622
 10
6.048086192882205
 20
13.9562241084679
 10
6.059003248821084
 20
14.00153409461721
 10
6.071473258293147
 20
14.04648370101091
 10
6.085471621983386
 20
14.09099521018988
 10
6.100973740576796
 20
14.13499090469503
 10
6.117955014758369
 20
14.17839306706724
 10
6.140514241157105
 20
14.230178170717
 10
6.165217152403585
 20
14.28102920022919
 10
6.192000127367657
 20
14.33081539643329
 10
6.220799544919178
 20
14.37940600015882
 10
6.246001275707743
 20
14.41846889365511
 10
6.27254293721986
 20
14.4566831886122
 10
6.300377415372071
 20
14.49398275848817
 10
6.329457596080921
 20
14.53030147674111
 10
6.359736365262956
 20
14.5655732168291
 10
6.39810041013845
 20
14.60697128294389
 10
6.438182331266919
 20
14.64677680671097
 10
6.479876453126512
 20
14.68488968159084
 10
6.523077100195383
 20
14.721209801044
 10
6.559746486995353
 20
14.74973169075491
 10
6.59740479575213
 20
14.77700364092485
 10
6.635983747608585
 20
14.80298104072931
 10
6.67541506370759
 20
14.82761927934383
 10
6.71563046519202
 20
14.85087374594393
 10
6.765529214546253
 20
14.87724737426789
 10
6.81652611287956
 20
14.90154264240237
 10
6.868487667303063
 20
14.92369883810655
 10
6.921280384927888
 20
14.94365524913964
 10
6.965335962886902
 20
14.95841687361668
 10
7.009910934870511
 20
14.97167111014702
 10
7.054926375299933
 20
14.98339553742194
 10
7.100303358596391
 20
14.9935677341327
 10
7.145962959181108
 20
15.00216527897057
 10
7.192172776268794
 20
15.00905305572054
 10
7.238642152369265
 20
15.01416359692389
 10
7.28529662749948
 20
15.01771945639178
 10
7.3320617416764
 20
15.01994318793538
 10
7.378863034916985
 20
15.02105734536588
 10
7.425626047238195
 20
15.02128448249442
 10
7.704524269953121
 20
15.02043566181672
 10
7.983422492668045
 20
15.01958684113902
 10
8.274828972104742
 20
15.01869995185392
  0
LWPOLYLINE
  5
F3
330
1F
100
AcDbEntity
  8
0
100
AcDbPolyline
 90
       71
 70
   128
 43
0.0
 10
8.986355943072684
 20
15.00934022865701
 10
9.786199075264864
 20
15.00729736000967
 10
10.26374047749002
 20
15.00611494797418
 10
10.74128388324343
 20
15.00504892232952
 10
11.218834497334
 20
15.00434051533514
 10
11.6963975245706
 20
15.00423095925048
 10
12.17397816976213
 20
15.00496148633498
 10
12.41062449217547
 20
15.00566119660168
 10
12.64728241516266
 20
15.00624849951694
 10
12.76563193907002
 20
15.00632105775009
 10
12.79536535449462
 20
15.0056290856805
 10
12.82506710581927
 20
15.00357005546962
 10
12.85464271212601
 20
15.00014942591162
 10
12.88399769249689
 20
14.99537265580068
 10
12.91944212468127
 20
14.98769953807892
 10
12.95450614005893
 20
14.97800384135514
 10
12.98902925331974
 20
14.96634599241136
 10
13.02285097915356
 20
14.95278641802963
 10
13.05581083225025
 20
14.93738554499197
 10
13.08774832729968
 20
14.92020380008044
 10
13.11862873844797
 20
14.90124013227239
 10
13.14848348027663
 20
14.8804991536289
 10
13.17718121790488
 20
14.85809009847248
 10
13.20459061645195
 20
14.83412220112567
 10
13.23058034103707
 20
14.80870469591097
 10
13.25501905677946
 20
14.78194681715094
 10
13.27787660295411
 20
14.75385420624848
 10
13.2991798019892
 20
14.72442459434728
 10
13.31884061480601
 20
14.69380426563632
 10
13.33677100232584
 20
14.66213950430456
 10
13.35288292547
 20
14.62957659454097
 10
13.36708834515978
 20
14.59626182053451
 10
13.37937022334976
 20
14.56218243918891
 10
13.38974119395547
 20
14.52735465303173
 10
13.39816646821955
 20
14.4919459220327
 10
13.40461125738461
 20
14.45612370616155
 10
13.40904077269327
 20
14.42005546538801
 10
13.41142022538816
 20
14.3839086596818
 10
13.4117297491172
 20
14.34765786359576
 10
13.40998575242376
 20
14.31133323175328
 10
13.40621086881552
 20
14.2751046087897
 10
13.40042773180018
 20
14.2391418393404
 10
13.3926589748854
 20
14.20361476804073
 10
13.38292723157887
 20
14.16869323952603
 10
13.37121512263396
 20
14.13438351825299
 10
13.35754264128853
 20
14.10068352980784
 10
13.34198704056661
 20
14.06774596418879
 10
13.32462557349226
 20
14.03572351139404
 10
13.30553549308951
 20
14.00476886142179
 10
13.2847940523824
 20
13.97503470427027
 10
13.2617133142882
 20
13.94572727479202
 10
13.23688759448363
 20
13.91771591838395
 10
13.21045154248234
 20
13.89112959299615
 10
13.18253980779797
 20
13.86609725657875
 10
13.15328703994416
 20
13.84274786708184
 10
13.12282788843456
 20
13.82121038245553
 10
13.09167090347275
 20
13.80178396139782
 10
13.05943606854345
 20
13.78414202088024
 10
13.02627795328787
 20
13.7683728383228
 10
13.00005283275954
 20
13.75758775876817
 10
12.97333939857273
 20
13.74800263484269
 10
12.94626166036142
 20
13.73945500485783
 10
12.91894362775957
 20
13.73178240712507
 10
12.68879428731366
 20
13.67083781147627
 10
12.45856006890658
 20
13.61023633003394
 10
12.22832213257904
 20
13.54968049711186
 10
11.99816163837175
 20
13.48887284702382
 10
11.53803505722314
 20
13.36640297644416
 10
11.07806555025927
 20
13.24338342149562
 10
10.15829368382097
 20
12.9966591914686
 10
9.238650519883812
 20
12.74948294837578
  0
ARC
  5
F4
330
1F
100
AcDbEntity
  8
0
100
AcDbCircle
 10
15.34880408901395
 20
-47.27162666070955
 30
0.0
 40
62.60510828266468
100
AcDbArc
 50
95.83294057708341
 51
96.3619885829742
  0
ARC
  5
F5
330
1F
100
AcDbEntity
  8
0
100
AcDbCircle
 10
-4.364817555370115
 20
99.5053829769165
 30
0.0
 40
87.81594691988811
100
AcDbArc
 50
278.542718717204
 51
278.91151037163
  0
ARC
  5
F6
330
1F
100
AcDbEntity
  8
0
100
AcDbCircle
 10
7.013517832878108
 20
12.41412341018407
 30
0.0
 40
2.893911669583934
100
AcDbArc
 50
61.11217520161429
 51
64.16061272569276
  0
ARC
  5
F7
330
1F
100
AcDbEntity
  8
0
100
AcDbCircle
 10
6.748651733177838
 20
14.73941706375802
 30
0.0
 40
2.83521738931711
100
AcDbArc
 50
309.901437240008
 51
312.9362513772318
  0
ARC
  5
F8
330
1F
100
AcDbEntity
  8
0
100
AcDbCircle
 10
7.285707664981558
 20
13.65777008180025
 30
0.0
 40
1.712327804204896
100
AcDbArc
 50
324.5124922846735
 51
48.89083503352311
  0
ARC
  5
F9
330
1F
100
AcDbEntity
  8
0
100
AcDbCircle
 10
7.323471489405192
 20
13.67968083108912
 30
0.0
 40
2.129126304329881
100
AcDbArc
 50
334.0942649545167
 51
38.64618800317545
  0
CIRCLE
  5
FA
330
1F
100
AcDbEntity
  8
0
100
AcDbCircle
 10
12.75010812704065
 20
14.35787185268021
 30
0.0
 40
0.3665179007108037
  0
CIRCLE
  5
FB
330
1F
100
AcDbEntity
  8
0
100
AcDbCircle
 10
12.75010812704065
 20
14.35787185268021
 30
0.0
 40
0.1699999999999999
  0
LINE
  5
1AB
330
1F
100
AcDbEntity
  8
0
100
AcDbLine
 10
8.681408054182501
 20
4.006439574465535
 30
0.0
 11
8.488305020441238
 21
3.842736026742796
 31
0.0
  0
LINE
  5
1AC
330
1F
100
AcDbEntity
  8
0
100
AcDbLine
 10
8.488305020441238
 20
3.842736026742796
 30
0.0
 11
6.27938171143392
 21
3.888039842607302
 31
0.0
  0
LINE
  5
1AD
330
1F
100
AcDbEntity
  8
0
100
AcDbLine
 10
6.11692033135575
 20
4.057729328914231
 30
0.0
 11
6.27938171143392
 21
3.888039842607302
 31
0.0
  0
LINE
  5
1AE
330
1F
100
AcDbEntity
  8
0
100
AcDbLine
 10
12.05172917244384
 20
3.755709841915422
 30
0.0
 11
9.496258240743285
 21
3.794876818684507
 31
0.0
  0
LINE
  5
1AF
330
1F
100
AcDbEntity
  8
0
100
AcDbLine
 10
9.318739886249106
 20
3.936344683593316
 30
0.0
 11
9.496258240743285
 21
3.794876818684507
 31
0.0
  0
LINE
  5
1B0
330
1F
100
AcDbEntity
  8
0
100
AcDbLine
 10
12.19100917149868
 20
3.878887554786098
 30
0.0
 11
12.05172917244384
 21
3.755709841915422
 31
0.0
  0
ARC
  5
1B1
330
1F
100
AcDbEntity
  8
0
100
AcDbCircle
 10
13.10825321178594
 20
6.589043175248801
 30
0.0
 40
0.1706677856974947
100
AcDbArc
 50
16.36378232967065
 51
17.82455890505158
  0
POINT
  5
1B2
330
1F
100
AcDbEntity
  8
0
100
AcDbPoint
 10
13.10825321178594
 20
6.589043175248801
 30
0.0
  0
LWPOLYLINE
  5
1B3
330
1F
100
AcDbEntity
  8
0
100
AcDbPolyline
 90
        3
 70
   128
 43
0.0
 10
4.594487646540081
 20
6.722376508582089
 10
5.092497494590729
 20
5.571374855899592
 10
5.636658255861625
 20
4.313696399774824
  0
LWPOLYLINE
  5
1B4
330
1F
100
AcDbEntity
  8
0
100
AcDbPolyline
 90
        3
 70
   128
 43
0.0
 10
13.81774993878061
 20
4.223306952912973
 10
14.07550958209215
 20
5.575852400191362
 10
14.29402084609117
 20
6.722376508582089
  0
ARC
  5
1B5
330
1F
100
AcDbEntity
  8
0
100
AcDbCircle
 10
6.023343305135644
 20
4.481018461013339
 30
0.0
 40
0.4213333464942706
100
AcDbArc
 50
203.3985733587527
 51
268.8542372247578
  0
ARC
  5
1B6
330
1F
100
AcDbEntity
  8
0
100
AcDbCircle
 10
8.556789246825758
 20
3.152582071484648
 30
0.0
 40
0.8561531312843019
100
AcDbArc
 50
81.05485781205393
 51
89.31940730473646
  0
ARC
  5
1B7
330
1F
100
AcDbEntity
  8
0
100
AcDbCircle
 10
9.353308965923872
 20
7.947604031304181
 30
0.0
 40
4.004482941186972
100
AcDbArc
 50
260.464538194335
 51
267.7094309347251
  0
ARC
  5
1B8
330
1F
100
AcDbEntity
  8
0
100
AcDbCircle
 10
13.40392065230004
 20
4.302077959772863
 30
0.0
 40
0.4212118355378396
100
AcDbArc
 50
271.1085898420696
 51
349.223039133591
  0
ARC
  5
1B9
330
1F
100
AcDbEntity
  8
0
100
AcDbCircle
 10
12.03007562636457
 20
128.1990801767085
 30
0.0
 40
124.2922934571083
100
AcDbArc
 50
268.590566011956
 51
268.7574636508315
  0
LWPOLYLINE
  5
1BA
330
1F
100
AcDbEntity
  8
0
100
AcDbPolyline
 90
       25
 70
   128
 43
0.0
 10
9.192944244640486
 20
3.946188453615365
 10
9.197584345028744
 20
3.946027686164255
 10
9.211223127707283
 20
3.94554839920345
 10
9.224286088045065
 20
3.945082667739838
 10
9.236750006987394
 20
3.944631677623636
 10
9.248592764953212
 20
3.944196617249653
 10
9.259793407278833
 20
3.943778678426658
 10
9.270344145051415
 20
3.943378616005841
 10
9.280513744622625
 20
3.942986587889042
 10
9.289976639277231
 20
3.942615505826852
 10
9.298818898432205
 20
3.942262591249796
 10
9.307034612761963
 20
3.941928631032237
 10
9.314617089058035
 20
3.94161450092507
 10
9.32155923660272
 20
3.941321160825905
 10
9.327853839105097
 20
3.941049655061366
 10
9.333493934148295
 20
3.940801108473258
 10
9.338473317966569
 20
3.94057671670733
 10
9.342795708936861
 20
3.940377326355791
 10
9.346364626813251
 20
3.94020864066118
 10
9.349248163577698
 20
3.9400688743645
 10
9.351454920851601
 20
3.939959073049306
 10
9.352997577821662
 20
3.939880204443172
 10
9.353829928167085
 20
3.939836502425109
 10
9.354159301055377
 20
3.939818783833158
 10
9.354131791238064
 20
3.939820319899378
  0
LINE
  5
1BB
330
1F
100
AcDbEntity
  8
0
100
AcDbLine
 10
9.341013156055502
 20
3.935887475095039
 30
0.0
 11
12.37565696011068
 21
3.875194599013935
 31
0.0
  0
LINE
  5
1BC
330
1F
100
AcDbEntity
  8
0
100
AcDbLine
 10
13.12455929397062
 20
3.875194599013935
 30
0.0
 11
13.41206906682445
 21
3.880944794471012
 31
0.0
  0
ARC
  5
1BD
330
1F
100
AcDbEntity
  8
0
100
AcDbCircle
 10
12.75010812704065
 20
4.32854912208036
 30
0.0
 40
0.5880000000000005
100
AcDbArc
 50
286.8050184659896
 51
309.5552288032997
  0
ARC
  5
1BE
330
1F
100
AcDbEntity
  8
0
100
AcDbCircle
 10
12.75010812704065
 20
4.32854912208036
 30
0.0
 40
0.5880000000000014
100
AcDbArc
 50
230.4447711967018
 51
253.1949815340118
  0
ARC
  5
1BF
330
1F
100
AcDbEntity
  8
0
100
AcDbCircle
 10
9.103734155779996
 20
7.943324558160047
 30
0.0
 40
4.00139821302154
100
AcDbArc
 50
259.9978547561241
 51
267.230222391498
  0
LWPOLYLINE
  5
1C0
330
1F
100
AcDbEntity
  8
0
100
AcDbPolyline
 90
        3
 70
   128
 43
0.0
 10
8.920838301717166
 20
3.946203000744631
 10
8.949917850991868
 20
3.945097123608474
 10
8.973164423504103
 20
3.944520880504852
  0
ARC
  5
1C1
330
1F
100
AcDbEntity
  8
0
100
AcDbCircle
 10
8.262282043546997
 20
3.112772816658718
 30
0.0
 40
0.9018423696794215
100
AcDbArc
 50
80.65406437974075
 51
89.22876036489022
  0
LINE
  5
1C2
330
1F
100
AcDbEntity
  8
0
100
AcDbLine
 10
3.95010812704065
 20
6.722376508582089
 30
0.0
 11
3.950108127040651
 21
6.955709841915422
 31
0.0
  0
LINE
  5
1C3
330
1F
100
AcDbEntity
  8
0
100
AcDbLine
 10
3.950108127040651
 20
6.955709841915422
 30
0.0
 11
7.098748215321061
 21
6.955709841915422
 31
0.0
  0
LINE
  5
1C4
330
1F
100
AcDbEntity
  8
0
100
AcDbLine
 10
7.098748215321062
 20
6.722376508582088
 30
0.0
 11
7.098748215321061
 21
6.955709841915422
 31
0.0
  0
LINE
  5
1C5
330
1F
100
AcDbEntity
  8
0
100
AcDbLine
 10
7.098748215321062
 20
6.722376508582088
 30
0.0
 11
3.95010812704065
 21
6.722376508582089
 31
0.0
  0
LINE
  5
1C6
330
1F
100
AcDbEntity
  8
0
100
AcDbLine
 10
7.098748215321061
 20
6.955709841915422
 30
0.0
 11
14.61677479370731
 21
6.955709841915422
 31
0.0
  0
LINE
  5
1C7
330
1F
100
AcDbEntity
  8
0
100
AcDbLine
 10
14.61677479370731
 20
6.722376508582089
 30
0.0
 11
14.61677479370731
 21
6.955709841915422
 31
0.0
  0
LINE
  5
1C8
330
1F
100
AcDbEntity
  8
0
100
AcDbLine
 10
14.61677479370731
 20
6.722376508582089
 30
0.0
 11
7.098748215321062
 21
6.722376508582088
 31
0.0
  0
LWPOLYLINE
  5
1C9
330
1F
100
AcDbEntity
  8
0
100
AcDbPolyline
 90
       38
 70
   128
 43
0.0
 10
13.2777296776087
 20
6.585970877254057
 10
13.27594713335765
 20
6.567135785359286
 10
13.27213319728399
 20
6.548467634424677
 10
13.26635709335172
 20
6.530319140865202
 10
13.25864289329646
 20
6.512874109823033
 10
13.24908206341841
 20
6.496291569750168
 10
13.23784530960193
 20
6.480888101416602
 10
13.22499984805291
 20
6.466830317736159
 10
13.21069420840534
 20
6.454237011127478
 10
13.19520917022484
 20
6.443338471734056
 10
13.17869028586002
 20
6.434261834350452
 10
13.16130174429195
 20
6.427063381467863
 10
13.14337034851104
 20
6.421878401944142
 10
13.12505429247598
 20
6.418784159700878
 10
13.10653751332305
 20
6.417782897059405
 10
13.08816823896064
 20
6.41889344383848
 10
13.07012453664864
 20
6.422134817215553
 10
13.05257237980825
 20
6.427446881771511
 10
13.0358418555898
 20
6.434729738430265
 10
13.02010479756136
 20
6.443941287167688
 10
13.00549613557081
 20
6.454967783938438
 10
12.99229060118822
 20
6.467601863634595
 10
12.98063442135852
 20
6.481745055488816
 10
12.97061627003946
 20
6.497242830607806
 10
12.96242454932035
 20
6.513803736694715
 10
12.9561633935442
 20
6.531284034071023
 10
12.95186522346257
 20
6.549505830955983
 10
12.94961087077761
 20
6.568126446899394
 10
12.94945063687315
 20
6.586973078869941
 10
12.95135703410076
 20
6.605864528148258
 10
12.95529421061419
 20
6.624445520752066
 10
12.96125296373866
 20
6.642533672528191
 10
12.96914899644957
 20
6.659964906599727
 10
12.97883381537598
 20
6.676411409898791
 10
12.99023975131626
 20
6.691701779580104
 10
13.00323520171972
 20
6.705707559032441
 10
13.01757577319187
 20
6.718165354539013
 10
13.02366339107001
 20
6.722376508582089
  0
ARC
  5
1CA
330
1F
100
AcDbEntity
  8
0
100
AcDbCircle
 10
13.11770880488978
 20
6.594550281907331
 30
0.0
 40
0.1602506970029454
100
AcDbArc
 50
356.9310660469246
 51
52.90761495225196
  0
LWPOLYLINE
  5
1CB
330
1F
100
AcDbEntity
  8
0
100
AcDbPolyline
 90
        9
 70
   128
 43
0.0
 10
9.353008377530994
 20
4.302822681464105
 10
10.99762358392388
 20
4.269595690544381
 10
11.50731535966952
 20
4.259616099427895
 10
12.01703852078829
 20
4.250187060285035
 10
12.27193238094967
 20
4.245814055632482
 10
12.52686205295535
 20
4.24205466304512
 10
12.78184645322609
 20
4.239452152092101
 10
13.03690449818264
 20
4.238549792342579
 10
13.03690488474567
 20
4.238549792537764
  0
ARC
  5
1CC
330
1F
100
AcDbEntity
  8
0
100
AcDbCircle
 10
9.456168931979613
 20
7.860225501381118
 30
0.0
 40
3.55889827378469
100
AcDbArc
 50
260.4139975062773
 51
268.3389543740047
  0
ARC
  5
1CD
330
1F
100
AcDbEntity
  8
0
100
AcDbCircle
 10
8.660650610300612
 20
3.052581852511887
 30
0.0
 40
1.314190814186445
100
AcDbArc
 50
81.12013826858076
 51
89.04999524130195
  0
LINE
  5
1CE
330
1F
100
AcDbEntity
  8
0
100
AcDbLine
 10
7.845077262671473
 20
4.383339273525867
 30
0.0
 11
8.682439829908354
 21
4.366592022183688
 31
0.0
  0
LWPOLYLINE
  5
1CF
330
1F
100
AcDbEntity
  8
0
100
AcDbPolyline
 90
       20
 70
   128
 43
0.0
 10
13.27230404055089
 20
6.589182414827937
 10
13.27052154501363
 20
6.570347454560251
 10
13.26670797757056
 20
6.55167926387891
 10
13.26093251991149
 20
6.533530585910169
 10
13.25321919030794
 20
6.516085269244562
 10
13.24365931263707
 20
6.49950239468932
 10
13.2324234291392
 20
6.484098615071178
 10
13.21957840643399
 20
6.470040511529383
 10
13.20527290398368
 20
6.457447038933484
 10
13.18978788431875
 20
6.446548393659921
 10
13.17326921506394
 20
6.437471745812767
 10
13.15588089397848
 20
6.430273238927611
 10
13.13794971342075
 20
6.425088160191195
 10
13.11963367783781
 20
6.421993752183522
 10
13.10111690081622
 20
6.420992321202907
 10
13.08274761022427
 20
6.422102700233907
 10
13.06470387321949
 20
6.425343908069463
 10
13.04715166380656
 20
6.430655810823992
 10
13.03042107012452
 20
6.437938512464253
 10
13.02179776729971
 20
6.442985979134535
  0
ARC
  5
1D0
330
1F
100
AcDbEntity
  8
0
100
AcDbCircle
 10
13.11208084500067
 20
6.597739147532631
 30
0.0
 40
0.1604515193661459
100
AcDbArc
 50
356.943018333572
 51
50.9677309546719
  0
LINE
  5
1D1
330
1F
100
AcDbEntity
  8
0
100
AcDbLine
 10
8.566928861989294
 20
4.00872915830905
 30
0.0
 11
6.014927850152566
 21
4.059769178537981
 31
0.0
  0
LINE
  5
1D2
330
1F
100
AcDbEntity
  8
0
100
AcDbLine
 10
9.193574131084808
 20
3.946360131342792
 30
0.0
 11
9.192950187581928
 21
3.946379682582604
 31
0.0
  0
ARC
  5
1D3
330
1F
100
AcDbEntity
  8
0
100
AcDbCircle
 10
8.228844920253665
 20
1.31827562787491
 30
0.0
 40
2.696688907961946
100
AcDbArc
 50
86.19144312273141
 51
89.03200737961304
  0
LINE
  5
1D4
330
1F
100
AcDbEntity
  8
0
100
AcDbLine
 10
9.345016681196192
 20
3.935809962070959
 30
0.0
 11
9.335410965631965
 21
3.936001064351324
 31
0.0
  0
LINE
  5
1D5
330
1F
100
AcDbEntity
  8
0
100
AcDbLine
 10
12.37565696011068
 20
3.875194599013935
 30
0.0
 11
13.12455929397061
 21
3.875194599013935
 31
0.0
  0
LINE
  5
1D6
330
1F
100
AcDbEntity
  8
0
100
AcDbLine
 10
12.75010812704065
 20
3.765660145460636
 30
0.0
 11
12.58010812704065
 21
3.765660145460636
 31
0.0
  0
LINE
  5
1D7
330
1F
100
AcDbEntity
  8
0
100
AcDbLine
 10
12.92010812704065
 20
3.765660145460636
 30
0.0
 11
12.75010812704065
 21
3.765660145460636
 31
0.0
  0
LWPOLYLINE
  5
1D8
330
1F
100
AcDbEntity
  8
0
100
AcDbPolyline
 90
       34
 70
   128
 43
0.0
 10
13.03690488474567
 20
4.238549792537763
 10
13.03690527092283
 20
4.238549785812085
 10
13.07741139966594
 20
4.237844910301125
 10
13.11741397605426
 20
4.237148982331362
 10
13.1571028414265
 20
4.236457335090468
 10
13.19615271414564
 20
4.235774703252212
 10
13.23526862807363
 20
4.235088163229658
 10
13.2735871568857
 20
4.234412811661568
 10
13.31129659309251
 20
4.233744770221957
 10
13.34806892787226
 20
4.233088870138243
 10
13.38486345452473
 20
4.232427290844515
 10
13.42053187051488
 20
4.231780785954748
 10
13.45525751610242
 20
4.231145924784371
 10
13.48871292194778
 20
4.230527840996494
 10
13.52155847989115
 20
4.229913714119124
 10
13.55294608184279
 20
4.229319718502734
 10
13.58304094589531
 20
4.228742871286382
 10
13.61153706066959
 20
4.228188338497881
 10
13.63670960609922
 20
4.22769032238486
 10
13.66038831906752
 20
4.227214166259254
 10
13.68267921685852
 20
4.226758016431932
 10
13.70337757515722
 20
4.226325504353762
 10
13.72284129476938
 20
4.225908626749765
 10
13.74056870999173
 20
4.225518499274065
 10
13.75663578063437
 20
4.225153868619891
 10
13.77088025578698
 20
4.224817856337372
 10
13.78287066124771
 20
4.224521120768466
 10
13.79311864255151
 20
4.22425252010534
 10
13.80165644218612
 20
4.22401163101443
 10
13.80839562693556
 20
4.223800374072743
 10
13.81341099924243
 20
4.223615094968112
 10
13.81652762602476
 20
4.223461590698051
 10
13.81773804170526
 20
4.223340155048543
 10
13.81763908130203
 20
4.223328088305664
  0
LWPOLYLINE
  5
1D9
330
1F
100
AcDbEntity
  8
0
100
AcDbPolyline
 90
       68
 70
   128
 43
0.0
 10
5.636689809728632
 20
4.313710040088922
 10
5.636663369090641
 20
4.313691831161172
 10
5.637520058070905
 20
4.313425013425007
 10
5.63969795465492
 20
4.313197021841057
 10
5.643194097160768
 20
4.313009628982961
 10
5.64800568061563
 20
4.31286283123044
 10
5.654274076019198
 20
4.312754916302544
 10
5.661908637986367
 20
4.312689434559644
 10
5.670898906972101
 20
4.312666402462796
 10
5.68131653792278
 20
4.312686311014892
 10
5.69309551012351
 20
4.3127497973909
 10
5.706222138225919
 20
4.312857059410879
 10
5.720230474337295
 20
4.313003339414012
 10
5.735492899760111
 20
4.313191311663053
 10
5.751994156991799
 20
4.313420529138153
 10
5.769848995317955
 20
4.313692490224032
 10
5.788938406420347
 20
4.314006035274784
 10
5.809240160197823
 20
4.314361743770833
 10
5.831206098454284
 20
4.314768949321163
 10
5.854411330752529
 20
4.315221169952753
 10
5.878829890981385
 20
4.31571891486521
 10
5.904636484452571
 20
4.316266389856788
 10
5.931646978893547
 20
4.316859289907355
 10
5.959828678490182
 20
4.317496420801036
 10
5.988248112206727
 20
4.318156599141472
 10
6.01773513460087
 20
4.318860024200573
 10
6.048257203039803
 20
4.319606978999809
 10
6.080015341571855
 20
4.320404374927811
 10
6.112789400503699
 20
4.321247429055073
 10
6.146544186838111
 20
4.322134470690985
 10
6.182009620031931
 20
4.323084011886855
 10
6.218456646549195
 20
4.324077662097222
 10
6.255841452287041
 20
4.325116244779147
 10
6.294421241509914
 20
4.32620864709527
 10
6.333907298150334
 20
4.327348265597182
 10
6.374253026458334
 20
4.328535578037451
 10
6.414223490103673
 20
4.329733873910839
 10
6.454961199315153
 20
4.33097482329347
 10
6.496419672019696
 20
4.332255497701085
 10
6.538870103385383
 20
4.333585164034877
 10
6.582002034338074
 20
4.334956903665969
 10
6.625765818734493
 20
4.336370534691232
 10
6.671109923299272
 20
4.337860006645148
 10
6.717061140279756
 20
4.339394544723976
 10
6.763564971308362
 20
4.340970565323567
 10
6.810944609957784
 20
4.34259653090331
 10
6.858827234113595
 20
4.344259889893862
 10
6.907153201650753
 20
4.34596098531094
 10
6.954300768223983
 20
4.347643232956987
 10
7.00180818787154
 20
4.349361489405858
 10
7.049620589487931
 20
4.35111541759631
 10
7.09805236367927
 20
4.352917272799574
 10
7.146737579837355
 20
4.3547508620303
 10
7.195618602464301
 20
4.356610781026846
 10
7.245759666916548
 20
4.358538149755405
 10
7.296043656559032
 20
4.360493640187403
 10
7.346408266593493
 20
4.362476057333545
 10
7.397203006011528
 20
4.364502026019149
 10
7.448015810594582
 20
4.36655520487521
 10
7.498782433548297
 20
4.368630116272358
 10
7.556837370840911
 20
4.371026414214188
 10
7.614741456874122
 20
4.37344064781798
 10
7.672398529338956
 20
4.375871849377322
 10
7.730341100426994
 20
4.378344944220515
 10
7.787933339361094
 20
4.380834720316111
 10
7.845076875808546
 20
4.383339256447626
 10
7.845077262671473
 20
4.383339273525866
 10
7.845077262671473
 20
4.383339273525866
  0
LWPOLYLINE
  5
1DA
330
1F
100
AcDbEntity
  8
0
100
AcDbPolyline
 90
       40
 70
   128
 43
0.0
 10
8.863513217156212
 20
4.351021015057357
 10
8.860463566287991
 20
4.335495651501881
 10
8.85726497928136
 20
4.320083256052284
 10
8.853922035163407
 20
4.30480589275626
 10
8.850439519619696
 20
4.289685432352428
 10
8.846822418143188
 20
4.274743520960665
 10
8.843075908897125
 20
4.260001549093995
 10
8.839205355302064
 20
4.245480621036393
 10
8.835216298357746
 20
4.231201524630366
 10
8.831114448710703
 20
4.217184701517521
 10
8.826905678479032
 20
4.203450217874766
 10
8.822596012845998
 20
4.19001773568801
 10
8.818191621434511
 20
4.176906484604489
 10
8.813698809474832
 20
4.164135234404033
 10
8.809124008778137
 20
4.151722268128657
 10
8.80447376852889
 20
4.139685355908953
 10
8.799754745909156
 20
4.128041729524765
 10
8.794973696568341
 20
4.116808057736558
 10
8.79013746495195
 20
4.10600042242277
 10
8.785252974503213
 20
4.095634295557357
 10
8.780327217751658
 20
4.085724517060454
 10
8.775367246302742
 20
4.076285273553869
 10
8.770380160742936
 20
4.067330078051824
 10
8.765373100474677
 20
4.058871750616022
 10
8.760353233495761
 20
4.050922400002727
 10
8.755327746137783
 20
4.043493406328135
 10
8.750303832778353
 20
4.036595404776845
 10
8.745288685541783
 20
4.030238270376766
 10
8.740289484002991
 20
4.024431103862245
 10
8.735313384909382
 20
4.019182218645647
 10
8.730367511935414
 20
4.014499128916063
 10
8.725458945484483
 20
4.01038853888216
 10
8.720594712552797
 20
4.006856333174582
 10
8.715781776669658
 20
4.00390756842164
 10
8.711027027928643
 20
4.001546466010359
 10
8.706337273123889
 20
3.999776406043225
 10
8.701719226005637
 20
3.998599922499313
 10
8.697179497668978
 20
3.998018699606691
 10
8.692724587089548
 20
3.99803356943132
 10
8.68991635045023
 20
3.998356668842385
  0
LINE
  5
1DB
330
1F
100
AcDbEntity
  8
0
100
AcDbLine
 10
9.238262686733648
 20
3.944959817589492
 30
0.0
 11
9.193574131084808
 21
3.946360131342792
 31
0.0
  0
LWPOLYLINE
  5
1DC
330
1F
100
AcDbEntity
  8
0
100
AcDbPolyline
 90
       34
 70
   128
 43
0.0
 10
13.41206988431429
 20
3.880949090706115
 10
13.41215626722469
 20
3.880948508527808
 10
13.41041124364778
 20
3.880945447330118
 10
13.40663405249713
 20
3.880941435845924
 10
13.40084734049365
 20
3.880936497149422
 10
13.39307375435822
 20
3.880930654314814
 10
13.38333594081175
 20
3.880923930416296
 10
13.37161648441193
 20
3.880916331954078
 10
13.35793540754457
 20
3.88090787840277
 10
13.34237001013187
 20
3.880898611293691
 10
13.32499759209602
 20
3.880888572158158
 10
13.30589545335924
 20
3.880877802527491
 10
13.28514089384372
 20
3.880866343933008
 10
13.26204545883984
 20
3.880853849542413
 10
13.23720390863926
 20
3.880840660823065
 10
13.21075097672212
 20
3.880826830411328
 10
13.18282139656855
 20
3.880812410943563
 10
13.15354990165866
 20
3.880797455056135
 10
13.1230712254726
 20
3.880782015385406
 10
13.09189409915804
 20
3.880766359719738
 10
13.05963839739005
 20
3.880750273136401
 10
13.02645878910033
 20
3.880733767151935
 10
13.00021666682821
 20
3.880718959599951
 10
12.97348590327138
 20
3.880702980391325
 10
12.94639055910777
 20
3.880689752800654
 10
12.9190546950153
 20
3.880683200102531
 10
12.68887441831653
 20
3.88150066738025
 10
12.45860158728165
 20
3.883713300117076
 10
12.22832234835145
 20
3.886913413148293
 10
11.99812284796672
 20
3.890693321309177
 10
11.53792871636953
 20
3.899008065860913
 10
11.07789831313414
 20
3.907899035287257
 10
10.15801327278976
 20
3.926244327413948
 10
9.238262686733648
 20
3.944959817589492
  0
LWPOLYLINE
  5
1DD
330
1F
100
AcDbEntity
  8
0
100
AcDbPolyline
 90
        9
 70
   128
 43
0.0
 10
8.64387100290591
 20
4.004231939239111
 10
8.637319332126068
 20
4.004364716503848
 10
8.608179202122258
 20
4.004955253412767
 10
8.577393446009857
 20
4.005579058902108
 10
8.545586785249078
 20
4.006223417295595
 10
8.512796715415023
 20
4.006887515446006
 10
8.478797033073149
 20
4.007575879795485
 10
8.443839829426291
 20
4.008283357603965
 10
8.407966863765183
 20
4.009009058684743
  0
LWPOLYLINE
  5
1DE
330
1F
100
AcDbEntity
  8
0
100
AcDbPolyline
 90
       30
 70
   128
 43
0.0
 10
9.238262686733648
 20
3.944959817589492
 10
9.258433039493265
 20
3.944239331727369
 10
9.277663738561246
 20
3.94353733789768
 10
9.299746590714057
 20
3.942710656542785
 10
9.320397556234009
 20
3.941914597930493
 10
9.339592798268297
 20
3.941151057872088
 10
9.357431570828014
 20
3.94041681735024
 10
9.373772363982769
 20
3.939718495465364
 10
9.38859603058554
 20
3.939057947853976
 10
9.402151506479853
 20
3.93842420251457
 10
9.414108109873273
 20
3.937832809599747
 10
9.424451329677976
 20
3.937285552948983
 10
9.433228765013023
 20
3.936780509355653
 10
9.440357880509296
 20
3.936322945886609
 10
9.445830043539949
 20
3.935914364978314
 10
9.449552075695676
 20
3.935565796764115
 10
9.451707966711541
 20
3.935265359365606
 10
9.452295386502195
 20
3.935014030505088
 10
9.45130087111468
 20
3.934811406351232
 10
9.448717241056787
 20
3.934659818597411
 10
9.444547607243736
 20
3.934559780497117
 10
9.438655208225469
 20
3.934511226594576
 10
9.431115818208068
 20
3.934516846382985
 10
9.421938526198578
 20
3.934576614077649
 10
9.411044956082179
 20
3.934691457012593
 10
9.398502627577469
 20
3.934860677103543
 10
9.384326704224188
 20
3.93508365923314
 10
9.369018107301229
 20
3.935350840915971
 10
9.352191655110363
 20
3.935667218527557
 10
9.345016681196192
 20
3.935809962070959
  0
ARC
  5
1DF
330
1F
100
AcDbEntity
  8
0
100
AcDbCircle
 10
9.069184146492339
 20
7.295085110852141
 30
0.0
 40
3.351940350842352
100
AcDbArc
 50
258.6229872702054
 51
268.3537769253395
  0
LWPOLYLINE
  5
1E0
330
1F
100
AcDbEntity
  8
0
100
AcDbPolyline
 90
        6
 70
   128
 43
0.0
 10
8.407966863765183
 20
4.009009058684743
 10
8.407958280217462
 20
4.006555430358435
 10
8.408051663785684
 20
4.004693736637181
 10
8.408246880154605
 20
4.003426655228063
 10
8.40854364854106
 20
4.002756008596727
 10
8.408734319216689
 20
4.002643922236717
  0
ENDSEC
  0
SECTION
  2
OBJECTS
  0
DICTIONARY
  5
C
330
0
100
AcDbDictionary
  3
ACAD_GROUP
350
D
  3
ACAD_LAYOUT
350
1A
  3
ACAD_MLINESTYLE
350
17
  3
ACAD_PLOTSETTINGS
350
19
  3
ACAD_PLOTSTYLENAME
350
E
  3
ACDBHEADERROUNDTRIPXREC
350
2A2
  3
ACDBVARIABLEDICTIONARY
350
29F
  0
DICTIONARY
  5
2C5
330
1F
100
AcDbDictionary
280
     1
  3
ACAD_LAYOUTSELFREF
360
2C6
  0
DICTIONARY
  5
2C3
330
1B
100
AcDbDictionary
280
     1
  3
ACAD_LAYOUTSELFREF
360
2C4
  0
DICTIONARY
  5
D
102
{ACAD_REACTORS
330
C
102
}
330
C
100
AcDbDictionary
  0
DICTIONARY
  5
1A
102
{ACAD_REACTORS
330
C
102
}
330
C
100
AcDbDictionary
  0
DICTIONARY
  5
17
102
{ACAD_REACTORS
330
C
102
}
330
C
100
AcDbDictionary
  3
STANDARD
350
18
  0
DICTIONARY
  5
19
102
{ACAD_REACTORS
330
C
102
}
330
C
100
AcDbDictionary
  0
ACDBDICTIONARYWDFLT
  5
E
102
{ACAD_REACTORS
330
C
102
}
330
C
100
AcDbDictionary
281
     1
  3
Normal
350
F
100
AcDbDictionaryWithDefault
340
F
  0
DICTIONARY
  5
2A2
102
{ACAD_REACTORS
330
C
102
}
330
C
100
AcDbDictionary
  3
CEPSNTYPE
350
2AC
  3
DIMSTYLEDATA
350
2B0
  3
FINGERPRINTGUID
350
2AD
  3
HYPERLINKBASE
350
2A5
  3
INSUNITS
350
2AB
  3
LAYOUTDICT
350
2A7
  3
LWETCUNION
350
2AA
  3
PLOTSETDICT
350
2A8
  3
PLOTSTYLNAMDICT
350
2A9
  3
PSVPSCALE
350
2AF
  3
PUCSBASE
350
2B3
  3
PUCSORGBACK
350
2B9
  3
PUCSORGBOTTOM
350
2B5
  3
PUCSORGFRONT
350
2B8
  3
PUCSORGLEFT
350
2B6
  3
PUCSORGRIGHT
350
2B7
  3
PUCSORGTOP
350
2B4
  3
PUCSORTHOREF
350
2B1
  3
PUCSORTHOVIEW
350
2B2
  3
STYLESHEET
350
2A6
  3
TSTACKALIGN
350
2A3
  3
TSTACKSIZE
350
2A4
  3
UCSBASE
350
2BC
  3
UCSORGBACK
350
2C2
  3
UCSORGBOTTOM
350
2BE
  3
UCSORGFRONT
350
2C1
  3
UCSORGLEFT
350
2BF
  3
UCSORGRIGHT
350
2C0
  3
UCSORGTOP
350
2BD
  3
UCSORTHOREF
350
2BA
  3
UCSORTHOVIEW
350
2BB
  3
VERSIONGUID
350
2AE
  0
DICTIONARY
  5
29F
102
{ACAD_REACTORS
330
C
102
}
330
C
100
AcDbDictionary
  3
DIMASSOC
350
2A0
  0
XRECORD
  5
2C6
102
{ACAD_REACTORS
330
2C5
102
}
330
2C5
100
AcDbXrecord
340
1F
  0
XRECORD
  5
2C4
102
{ACAD_REACTORS
330
2C3
102
}
330
2C3
100
AcDbXrecord
340
1B
  0
MLINESTYLE
  5
18
102
{ACAD_REACTORS
330
17
102
}
330
17
100
AcDbMlineStyle
  2
STANDARD
 70
     0
  3

 62
   256
 51
90.0
 52
90.0
 71
     2
 49
0.5
 62
   256
  6
BYLAYER
 49
-0.5
 62
   256
  6
BYLAYER
  0
ACDBPLACEHOLDER
  5
F
102
{ACAD_REACTORS
330
E
102
}
330
E
100
AcDbPlaceHolder
280
     0
  0
XRECORD
  5
2AC
102
{ACAD_REACTORS
330
2A2
102
}
330
2A2
100
AcDbXrecord
 90
        0
  0
XRECORD
  5
2B0
102
{ACAD_REACTORS
330
2A2
102
}
330
2A2
100
AcDbXrecord
1000
DSTYLE
1002
{
1070
   278
 70
    44
1002
}
  0
XRECORD
  5
2AD
102
{ACAD_REACTORS
330
2A2
102
}
330
2A2
100
AcDbXrecord
  1
{C9A19EC9-9D37-40BB-8ABA-72C3B1362ABD}
  0
XRECORD
  5
2A5
102
{ACAD_REACTORS
330
2A2
102
}
330
2A2
100
AcDbXrecord
  1

  0
XRECORD
  5
2AB
102
{ACAD_REACTORS
330
2A2
102
}
330
2A2
100
AcDbXrecord
 90
        4
  0
XRECORD
  5
2A7
102
{ACAD_REACTORS
330
2A2
102
}
330
2A2
100
AcDbXrecord
340
1A
  0
XRECORD
  5
2AA
102
{ACAD_REACTORS
330
2A2
102
}
330
2A2
100
AcDbXrecord
 90
    10781
  0
XRECORD
  5
2A8
102
{ACAD_REACTORS
330
2A2
102
}
330
2A2
100
AcDbXrecord
340
19
  0
XRECORD
  5
2A9
102
{ACAD_REACTORS
330
2A2
102
}
330
2A2
100
AcDbXrecord
340
E
  0
XRECORD
  5
2AF
102
{ACAD_REACTORS
330
2A2
102
}
330
2A2
100
AcDbXrecord
 40
0.0
  0
XRECORD
  5
2B3
102
{ACAD_REACTORS
330
2A2
102
}
330
2A2
100
AcDbXrecord
340
0
  0
XRECORD
  5
2B9
102
{ACAD_REACTORS
330
2A2
102
}
330
2A2
100
AcDbXrecord
 10
0.0
 20
0.0
 30
0.0
  0
XRECORD
  5
2B5
102
{ACAD_REACTORS
330
2A2
102
}
330
2A2
100
AcDbXrecord
 10
0.0
 20
0.0
 30
0.0
  0
XRECORD
  5
2B8
102
{ACAD_REACTORS
330
2A2
102
}
330
2A2
100
AcDbXrecord
 10
0.0
 20
0.0
 30
0.0
  0
XRECORD
  5
2B6
102
{ACAD_REACTORS
330
2A2
102
}
330
2A2
100
AcDbXrecord
 10
0.0
 20
0.0
 30
0.0
  0
XRECORD
  5
2B7
102
{ACAD_REACTORS
330
2A2
102
}
330
2A2
100
AcDbXrecord
 10
0.0
 20
0.0
 30
0.0
  0
XRECORD
  5
2B4
102
{ACAD_REACTORS
330
2A2
102
}
330
2A2
100
AcDbXrecord
 10
0.0
 20
0.0
 30
0.0
  0
XRECORD
  5
2B1
102
{ACAD_REACTORS
330
2A2
102
}
330
2A2
100
AcDbXrecord
340
0
  0
XRECORD
  5
2B2
102
{ACAD_REACTORS
330
2A2
102
}
330
2A2
100
AcDbXrecord
 70
     0
  0
XRECORD
  5
2A6
102
{ACAD_REACTORS
330
2A2
102
}
330
2A2
100
AcDbXrecord
  1

  0
XRECORD
  5
2A3
102
{ACAD_REACTORS
330
2A2
102
}
330
2A2
100
AcDbXrecord
 90
        1
  0
XRECORD
  5
2A4
102
{ACAD_REACTORS
330
2A2
102
}
330
2A2
100
AcDbXrecord
 90
       70
  0
XRECORD
  5
2BC
102
{ACAD_REACTORS
330
2A2
102
}
330
2A2
100
AcDbXrecord
340
0
  0
XRECORD
  5
2C2
102
{ACAD_REACTORS
330
2A2
102
}
330
2A2
100
AcDbXrecord
 10
0.0
 20
0.0
 30
0.0
  0
XRECORD
  5
2BE
102
{ACAD_REACTORS
330
2A2
102
}
330
2A2
100
AcDbXrecord
 10
0.0
 20
0.0
 30
0.0
  0
XRECORD
  5
2C1
102
{ACAD_REACTORS
330
2A2
102
}
330
2A2
100
AcDbXrecord
 10
0.0
 20
0.0
 30
0.0
  0
XRECORD
  5
2BF
102
{ACAD_REACTORS
330
2A2
102
}
330
2A2
100
AcDbXrecord
 10
0.0
 20
0.0
 30
0.0
  0
XRECORD
  5
2C0
102
{ACAD_REACTORS
330
2A2
102
}
330
2A2
100
AcDbXrecord
 10
0.0
 20
0.0
 30
0.0
  0
XRECORD
  5
2BD
102
{ACAD_REACTORS
330
2A2
102
}
330
2A2
100
AcDbXrecord
 10
0.0
 20
0.0
 30
0.0
  0
XRECORD
  5
2BA
102
{ACAD_REACTORS
330
2A2
102
}
330
2A2
100
AcDbXrecord
340
0
  0
XRECORD
  5
2BB
102
{ACAD_REACTORS
330
2A2
102
}
330
2A2
100
AcDbXrecord
 70
     0
  0
XRECORD
  5
2AE
102
{ACAD_REACTORS
330
2A2
102
}
330
2A2
100
AcDbXrecord
  1
{D227E421-B968-4B84-A4AB-326A0A192E79}
  0
DICTIONARYVAR
  5
2A0
102
{ACAD_REACTORS
330
29F
102
}
330
29F
100
DictionaryVariables
280
     0
  1
1
  0
ENDSEC
  0
EOF
