  0
SECTION
  2
HEADER
  9
$ACADVER
  1
AC1014
  9
$ACADMAINTVER
 70
     9
  9
$DWGCODEPAGE
  3
ANSI_1250
  9
$INSBASE
 10
0.0
 20
0.0
 30
0.0
  9
$EXTMIN
 10
-4.023523785298895E+99
 20
-7.655286644713751E+99
 30
0.0
  9
$EXTMAX
 10
9.850501603219207E+99
 20
8.739895363814719E+99
 30
0.0
  9
$LIMMIN
 10
0.0
 20
0.0
  9
$LIMMAX
 10
0.0
 20
0.0
  9
$ORTHOMODE
 70
     1
  9
$REGENMODE
 70
     1
  9
$FILLMODE
 70
     1
  9
$QTEXTMODE
 70
     0
  9
$MIRRTEXT
 70
     1
  9
$DRAGMODE
 70
     2
  9
$LTSCALE
 40
1.0
  9
$OSMODE
 70
  3007
  9
$ATTMODE
 70
     1
  9
$TEXTSIZE
 40
2.5
  9
$TRACEWID
 40
1.0
  9
$TEXTSTYLE
  7
STANDARD
  9
$CLAYER
  8
0
  9
$CELTYPE
  6
BYLAYER
  9
$CECOLOR
 62
   256
  9
$CELTSCALE
 40
1.0
  9
$DELOBJ
 70
     1
  9
$DISPSILH
 70
     0
  9
$DIMSCALE
 40
1.0
  9
$DIMASZ
 40
0.3
  9
$DIMEXO
 40
0.1
  9
$DIMDLI
 40
3.75
  9
$DIMRND
 40
0.0
  9
$DIMDLE
 40
0.0
  9
$DIMEXE
 40
0.1
  9
$DIMTP
 40
0.0
  9
$DIMTM
 40
0.0
  9
$DIMTXT
 40
0.2822222222222222
  9
$DIMCEN
 40
2.5
  9
$DIMTSZ
 40
0.0
  9
$DIMTOL
 70
     0
  9
$DIMLIM
 70
     0
  9
$DIMTIH
 70
     1
  9
$DIMTOH
 70
     1
  9
$DIMSE1
 70
     0
  9
$DIMSE2
 70
     0
  9
$DIMTAD
 70
     1
  9
$DIMZIN
 70
     0
  9
$DIMBLK
  1

  9
$DIMASO
 70
     1
  9
$DIMSHO
 70
     1
  9
$DIMPOST
  1

  9
$DIMAPOST
  1

  9
$DIMALT
 70
     0
  9
$DIMALTD
 70
     3
  9
$DIMALTF
 40
0.3937007874015748
  9
$DIMLFAC
 40
15.0
  9
$DIMTOFL
 70
     1
  9
$DIMTVP
 40
0.0
  9
$DIMTIX
 70
     0
  9
$DIMSOXD
 70
     0
  9
$DIMSAH
 70
     0
  9
$DIMBLK1
  1

  9
$DIMBLK2
  1

  9
$DIMSTYLE
  2
ISO-25
  9
$DIMCLRD
 70
     0
  9
$DIMCLRE
 70
     0
  9
$DIMCLRT
 70
     0
  9
$DIMTFAC
 40
1.0
  9
$DIMGAP
 40
0.1524
  9
$DIMJUST
 70
     0
  9
$DIMSD1
 70
     0
  9
$DIMSD2
 70
     0
  9
$DIMTOLJ
 70
     0
  9
$DIMTZIN
 70
     0
  9
$DIMALTZ
 70
     0
  9
$DIMALTTZ
 70
     0
  9
$DIMFIT
 70
     3
  9
$DIMUPT
 70
     0
  9
$DIMUNIT
 70
     2
  9
$DIMDEC
 70
     2
  9
$DIMTDEC
 70
     2
  9
$DIMALTU
 70
     2
  9
$DIMALTTD
 70
     3
  9
$DIMTXSTY
  7
STANDARD
  9
$DIMAUNIT
 70
     0
  9
$LUNITS
 70
     2
  9
$LUPREC
 70
     1
  9
$SKETCHINC
 40
1.0
  9
$FILLETRAD
 40
10.0
  9
$AUNITS
 70
     0
  9
$AUPREC
 70
     0
  9
$MENU
  1
.
  9
$ELEVATION
 40
0.0
  9
$PELEVATION
 40
0.0
  9
$THICKNESS
 40
0.0
  9
$LIMCHECK
 70
     0
  9
$BLIPMODE
 70
     0
  9
$CHAMFERA
 40
10.0
  9
$CHAMFERB
 40
10.0
  9
$CHAMFERC
 40
20.0
  9
$CHAMFERD
 40
0.0
  9
$SKPOLY
 70
     0
  9
$TDCREATE
 40
2453964.652039629
  9
$TDUPDATE
 40
2453966.372398726
  9
$TDINDWG
 40
0.0136178009
  9
$TDUSRTIMER
 40
0.0136178009
  9
$USRTIMER
 70
     1
  9
$ANGBASE
 50
0.0
  9
$ANGDIR
 70
     0
  9
$PDMODE
 70
     0
  9
$PDSIZE
 40
-1.0
  9
$PLINEWID
 40
0.0
  9
$COORDS
 70
     2
  9
$SPLFRAME
 70
     0
  9
$SPLINETYPE
 70
     6
  9
$SPLINESEGS
 70
     8
  9
$ATTDIA
 70
     0
  9
$ATTREQ
 70
     1
  9
$HANDLING
 70
 22529
  9
$HANDSEED
  5
225
  9
$SURFTAB1
 70
     6
  9
$SURFTAB2
 70
     6
  9
$SURFTYPE
 70
     6
  9
$SURFU
 70
     6
  9
$SURFV
 70
     6
  9
$UCSNAME
  2

  9
$UCSORG
 10
0.0
 20
0.0
 30
0.0
  9
$UCSXDIR
 10
1.0
 20
0.0
 30
0.0
  9
$UCSYDIR
 10
0.0
 20
1.0
 30
0.0
  9
$PUCSNAME
  2

  9
$PUCSORG
 10
0.0
 20
0.0
 30
0.0
  9
$PUCSXDIR
 10
1.0
 20
0.0
 30
0.0
  9
$PUCSYDIR
 10
0.0
 20
1.0
 30
0.0
  9
$USERI1
 70
     0
  9
$USERI2
 70
     0
  9
$USERI3
 70
     0
  9
$USERI4
 70
     0
  9
$USERI5
 70
     0
  9
$USERR1
 40
0.0
  9
$USERR2
 40
0.0
  9
$USERR3
 40
0.0
  9
$USERR4
 40
0.0
  9
$USERR5
 40
0.0
  9
$WORLDVIEW
 70
     1
  9
$SHADEDGE
 70
     3
  9
$SHADEDIF
 70
    70
  9
$TILEMODE
 70
     1
  9
$MAXACTVP
 70
    48
  9
$PINSBASE
 10
0.0
 20
0.0
 30
0.0
  9
$PLIMCHECK
 70
     0
  9
$PEXTMIN
 10
1.000000000000000E+20
 20
1.000000000000000E+20
 30
1.000000000000000E+20
  9
$PEXTMAX
 10
-1.000000000000000E+20
 20
-1.000000000000000E+20
 30
-1.000000000000000E+20
  9
$PLIMMIN
 10
0.0
 20
0.0
  9
$PLIMMAX
 10
420.0
 20
297.0
  9
$UNITMODE
 70
     0
  9
$VISRETAIN
 70
     1
  9
$PLINEGEN
 70
     0
  9
$PSLTSCALE
 70
     1
  9
$TREEDEPTH
 70
  3020
  9
$PICKSTYLE
 70
     1
  9
$CMLSTYLE
  2
STANDARD
  9
$CMLJUST
 70
     0
  9
$CMLSCALE
 40
20.0
  9
$PROXYGRAPHICS
 70
     1
  9
$MEASUREMENT
 70
     1
  0
ENDSEC
  0
SECTION
  2
CLASSES
  0
CLASS
  1
ACDBDICTIONARYWDFLT
  2
AcDbDictionaryWithDefault
  3
AutoCAD 2000
 90
        0
280
     0
281
     0
  0
CLASS
  1
ACDBPLACEHOLDER
  2
AcDbPlaceHolder
  3
AutoCAD 2000
 90
        0
280
     0
281
     0
  0
CLASS
  1
LAYOUT
  2
AcDbLayout
  3
AutoCAD 2000
 90
        0
280
     0
281
     0
  0
CLASS
  1
DICTIONARYVAR
  2
AcDbDictionaryVar
  3
AutoCAD 2000
 90
        0
280
     0
281
     0
  0
CLASS
  1
LONG_TRANSACTION
  2
AcDbLongTransaction
  3
AutoCAD 2000
 90
        0
280
     0
281
     0
  0
CLASS
  1
LWPOLYLINE
  2
AcDbPolyline
  3
AutoCAD 2000
 90
        0
280
     0
281
     1
  0
CLASS
  1
HATCH
  2
AcDbHatch
  3
AutoCAD 2000
 90
        0
280
     0
281
     1
  0
CLASS
  1
XRECORD
  2
AcDbXrecord
  3
AutoCAD 2000
 90
        0
280
     0
281
     0
  0
CLASS
  1
LONG_TRANSACTION
  2
AcDbLongTransaction
  3
AutoCAD 2000
 90
        0
280
     0
281
     0
  0
CLASS
  1
LWPOLYLINE
  2
AcDbPolyline
  3
AutoCAD 2000
 90
        0
280
     0
281
     1
  0
CLASS
  1
HATCH
  2
AcDbHatch
  3
AutoCAD 2000
 90
        0
280
     0
281
     1
  0
CLASS
  1
XRECORD
  2
AcDbXrecord
  3
AutoCAD 2000
 90
        0
280
     0
281
     0
  0
CLASS
  1
LONG_TRANSACTION
  2
AcDbLongTransaction
  3
AutoCAD 2000
 90
        0
280
     0
281
     0
  0
CLASS
  1
LWPOLYLINE
  2
AcDbPolyline
  3
AutoCAD 2000
 90
        0
280
     0
281
     1
  0
CLASS
  1
HATCH
  2
AcDbHatch
  3
AutoCAD 2000
 90
        0
280
     0
281
     1
  0
CLASS
  1
XRECORD
  2
AcDbXrecord
  3
AutoCAD 2000
 90
        0
280
     0
281
     0
  0
CLASS
  1
LONG_TRANSACTION
  2
AcDbLongTransaction
  3
AutoCAD 2000
 90
        0
280
     0
281
     0
  0
CLASS
  1
LWPOLYLINE
  2
AcDbPolyline
  3
AutoCAD 2000
 90
        0
280
     0
281
     1
  0
CLASS
  1
HATCH
  2
AcDbHatch
  3
AutoCAD 2000
 90
        0
280
     0
281
     1
  0
CLASS
  1
XRECORD
  2
AcDbXrecord
  3
AutoCAD 2000
 90
        0
280
     0
281
     0
  0
ENDSEC
  0
SECTION
  2
TABLES
  0
TABLE
  2
VPORT
  5
8
330
0
100
AcDbSymbolTable
 70
     2
  0
VPORT
  5
200
330
8
100
AcDbSymbolTableRecord
100
AcDbViewportTableRecord
  2
*ACTIVE
 70
     0
 10
0.0
 20
0.0
 11
1.0
 21
1.0
 12
10.21772902044176
 22
11.1645943115418
 13
0.0
 23
0.0
 14
10.0
 24
10.0
 15
10.0
 25
10.0
 16
0.0
 26
0.0
 36
1.0
 17
0.0
 27
0.0
 37
0.0
 40
12.89858593856244
 41
1.674961119751166
 42
50.0
 43
0.0
 44
0.0
 50
0.0
 51
0.0
 71
     0
 72
  2000
 73
     1
 74
     3
 75
     0
 76
     0
 77
     0
 78
     0
  0
ENDTAB
  0
TABLE
  2
LTYPE
  5
5
330
0
100
AcDbSymbolTable
 70
     1
  0
LTYPE
  5
14
330
5
100
AcDbSymbolTableRecord
100
AcDbLinetypeTableRecord
  2
BYBLOCK
 70
     0
  3

 72
    65
 73
     0
 40
0.0
  0
LTYPE
  5
15
330
5
100
AcDbSymbolTableRecord
100
AcDbLinetypeTableRecord
  2
BYLAYER
 70
     0
  3

 72
    65
 73
     0
 40
0.0
  0
LTYPE
  5
16
330
5
100
AcDbSymbolTableRecord
100
AcDbLinetypeTableRecord
  2
CONTINUOUS
 70
     0
  3
Solid line
 72
    65
 73
     0
 40
0.0
  0
ENDTAB
  0
TABLE
  2
LAYER
  5
2
330
0
100
AcDbSymbolTable
 70
     1
  0
LAYER
  5
10
330
2
100
AcDbSymbolTableRecord
100
AcDbLayerTableRecord
  2
0
 70
     0
 62
     7
  6
CONTINUOUS
  0
ENDTAB
  0
TABLE
  2
STYLE
  5
3
330
0
100
AcDbSymbolTable
 70
     1
  0
STYLE
  5
11
330
3
100
AcDbSymbolTableRecord
100
AcDbTextStyleTableRecord
  2
STANDARD
 70
     0
 40
0.0
 41
1.0
 50
0.0
 71
     0
 42
2.5
  3
ARIAL.TTF
  4

1001
ACAD
1000
Arial
1071
       34
  0
ENDTAB
  0
TABLE
  2
VIEW
  5
6
330
0
100
AcDbSymbolTable
 70
     0
  0
ENDTAB
  0
TABLE
  2
UCS
  5
7
330
0
100
AcDbSymbolTable
 70
     0
  0
ENDTAB
  0
TABLE
  2
APPID
  5
9
330
0
100
AcDbSymbolTable
 70
     1
  0
APPID
  5
12
330
9
100
AcDbSymbolTableRecord
100
AcDbRegAppTableRecord
  2
ACAD
 70
     0
  0
ENDTAB
  0
TABLE
  2
DIMSTYLE
  5
A
330
0
100
AcDbSymbolTable
 70
     1
  0
DIMSTYLE
105
27
330
A
100
AcDbSymbolTableRecord
100
AcDbDimStyleTableRecord
  2
ISO-25
 70
     0
  3

  4

  5

  6

  7

 40
1.0
 41
2.5
 42
0.625
 43
3.75
 44
1.25
 45
0.0
 46
0.0
 47
0.0
 48
0.0
140
2.5
141
2.5
142
0.0
143
0.03937007874016
144
1.0
145
0.0
146
1.0
147
0.625
 71
     0
 72
     0
 73
     0
 74
     0
 75
     0
 76
     0
 77
     1
 78
     8
170
     0
171
     3
172
     1
173
     0
174
     0
175
     0
176
     0
177
     0
178
     0
270
     2
271
     2
272
     2
273
     2
274
     3
340
11
275
     0
280
     0
281
     0
282
     0
283
     0
284
     8
285
     0
286
     0
287
     3
288
     0
  0
ENDTAB
  0
TABLE
  2
BLOCK_RECORD
  5
1
330
0
100
AcDbSymbolTable
 70
     1
  0
BLOCK_RECORD
  5
1F
102
{ACAD_XDICTIONARY
360
10A
102
}
330
1
100
AcDbSymbolTableRecord
100
AcDbBlockTableRecord
  2
*MODEL_SPACE
  0
BLOCK_RECORD
  5
1B
102
{ACAD_XDICTIONARY
360
10C
102
}
330
1
100
AcDbSymbolTableRecord
100
AcDbBlockTableRecord
  2
*PAPER_SPACE
  0
ENDTAB
  0
ENDSEC
  0
SECTION
  2
BLOCKS
  0
BLOCK
  5
20
330
1F
100
AcDbEntity
  8
0
100
AcDbBlockBegin
  2
*MODEL_SPACE
 70
     0
 10
0.0
 20
0.0
 30
0.0
  3
*MODEL_SPACE
  1

  0
ENDBLK
  5
21
330
1F
100
AcDbEntity
  8
0
100
AcDbBlockEnd
  0
BLOCK
  5
1C
330
1B
100
AcDbEntity
 67
     1
  8
0
100
AcDbBlockBegin
  2
*PAPER_SPACE
 70
     0
 10
0.0
 20
0.0
 30
0.0
  3
*PAPER_SPACE
  1

  0
ENDBLK
  5
1D
330
1B
100
AcDbEntity
 67
     1
  8
0
100
AcDbBlockEnd
  0
ENDSEC
  0
SECTION
  2
ENTITIES
  0
LINE
  5
A0
330
1F
100
AcDbEntity
  8
0
  6
CONTINUOUS
 62
     7
100
AcDbLine
 10
4.054698615523182
 20
5.444871218931313
 30
0.0
 11
7.989144912386811
 21
5.366182292994039
 31
0.0
  0
LINE
  5
A1
330
1F
100
AcDbEntity
  8
0
  6
CONTINUOUS
 62
     7
100
AcDbLine
 10
8.812498365123996
 20
5.366182292994039
 30
0.0
 11
12.74694466198763
 21
5.444871218931313
 31
0.0
  0
ARC
  5
A2
330
1F
100
AcDbEntity
  8
0
  6
CONTINUOUS
 62
     7
100
AcDbCircle
 10
8.814631271918619
 20
5.259536953262839
 30
0.0
 40
0.1066666666666666
100
AcDbArc
 50
91.14576283817168
 51
126.2391284063512
  0
ARC
  5
A3
330
1F
100
AcDbEntity
  8
0
  6
CONTINUOUS
 62
     7
100
AcDbCircle
 10
7.987012005592186
 20
5.259536953262839
 30
0.0
 40
0.1066666666666668
100
AcDbArc
 50
53.76087159364765
 51
88.85423716182785
  0
ARC
  5
A4
330
1F
100
AcDbEntity
  8
0
  6
CONTINUOUS
 62
     7
100
AcDbCircle
 10
8.400821638755404
 20
5.824126704765045
 30
0.0
 40
0.5933333333333323
100
AcDbArc
 50
286.9858085778604
 51
306.2391284063528
  0
ARC
  5
A5
330
1F
100
AcDbEntity
  8
0
  6
CONTINUOUS
 62
     7
100
AcDbCircle
 10
8.400821638755404
 20
5.824126704765045
 30
0.0
 40
0.5933333333333345
100
AcDbArc
 50
233.7608715936484
 51
253.014191422141
  0
LINE
  5
A6
330
1F
100
AcDbEntity
  8
0
  6
CONTINUOUS
 62
     7
100
AcDbLine
 10
2.067488305422071
 20
8.28462075793344
 30
0.0
 11
2.06748830542207
 21
8.517954091266775
 31
0.0
  0
LINE
  5
A7
330
1F
100
AcDbEntity
  8
0
  6
CONTINUOUS
 62
     7
100
AcDbLine
 10
2.06748830542207
 20
8.517954091266775
 30
0.0
 11
14.73415497208873
 21
8.517954091266775
 31
0.0
  0
LINE
  5
A8
330
1F
100
AcDbEntity
  8
0
  6
CONTINUOUS
 62
     7
100
AcDbLine
 10
14.73415497208873
 20
8.28462075793344
 30
0.0
 11
2.067488305422071
 21
8.28462075793344
 31
0.0
  0
LINE
  5
A9
330
1F
100
AcDbEntity
  8
0
  6
CONTINUOUS
 62
     7
100
AcDbLine
 10
14.73415497208873
 20
8.28462075793344
 30
0.0
 11
14.73415497208873
 21
8.517954091266775
 31
0.0
  0
LWPOLYLINE
  5
AA
330
1F
100
AcDbEntity
  8
0
  6
CONTINUOUS
 62
     7
100
AcDbPolyline
 90
       47
 70
   128
 43
0.0
 10
12.74694466198762
 20
5.444871218931313
 10
12.74587058499693
 20
5.444859137297748
 10
12.7426559076194
 20
5.44482295821413
 10
12.73731196024689
 20
5.444762780406062
 10
12.72985007327127
 20
5.444678702599152
 10
12.72028157708436
 20
5.444570823519009
 10
12.70823152748919
 20
5.444434864355936
 10
12.69396179028171
 20
5.444273665575625
 10
12.67750523939996
 20
5.444087475157441
 10
12.65889474878197
 20
5.443876541080752
 10
12.63816319236581
 20
5.443641111324923
 10
12.61599840722085
 20
5.443388877679863
 10
12.59185152292098
 20
5.443113419878983
 10
12.56576794154079
 20
5.442815047461267
 10
12.53779306515488
 20
5.442494069965703
 10
12.50797229583782
 20
5.442150796931274
 10
12.47538496951552
 20
5.441774330498354
 10
12.44086615608413
 20
5.441373942098422
 10
12.40447968509459
 20
5.440950040803596
 10
12.36628938609786
 20
5.440503035685995
 10
12.32635908864488
 20
5.440033335817737
 10
12.28540510804614
 20
5.439549078761236
 10
12.24279469509471
 20
5.439042453376321
 10
12.19860073116475
 20
5.43851391690064
 10
12.15289609763043
 20
5.437963926571837
 10
12.1057536758659
 20
5.437392939627562
 10
12.05577283247503
 20
5.436783356100666
 10
12.00429766878247
 20
5.436150857900386
 10
11.95141928245327
 20
5.435496013932445
 10
11.89722877115249
 20
5.434819393102563
 10
11.84181723254519
 20
5.434121564316466
 10
11.78638943696361
 20
5.43341730557324
 10
11.72982130664637
 20
5.432691934250671
 10
11.67220811147812
 20
5.431946067764079
 10
11.61364512134352
 20
5.431180323528789
 10
11.55422760612723
 20
5.430395318960124
 10
11.49219640548406
 20
5.429566761239749
 10
11.42929445514239
 20
5.428716814170159
 10
11.3656338962003
 20
5.427846232588057
 10
11.30132686975586
 20
5.426955771330157
 10
11.23648551690715
 20
5.426046185233166
 10
11.16711402852726
 20
5.425059429970991
 10
11.09723305542755
 20
5.424050557464052
 10
11.02698273383394
 20
5.423020556540804
 10
10.95555756662214
 20
5.421956248849222
 10
10.88390040403876
 20
5.420870329778384
 10
10.8121598918791
 20
5.419763967515322
  0
ARC
  5
AB
330
1F
100
AcDbEntity
  8
0
  6
CONTINUOUS
 62
     7
100
AcDbCircle
 10
17.09106639629062
 20
3.722163839858786
 30
0.0
 40
6.504641395367771
100
AcDbArc
 50
139.5417694911678
 51
164.8612738710557
  0
LINE
  5
AC
330
1F
100
AcDbEntity
  8
0
  6
CONTINUOUS
 62
     7
100
AcDbLine
 10
12.1480521244372
 20
7.941136315345096
 30
0.0
 11
12.14181991876444
 21
7.942983545440464
 31
0.0
  0
LWPOLYLINE
  5
AD
330
1F
100
AcDbEntity
  8
0
  6
CONTINUOUS
 62
     7
100
AcDbPolyline
 90
       29
 70
   128
 43
0.0
 10
13.54746630466082
 20
7.883873660802036
 10
13.52106336341574
 20
7.885178022342853
 10
13.49240029066095
 20
7.88660229434446
 10
13.46154727744294
 20
7.888138777423338
 10
13.42857451480822
 20
7.889779772195971
 10
13.39355219380331
 20
7.891517579278842
 10
13.35655050547469
 20
7.893344499288435
 10
13.31703766889238
 20
7.895285202303427
 10
13.27554721605018
 20
7.89731452676118
 10
13.23215208691444
 20
7.899428547873312
 10
13.18692522145151
 20
7.901623340851446
 10
13.13993955962775
 20
7.903894980907201
 10
13.09126804140951
 20
7.906239543252198
 10
13.04005736703963
 20
7.908698311221757
 10
12.9871360958066
 20
7.911225521395857
 10
12.93257111076235
 20
7.913808277477442
 10
12.87642929495881
 20
7.916433683169452
 10
12.81877753144793
 20
7.919088842174828
 10
12.75968270328162
 20
7.921760858196513
 10
12.69863910234415
 20
7.924467772781946
 10
12.63612163600498
 20
7.927152661922748
 10
12.5721832325849
 20
7.929756638249127
 10
12.50687682040468
 20
7.932220814391294
 10
12.44025532778511
 20
7.934486302979461
 10
12.37237168304694
 20
7.936494216643839
 10
12.29893844924666
 20
7.938328566481159
 10
12.22413409917484
 20
7.939878466487806
 10
12.14805247766108
 20
7.941136310235819
 10
12.1480521244372
 20
7.941136315345096
  0
ARC
  5
AE
330
1F
100
AcDbEntity
  8
0
  6
CONTINUOUS
 62
     7
100
AcDbCircle
 10
13.33761655240369
 20
3.27886455968684
 30
0.0
 40
4.609788036328375
100
AcDbArc
 50
85.79258910066991
 51
87.39084277631624
  0
ARC
  5
AF
330
1F
100
AcDbEntity
  8
0
  6
CONTINUOUS
 62
     7
100
AcDbCircle
 10
28.70808025648392
 20
0.7399640784336179
 30
0.0
 40
16.64013234663866
100
AcDbArc
 50
154.6051192692829
 51
163.575920522559
  0
LWPOLYLINE
  5
B0
330
1F
100
AcDbEntity
  8
0
  6
CONTINUOUS
 62
     7
100
AcDbPolyline
 90
       76
 70
   128
 43
0.0
 10
8.275738627033389
 20
8.28462075793344
 10
8.273492409254764
 20
8.282272628108247
 10
8.266289584944832
 20
8.274092818420633
 10
8.259628473733343
 20
8.265479938396493
 10
8.253535897564153
 20
8.256468669063822
 10
8.248036389091154
 20
8.247095295623751
 10
8.243152092893952
 20
8.237397561342852
 10
8.23890267630945
 20
8.227414515574317
 10
8.235305250238429
 20
8.217186356520002
 10
8.232374300245989
 20
8.206754269366454
 10
8.230121628233288
 20
8.196160260446701
 10
8.228556304915452
 20
8.185446988095572
 10
8.227684633297014
 20
8.174657590879643
 10
8.227510123291931
 20
8.163835513893454
 10
8.228033477590399
 20
8.153024333821441
 10
8.229252588829375
 20
8.142267583470017
 10
8.231162548078174
 20
8.131608576476317
 10
8.233755664605013
 20
8.121090232899478
 10
8.237021496844858
 20
8.110754906396696
 10
8.240946894443942
 20
8.100644213680011
 10
8.24551605121157
 20
8.090798866940488
 10
8.2507105687661
 20
8.08125850991459
 10
8.256509530618709
 20
8.072061558252855
 10
8.262889586396724
 20
8.063245044833614
 10
8.269825045867332
 20
8.054844470644676
 10
8.277287982383068
 20
8.046893661833367
 10
8.285248345332579
 20
8.039424633500583
 10
8.293674081143832
 20
8.032467460787275
 10
8.302531262352523
 20
8.026050157772464
 10
8.311784224216014
 20
8.020198564670447
 10
8.321395708322652
 20
8.014936243781365
 10
8.331327012618256
 20
8.010284384614127
 10
8.341538147245621
 20
8.006261718563763
 10
8.351987995569556
 20
8.002884443486678
 10
8.362634479739071
 20
8.00016615847762
 10
8.373434730120022
 20
7.99811780911092
 10
8.384345257916013
 20
7.996747643366525
 10
8.395322130282407
 20
7.996061178418295
 10
8.406321147228403
 20
7.996061178418295
 10
8.417298019594795
 20
7.996747643366525
 10
8.428208547390784
 20
7.99811780911092
 10
8.439008797771737
 20
8.00016615847762
 10
8.449655281941252
 20
8.002884443486678
 10
8.460105130265187
 20
8.006261718563763
 10
8.47031626489255
 20
8.010284384614129
 10
8.480247569188156
 20
8.014936243781365
 10
8.489859053294795
 20
8.020198564670449
 10
8.499112015158285
 20
8.026050157772464
 10
8.507969196366977
 20
8.032467460787277
 10
8.516394932178229
 20
8.039424633500585
 10
8.524355295127742
 20
8.046893661833369
 10
8.531818231643475
 20
8.054844470644678
 10
8.538753691114083
 20
8.063245044833616
 10
8.545133746892098
 20
8.072061558252856
 10
8.550932708744706
 20
8.081258509914592
 10
8.556127226299237
 20
8.090798866940488
 10
8.560696383066867
 20
8.100644213680013
 10
8.564621780665946
 20
8.110754906396696
 10
8.567887612905794
 20
8.121090232899479
 10
8.570480729432633
 20
8.131608576476319
 10
8.572390688681434
 20
8.142267583470019
 10
8.573609799920408
 20
8.153024333821443
 10
8.574133154218877
 20
8.163835513893456
 10
8.57395864421379
 20
8.174657590879647
 10
8.573086972595355
 20
8.185446988095575
 10
8.571521649277521
 20
8.196160260446703
 10
8.569268977264817
 20
8.206754269366456
 10
8.566338027272376
 20
8.217186356520004
 10
8.562740601201355
 20
8.227414515574318
 10
8.558491184616853
 20
8.237397561342854
 10
8.55360688841965
 20
8.247095295623754
 10
8.548107379946651
 20
8.256468669063824
 10
8.542014803777462
 20
8.265479938396493
 10
8.535353692565973
 20
8.274092818420635
 10
8.528150868256043
 20
8.28227262810825
 10
8.525904650477416
 20
8.28462075793344
  0
LWPOLYLINE
  5
B1
330
1F
100
AcDbEntity
  8
0
  6
CONTINUOUS
 62
     7
100
AcDbPolyline
 90
       13
 70
   128
 43
0.0
 10
12.14181991876443
 20
7.942983545440456
 10
12.1709695820318
 20
7.975468805361229
 10
12.20173635369801
 20
8.006554662913911
 10
12.23390372891753
 20
8.036295368185484
 10
12.26725520284486
 20
8.064745171262932
 10
12.30157427063447
 20
8.09195832223324
 10
12.34731728302536
 20
8.125521627055011
 10
12.39441750122989
 20
8.157287543396122
 10
12.44268942844375
 20
8.187321739245716
 10
12.49194756786259
 20
8.215689882592929
 10
12.55157149806042
 20
8.24733552667068
 10
12.61236913910563
 20
8.276867775538477
 10
12.62982846015936
 20
8.28462075793344
  0
LWPOLYLINE
  5
B2
330
1F
100
AcDbEntity
  8
0
  6
CONTINUOUS
 62
     7
100
AcDbPolyline
 90
       11
 70
   128
 43
0.0
 10
5.989483385631821
 20
5.419763967515319
 10
6.50460615582278
 20
5.412065970569134
 10
7.019744032346059
 20
5.405403102681177
 10
7.534898202366144
 20
5.40025450372047
 10
8.050128731760896
 20
5.397250345629828
 10
8.56537108539339
 20
5.396759322449518
 10
9.080605696180112
 20
5.398866992395011
 10
9.513507063900055
 20
5.402508731803918
 10
9.946395849048888
 20
5.407419638014472
 10
10.37928276000909
 20
5.413255664556402
 10
10.8121598918791
 20
5.419763967515322
  0
ARC
  5
B3
330
1F
100
AcDbEntity
  8
0
  6
CONTINUOUS
 62
     7
100
AcDbCircle
 10
-0.2894231187814098
 20
3.722163839857783
 30
0.0
 40
6.504641395369636
100
AcDbArc
 50
15.13872612894676
 51
40.45823050882979
  0
LWPOLYLINE
  5
B4
330
1F
100
AcDbEntity
  8
0
  6
CONTINUOUS
 62
     7
100
AcDbPolyline
 90
       13
 70
   128
 43
0.0
 10
4.172228755603678
 20
8.28462075793344
 10
4.226353536897028
 20
8.259149876298913
 10
4.282763963815821
 20
8.230337522513691
 10
4.338153515249582
 20
8.199580821549695
 10
4.392323944862072
 20
8.166809846398029
 10
4.445077006317052
 20
8.131954670049799
 10
4.483706340565362
 20
8.104300397300727
 10
4.521330462727251
 20
8.075314069752305
 10
4.557785541468637
 20
8.044945035492851
 10
4.58468994475738
 20
8.020846062457437
 10
4.610764932001202
 20
7.995845314346583
 10
4.635859678298174
 20
7.969904054295769
 10
4.659823358746375
 20
7.942983545440464
  0
LWPOLYLINE
  5
B5
330
1F
100
AcDbEntity
  8
0
  6
CONTINUOUS
 62
     7
100
AcDbPolyline
 90
       47
 70
   128
 43
0.0
 10
5.989483385631821
 20
5.419763967515319
 10
5.925159787370339
 20
5.420756837072778
 10
5.86086155359241
 20
5.421733797559573
 10
5.796695556725472
 20
5.422694024410862
 10
5.732768669196956
 20
5.423636693061804
 10
5.669187763434294
 20
5.424560978947559
 10
5.60413518161414
 20
5.425493512261312
 10
5.539486567000913
 20
5.426407690166293
 10
5.475353380450623
 20
5.427302745069572
 10
5.411847082819272
 20
5.428177909378223
 10
5.349079134962867
 20
5.429032415499319
 10
5.288818721802441
 20
5.429843334041824
 10
5.229288188337695
 20
5.430635686216827
 10
5.170582921652176
 20
5.431408850368676
 10
5.112798308829429
 20
5.432162204841724
 10
5.056029736953004
 20
5.432895127980326
 10
4.998715655701966
 20
5.433628099226755
 10
4.942509023405912
 20
5.434340302550426
 10
4.887504291597388
 20
5.435031141395329
 10
4.833795911808937
 20
5.435700019205454
 10
4.7814783355731
 20
5.436346339424795
 10
4.731622004296517
 20
5.436957592815207
 10
4.6831262538826
 20
5.437547927112451
 10
4.63606876124525
 20
5.438116863252245
 10
4.590527203298361
 20
5.438663922170314
 10
4.546579256955831
 20
5.439188624802378
 10
4.503040220281552
 20
5.439705430472842
 10
4.461216291368468
 20
5.440199112205838
 10
4.421179855064703
 20
5.440669202154498
 10
4.383003296218383
 20
5.441115232471959
 10
4.346758999677629
 20
5.441536735311358
 10
4.313381657020683
 20
5.441923277246273
 10
4.281854127782612
 20
5.442287000735691
 10
4.252228504137669
 20
5.442627564035711
 10
4.224556878260104
 20
5.442944625402433
 10
4.198891342324166
 20
5.443237843091957
 10
4.174578411275932
 20
5.443514894628416
 10
4.152414201420162
 20
5.443766860146457
 10
4.132439006558092
 20
5.443993444682607
 10
4.114693120490954
 20
5.444194353273389
 10
4.099216837019984
 20
5.444369290955329
 10
4.085739189894753
 20
5.444521444211834
 10
4.074661312661462
 20
5.444646359593583
 10
4.066007852238524
 20
5.444743847347339
 10
4.059733310628987
 20
5.44481451296431
 10
4.055959381218825
 20
5.44485701834603
 10
4.054698615523183
 20
5.444871218931312
  0
ARC
  5
B6
330
1F
100
AcDbEntity
  8
0
  6
CONTINUOUS
 62
     7
100
AcDbCircle
 10
-11.90643697897353
 20
0.7399640784334237
 30
0.0
 40
16.64013234663912
100
AcDbArc
 50
16.42407947744123
 51
25.39488073071693
  0
ARC
  5
B7
330
1F
100
AcDbEntity
  8
0
  6
CONTINUOUS
 62
     7
100
AcDbCircle
 10
3.466840106157242
 20
3.233860717433755
 30
0.0
 40
4.654873358294577
100
AcDbArc
 50
92.6185336829698
 51
94.201308990321
  0
LWPOLYLINE
  5
B8
330
1F
100
AcDbEntity
  8
0
  6
CONTINUOUS
 62
     7
100
AcDbPolyline
 90
       29
 70
   128
 43
0.0
 10
4.653591153073601
 20
7.941136315345096
 10
4.653590799849729
 20
7.941136310235825
 10
4.577509178335933
 20
7.939878466487812
 10
4.50270482826408
 20
7.938328566481156
 10
4.429271594463772
 20
7.93649421664382
 10
4.36138794972562
 20
7.934486302979423
 10
4.294766457106052
 20
7.932220814391242
 10
4.229460044925845
 20
7.929756638249068
 10
4.165521641505772
 20
7.927152661922693
 10
4.103004175166605
 20
7.924467772781911
 10
4.041960574229118
 20
7.921760858196511
 10
3.982865746062805
 20
7.919088842174856
 10
3.925213982551918
 20
7.916433683169489
 10
3.869072166748392
 20
7.913808277477476
 10
3.814507181704154
 20
7.911225521395875
 10
3.761585910471137
 20
7.908698311221755
 10
3.71037523610127
 20
7.906239543252178
 10
3.661703717883037
 20
7.903894980907169
 10
3.614718056059281
 20
7.901623340851411
 10
3.569491190596357
 20
7.899428547873283
 10
3.526096061460619
 20
7.897314526761157
 10
3.484605608618422
 20
7.895285202303416
 10
3.44509277203612
 20
7.893344499288436
 10
3.408091083707502
 20
7.891517579278851
 10
3.373068762702585
 20
7.889779772195984
 10
3.340096000067872
 20
7.888138777423351
 10
3.309242986849868
 20
7.88660229434447
 10
3.280579914095078
 20
7.885178022342858
 10
3.254176972850004
 20
7.883873660802036
  0
LINE
  5
B9
330
1F
100
AcDbEntity
  8
0
  6
CONTINUOUS
 62
     7
100
AcDbLine
 10
4.659823358746375
 20
7.942983545440461
 30
0.0
 11
4.653591153073601
 21
7.941136315345096
 31
0.0
  0
ARC
  5
BA
330
1F
100
AcDbEntity
  8
0
  6
CONTINUOUS
 62
     7
100
AcDbCircle
 10
8.402447905243558
 20
8.172798501349992
 30
0.0
 40
0.1720851702298958
100
AcDbArc
 50
269.4585263040844
 51
356.1177817518168
  0
ARC
  5
BB
330
1F
100
AcDbEntity
  8
0
  6
CONTINUOUS
 62
     7
100
AcDbCircle
 10
8.399315542143565
 20
8.172921168700574
 30
0.0
 40
0.1722067391920696
100
AcDbArc
 50
183.8877188161534
 51
270.501107447558
  0
ARC
  5
BC
330
1F
100
AcDbEntity
  8
0
  6
CONTINUOUS
 62
     7
100
AcDbCircle
 10
14.64544474288568
 20
7.41585457576274
 30
0.0
 40
1.073333333333335
100
AcDbArc
 50
125.9617232872284
 51
154.6051150779447
  0
ARC
  5
BD
330
1F
100
AcDbEntity
  8
0
  6
CONTINUOUS
 62
     7
100
AcDbCircle
 10
2.156198534625134
 20
7.41585457576274
 30
0.0
 40
1.073333333333333
100
AcDbArc
 50
25.39488492205487
 51
54.03827671277156
  0
LINE
  5
BE
330
1F
100
AcDbEntity
  8
0
  6
CONTINUOUS
 62
     7
100
AcDbLine
 10
8.400821638755404
 20
5.256676266400601
 30
0.0
 11
8.22748830542207
 21
5.256676266400601
 31
0.0
  0
LINE
  5
BF
330
1F
100
AcDbEntity
  8
0
  6
CONTINUOUS
 62
     7
100
AcDbLine
 10
8.574154972088736
 20
5.256676266400601
 30
0.0
 11
8.400821638755404
 21
5.256676266400601
 31
0.0
  0
ARC
  5
C0
330
1F
100
AcDbEntity
  8
0
  6
CONTINUOUS
 62
     7
100
AcDbCircle
 10
2.293055793348828
 20
7.446789418708631
 30
0.0
 40
1.055839266352648
100
AcDbArc
 50
24.45437746659085
 51
52.54798789922662
  0
ARC
  5
C1
330
1F
100
AcDbEntity
  8
0
  6
CONTINUOUS
 62
     7
100
AcDbCircle
 10
14.50858748416219
 20
7.446789418708505
 30
0.0
 40
1.055839266352891
100
AcDbArc
 50
127.4520121007773
 51
155.5456225334074
  0
LINE
  5
C2
330
1F
100
AcDbEntity
  8
0
  6
CONTINUOUS
 62
     7
100
AcDbLine
 10
8.400821638755404
 20
5.366182292994039
 30
0.0
 11
7.989144912386811
 21
5.366182292994039
 31
0.0
  0
LINE
  5
C3
330
1F
100
AcDbEntity
  8
0
  6
CONTINUOUS
 62
     7
100
AcDbLine
 10
8.812498365123996
 20
5.366182292994039
 30
0.0
 11
8.400821638755404
 21
5.366182292994039
 31
0.0
  0
LINE
  5
C4
330
1F
100
AcDbEntity
  8
0
  6
CONTINUOUS
 62
     7
100
AcDbLine
 10
8.05006871159801
 20
5.34556967730127
 30
0.0
 11
8.751574565912797
 21
5.34556967730127
 31
0.0
  0
ARC
  5
C5
330
1F
100
AcDbEntity
  8
0
  6
CONTINUOUS
 62
     7
100
AcDbCircle
 10
11.35982433729469
 20
14.35344165599028
 30
0.0
 40
3.263059998048001
100
AcDbArc
 50
0.1553166526823767
 51
19.53732799246978
  0
LINE
  5
C7
330
1F
100
AcDbEntity
  8
0
  6
CONTINUOUS
 62
     7
100
AcDbLine
 10
14.73415497208873
 20
11.36228710569015
 30
0.0
 11
14.73415497208873
 21
17.36228710569015
 31
0.0
  0
SPLINE
  5
C8
330
1F
100
AcDbEntity
  8
0
  6
CONTINUOUS
 62
     7
100
AcDbSpline
210
0.0
220
0.0
230
1.0
 70
    12
 71
     3
 72
     8
 73
     4
 74
     0
 42
0.0000000001
 43
0.0000000001
 40
0.0
 40
0.0
 40
0.0
 40
0.0
 40
1.0
 40
1.0
 40
1.0
 40
1.0
 10
-9.832392637665083E+99
 20
-5.200242853108981E+99
 30
0.0
 41
1.0
 10
-1.947553032723603E+99
 20
14.36228710308122
 30
0.0
 41
1.0
 10
-2.050055662540616E+99
 20
-2.230459147581081E+99
 30
0.0
 41
1.0
 10
-2.150956688767109E+99
 20
-2.150959816851389E+99
 30
0.0
 41
1.0
  0
ARC
  5
CA
330
1F
100
AcDbEntity
  8
0
  6
CONTINUOUS
 62
     7
100
AcDbCircle
 10
5.434593007574743
 20
14.35483733124184
 30
0.0
 40
3.25578355025404
100
AcDbArc
 50
160.4432931769338
 51
179.8688976094098
  0
ARC
  5
CB
330
1F
100
AcDbEntity
  8
0
  6
CONTINUOUS
 62
     7
100
AcDbCircle
 10
5.441746297399006
 20
14.37111714783057
 30
0.0
 40
3.262986377492309
100
AcDbArc
 50
180.1550496099368
 51
199.537499458657
  0
SPLINE
  5
CC
330
1F
100
AcDbEntity
  8
0
  6
CONTINUOUS
 62
     7
100
AcDbSpline
210
0.0
220
0.0
230
1.0
 70
    12
 71
     3
 72
     8
 73
     4
 74
     0
 42
0.0000000001
 43
0.0000000001
 40
0.0
 40
0.0
 40
0.0
 40
0.0
 40
1.0
 40
1.0
 40
1.0
 40
1.0
 10
-4.499739696009831E+99
 20
14.36228710308122
 30
0.0
 41
1.0
 10
8.400821638755413
 20
14.36228710308122
 30
0.0
 41
1.0
 10
8.400821638755413
 20
-1.041231431097781E+99
 30
0.0
 41
1.0
 10
-4.023523785298895E+99
 20
-4.480702276128785E+99
 30
0.0
 41
1.0
  0
LINE
  5
CD
330
1F
100
AcDbEntity
  8
0
  6
CONTINUOUS
 62
     7
100
AcDbLine
 10
2.06748830542207
 20
17.36228710569015
 30
0.0
 11
2.06748830542207
 21
11.36228710569015
 31
0.0
  0
ARC
  5
CF
330
1F
100
AcDbEntity
  8
0
  6
CONTINUOUS
 62
     7
100
AcDbCircle
 10
11.28861337433093
 20
14.36928339317926
 30
0.0
 40
2.363476831749057
100
AcDbArc
 50
341.1134006318237
 51
359.8303946434214
  0
ARC
  5
D3
330
1F
100
AcDbEntity
  8
0
  6
CONTINUOUS
 62
     7
100
AcDbCircle
 10
5.514507935056846
 20
14.3695330632048
 30
0.0
 40
2.364956117629085
100
AcDbArc
 50
180.1755480495295
 51
198.8807314654955
  0
ARC
  5
D6
330
1F
100
AcDbEntity
  8
0
  6
CONTINUOUS
 62
     7
100
AcDbCircle
 10
5.513060241000758
 20
14.3552849108285
 30
0.0
 40
2.363507585240725
100
AcDbArc
 50
161.1134746262955
 51
179.8302536440741
  0
ARC
  5
D7
330
1F
100
AcDbEntity
  8
0
  6
CONTINUOUS
 62
     7
100
AcDbCircle
 10
11.28710767331421
 20
14.35503582435538
 30
0.0
 40
2.364984157504976
100
AcDbArc
 50
0.1756749474180492
 51
18.88066513842944
  0
ARC
  5
D9
330
1F
100
AcDbEntity
  8
0
  6
CONTINUOUS
 62
     7
100
AcDbCircle
 10
5.804604596777795
 20
14.46999024508651
 30
0.0
 40
3.638758882326687
100
AcDbArc
 50
199.1226104425092
 51
224.9945395870178
  0
LWPOLYLINE
  5
DA
330
1F
100
AcDbEntity
  8
0
  6
CONTINUOUS
 62
     7
100
AcDbPolyline
 90
       29
 70
   128
 43
0.0
 10
4.664396689444616
 20
11.99760724506334
 10
4.664396336231277
 20
11.99760743271684
 10
4.58889237091931
 20
12.03919420861304
 10
4.514658560838022
 20
12.08303755829283
 10
4.44178831925745
 20
12.12906476245276
 10
4.374426219581324
 20
12.17440506426356
 10
4.308319510054644
 20
12.22164693625145
 10
4.243520560326261
 20
12.27071227231655
 10
4.180081740045023
 20
12.32152296635899
 10
4.11805541885978
 20
12.37400091227891
 10
4.057493966419379
 20
12.42806800397644
 10
3.998883702354786
 20
12.48324025095776
 10
3.941706609911449
 20
12.5399787699483
 10
3.886029039902423
 20
12.59822912444372
 10
3.831917343140766
 20
12.65793687793969
 10
3.779437870439536
 20
12.71904759393188
 10
3.72865697261179
 20
12.78150683591595
 10
3.680423282006567
 20
12.84421512952031
 10
3.633861752053137
 20
12.90825374259864
 10
3.589044754227048
 20
12.97356210136689
 10
3.546044660003851
 20
13.04007963204097
 10
3.504933840859095
 20
13.1077457608368
 10
3.465784668268329
 20
13.17649991397033
 10
3.429154164479401
 20
13.24533754572327
 10
3.394484130318327
 20
13.31526298626555
 10
3.361844135394222
 20
13.38619584777473
 10
3.331303749316199
 20
13.45805574242834
 10
3.302932541693374
 20
13.53076228240392
 10
3.27680008213486
 20
13.60423507987901
  0
LWPOLYLINE
  5
DB
330
1F
100
AcDbEntity
  8
0
  6
CONTINUOUS
 62
     7
100
AcDbPolyline
 90
       27
 70
   128
 43
0.0
 10
3.231368315994622
 20
11.89724438764693
 10
3.306767994574737
 20
11.89752440843067
 10
3.38213266187106
 20
11.8982648914904
 10
3.457338397682448
 20
11.89945770578849
 10
3.532261281807755
 20
11.90109472028732
 10
3.60677739404584
 20
11.90316780394925
 10
3.683005903118444
 20
11.90575048107874
 10
3.75877179512603
 20
11.90878783643312
 10
3.833941640221378
 20
11.91227725144445
 10
3.908382008557261
 20
11.9162161075448
 10
3.981959470286455
 20
11.92060178616622
 10
4.041957846295321
 20
11.9245598752139
 10
4.101297517667732
 20
11.92883482159336
 10
4.159873212267894
 20
11.93342993159366
 10
4.217579657960013
 20
11.93834851150387
 10
4.263873418741376
 20
11.94259679167202
 10
4.309520386805314
 20
11.94707473434834
 10
4.35441716835117
 20
11.95178868068893
 10
4.398460369578286
 20
11.95674497184988
 10
4.441546596686003
 20
11.96194994898729
 10
4.481689701739171
 20
11.96716007091411
 10
4.520770346520749
 20
11.97262411573231
 10
4.55861394246153
 20
11.97835162934433
 10
4.586526803255989
 20
11.982902307695
 10
4.613553243151509
 20
11.98762595947183
 10
4.639555719447809
 20
11.99252635011467
 10
4.664396689444613
 20
11.99760724506335
  0
LWPOLYLINE
  5
DC
330
1F
100
AcDbEntity
  8
0
  6
CONTINUOUS
 62
     7
100
AcDbPolyline
 90
      100
 70
   128
 43
0.0
 10
8.400821638755404
 20
11.98916259098913
 10
8.411815118162541
 20
11.9891004857637
 10
8.422764330708186
 20
11.98891442016322
 10
8.433625187777874
 20
11.98860514340821
 10
8.444353956533456
 20
11.98817390084698
 10
8.454907436009808
 20
11.98762242894114
 10
8.465243131069859
 20
11.98695294827341
 10
8.475319423517527
 20
11.98616815460615
 10
8.485095739679485
 20
11.98527120802647
 10
8.49453271378104
 20
11.98426572022167
 10
8.503592346458207
 20
11.98315573993627
 10
8.512238157767736
 20
11.98194573666911
 10
8.520435334078969
 20
11.98064058267629
 10
8.528150868256043
 20
11.97924553335229
 10
8.535353692565974
 20
11.97776620606836
 10
8.542014803777462
 20
11.97620855755335
 10
8.548107379946653
 20
11.97457885990808
 10
8.55360688841965
 20
11.97288367534977
 10
8.558491184616853
 20
11.97112982978833
 10
8.562740601201355
 20
11.96932438534083
 10
8.566338027272376
 20
11.96747461189484
 10
8.569268977264817
 20
11.96558795783515
 10
8.571521649277521
 20
11.96367202005179
 10
8.573086972595355
 20
11.96173451335
 10
8.57395864421379
 20
11.95978323938541
 10
8.574133154218875
 20
11.95782605524961
 10
8.573609799920408
 20
11.95587084183233
 10
8.572390688681432
 20
11.95392547208793
 10
8.570480729432631
 20
11.95199777933374
 10
8.567887612905792
 20
11.95009552570815
 10
8.564621780665946
 20
11.94822637091509
 10
8.560696383066865
 20
11.94639784138122
 10
8.556127226299235
 20
11.9446172999496
 10
8.550932708744705
 20
11.94289191623216
 10
8.545133746892098
 20
11.94122863774014
 10
8.538753691114081
 20
11.939634161909
 10
8.531818231643475
 20
11.93811490913015
 10
8.524355295127739
 20
11.93667699689832
 10
8.516394932178226
 20
11.93532621517856
 10
8.507969196366975
 20
11.93406800309211
 10
8.499112015158283
 20
11.93290742701496
 10
8.489859053294793
 20
11.93184916017737
 10
8.480247569188154
 20
11.93089746384636
 10
8.470316264892549
 20
11.93005617016718
 10
8.460105130265185
 20
11.92932866673254
 10
8.44965528194125
 20
11.928717882942
 10
8.439008797771736
 20
11.92822627820632
 10
8.428208547390783
 20
11.92785583204426
 10
8.417298019594793
 20
11.92760803611176
 10
8.4063211472284
 20
11.92748388819559
 10
8.395322130282403
 20
11.92748388819559
 10
8.38434525791601
 20
11.92760803611176
 10
8.37343473012002
 20
11.92785583204426
 10
8.362634479739067
 20
11.92822627820632
 10
8.351987995569555
 20
11.928717882942
 10
8.34153814724562
 20
11.92932866673254
 10
8.331327012618256
 20
11.93005617016718
 10
8.321395708322651
 20
11.93089746384636
 10
8.31178422421601
 20
11.93184916017737
 10
8.30253126235252
 20
11.93290742701496
 10
8.29367408114383
 20
11.93406800309211
 10
8.285248345332577
 20
11.93532621517856
 10
8.277287982383064
 20
11.93667699689832
 10
8.26982504586733
 20
11.93811490913015
 10
8.262889586396724
 20
11.939634161909
 10
8.256509530618707
 20
11.94122863774014
 10
8.250710568766098
 20
11.94289191623216
 10
8.24551605121157
 20
11.94461729994961
 10
8.24094689444394
 20
11.94639784138122
 10
8.237021496844858
 20
11.94822637091509
 10
8.233755664605011
 20
11.95009552570815
 10
8.231162548078172
 20
11.95199777933374
 10
8.229252588829373
 20
11.95392547208793
 10
8.228033477590399
 20
11.95587084183233
 10
8.22751012329193
 20
11.95782605524961
 10
8.227684633297013
 20
11.95978323938541
 10
8.228556304915452
 20
11.96173451335
 10
8.230121628233286
 20
11.96367202005179
 10
8.232374300245988
 20
11.96558795783515
 10
8.235305250238429
 20
11.96747461189484
 10
8.23890267630945
 20
11.96932438534083
 10
8.243152092893952
 20
11.97112982978833
 10
8.248036389091154
 20
11.97288367534977
 10
8.253535897564153
 20
11.97457885990808
 10
8.259628473733345
 20
11.97620855755335
 10
8.266289584944832
 20
11.97776620606836
 10
8.273492409254764
 20
11.97924553335229
 10
8.281207943431837
 20
11.98064058267629
 10
8.28940511974307
 20
11.98194573666911
 10
8.2980509310526
 20
11.98315573993627
 10
8.307110563729768
 20
11.98426572022168
 10
8.316547537831322
 20
11.98527120802647
 10
8.326323853993281
 20
11.98616815460615
 10
8.336400146440947
 20
11.98695294827341
 10
8.346735841501001
 20
11.98762242894114
 10
8.357289320977351
 20
11.98817390084698
 10
8.368018089732935
 20
11.98860514340821
 10
8.378878946802622
 20
11.98891442016322
 10
8.389828159348269
 20
11.9891004857637
 10
8.400821638755404
 20
11.98916259098913
  0
LWPOLYLINE
  5
DD
330
1F
100
AcDbEntity
  8
0
  6
CONTINUOUS
 62
     7
100
AcDbPolyline
 90
       24
 70
   128
 43
0.0
 10
4.664401790800951
 20
11.99760648878294
 10
4.741405394363215
 20
12.01436496508985
 10
4.816718126849751
 20
12.03137762188058
 10
4.890208118888022
 20
12.04861496152564
 10
4.9618699481108
 20
12.06607577112654
 10
5.031703614518086
 20
12.08376005068329
 10
5.098510765519409
 20
12.10134605931689
 10
5.163554462274282
 20
12.11914762809603
 10
5.226834704782706
 20
12.1371647570207
 10
5.28835149304468
 20
12.15539744609092
 10
5.351527444507442
 20
12.17492691777232
 10
5.412552599773847
 20
12.1946467352795
 10
5.471426958843894
 20
12.21455689861244
 10
5.528150521717583
 20
12.23465740777116
 10
5.582723288394913
 20
12.25494826275565
 10
5.635145258875887
 20
12.27542946356592
 10
5.685416433160502
 20
12.29610101020195
 10
5.733513893126675
 20
12.31695301661054
 10
5.781468062927474
 20
12.33894744440179
 10
5.826920851882232
 20
12.36109001199354
 10
5.869872259990948
 20
12.38338071938578
 10
5.910322287253625
 20
12.40581956657852
 10
5.948270933670257
 20
12.42840655357176
 10
5.983718199240848
 20
12.4511416803655
  0
LWPOLYLINE
  5
DE
330
1F
100
AcDbEntity
  8
0
  6
CONTINUOUS
 62
     7
100
AcDbPolyline
 90
       11
 70
   128
 43
0.0
 10
5.983718244391189
 20
12.45114171048088
 10
6.455087620191021
 20
12.45242891940836
 10
6.926469280313233
 20
12.4535668383731
 10
7.397864625098452
 20
12.45449109614998
 10
7.869316855049908
 20
12.45511679693003
 10
8.340781874982736
 20
12.45537612960154
 10
8.812245343614973
 20
12.45523054450536
 10
9.313679485644513
 20
12.45463751036649
 10
9.815097486411621
 20
12.45369494781906
 10
10.31651803045372
 20
12.45250404594131
 10
10.8179250331196
 20
12.45114171048088
  0
LWPOLYLINE
  5
DF
330
1F
100
AcDbEntity
  8
0
  6
CONTINUOUS
 62
     7
100
AcDbPolyline
 90
       24
 70
   128
 43
0.0
 10
12.13724148659281
 20
11.99760648880794
 10
12.06023788304584
 20
12.01436496511242
 10
11.98492515057421
 20
12.03137762190056
 10
11.9114351585503
 20
12.04861496154297
 10
11.83977332934126
 20
12.06607577114114
 10
11.76993966294711
 20
12.08376005069507
 10
11.70313251195808
 20
12.10134605932583
 10
11.63808881521491
 20
12.11914762810206
 10
11.57480857271759
 20
12.13716475702376
 10
11.51329178446613
 20
12.15539744609092
 10
11.4501158330026
 20
12.17492691777256
 10
11.38909067773549
 20
12.19464673527998
 10
11.33021631866478
 20
12.21455689861318
 10
11.27349275579049
 20
12.23465740777215
 10
11.21891998911261
 20
12.25494826275691
 10
11.16649801863114
 20
12.27542946356743
 10
11.11622684434608
 20
12.29610101020374
 10
11.06812938437952
 20
12.3169530166126
 10
11.02017521457838
 20
12.33894744440413
 10
10.97472242562335
 20
12.36109001199616
 10
10.93177101751441
 20
12.3833807193887
 10
10.89132099025158
 20
12.40581956658173
 10
10.85337234383485
 20
12.42840655357528
 10
10.81792507826424
 20
12.45114168036931
  0
LWPOLYLINE
  5
E0
330
1F
100
AcDbEntity
  8
0
  6
CONTINUOUS
 62
     7
100
AcDbPolyline
 90
       26
 70
   128
 43
0.0
 10
12.13724658806619
 20
11.99760724506335
 10
12.16702078480845
 20
11.99156436879025
 10
12.19842334625607
 20
11.98577412853276
 10
12.2312496471866
 20
11.98022947553366
 10
12.26529506237755
 20
11.97492336103573
 10
12.30035496660645
 20
11.96984873628174
 10
12.34711778397174
 20
11.96359166278815
 10
12.39528787291466
 20
11.95766884764137
 10
12.4446735398433
 20
11.95206839445347
 10
12.49508309116571
 20
11.94677840683652
 10
12.55557226534201
 20
11.9409279070773
 10
12.61726104656123
 20
11.93546504454431
 10
12.68000211170207
 20
11.93038375089184
 10
12.74364813764323
 20
11.92567795777421
 10
12.80805180126342
 20
11.92134159684574
 10
12.87497409599589
 20
11.91725906698388
 10
12.94263044189115
 20
11.91354905602731
 10
13.0109178624095
 20
11.91021282680569
 10
13.07973338101121
 20
11.90725164214871
 10
13.14897402115655
 20
11.90466676488605
 10
13.21822863436055
 20
11.90246988841658
 10
13.28784365086957
 20
11.90064960156155
 10
13.35772354610339
 20
11.89921147986824
 10
13.4284389592986
 20
11.89815307299562
 10
13.49932519400948
 20
11.89749493527997
 10
13.57027496151619
 20
11.89724438764693
  0
LWPOLYLINE
  5
E1
330
1F
100
AcDbEntity
  8
0
  6
CONTINUOUS
 62
     7
100
AcDbPolyline
 90
        4
 70
   128
 43
0.0
 10
13.57027496151618
 20
11.89724438764694
 10
13.1166635375462
 20
11.89748940825068
 10
12.66305020182441
 20
11.89763748978035
 10
12.52339994384097
 20
11.89764854326981
  0
LINE
  5
E2
330
1F
100
AcDbEntity
  8
0
  6
CONTINUOUS
 62
     7
100
AcDbLine
 10
12.52339994384097
 20
11.89764854326981
 30
0.0
 11
4.278243333669831
 21
11.89764854326981
 31
0.0
  0
LWPOLYLINE
  5
E3
330
1F
100
AcDbEntity
  8
0
  6
CONTINUOUS
 62
     7
100
AcDbPolyline
 90
        4
 70
   128
 43
0.0
 10
4.278243333669831
 20
11.89764854326981
 10
4.138593075686401
 20
11.89763748978035
 10
3.684980456056145
 20
11.89748940857556
 10
3.231368315994621
 20
11.89724438764694
  0
LWPOLYLINE
  5
E4
330
1F
100
AcDbEntity
  8
0
  6
CONTINUOUS
 62
     7
100
AcDbPolyline
 90
       11
 70
   128
 43
0.0
 10
10.81792502662341
 20
16.27343250088097
 10
10.34656175032672
 20
16.27214530790966
 10
9.875186190073319
 20
16.27100740020545
 10
9.403796945530865
 20
16.27008314611876
 10
8.932350818385357
 20
16.26945743745311
 10
8.46089190127167
 20
16.26919808450648
 10
7.98943453469318
 20
16.26934363885881
 10
7.487991244111984
 20
16.26993665815162
 10
6.986564095174394
 20
16.27087922402971
 10
6.485134402065552
 20
16.27207014184599
 10
5.983718250887399
 20
16.27343250088097
  0
LWPOLYLINE
  5
E5
330
1F
100
AcDbEntity
  8
0
  6
CONTINUOUS
 62
     7
100
AcDbPolyline
 90
       24
 70
   128
 43
0.0
 10
5.983718205508343
 20
16.27343253114892
 10
5.949936198722054
 20
16.29513763543951
 10
5.91387513079518
 20
16.31670769771854
 10
5.875535001727724
 20
16.338142717986
 10
5.834915811519683
 20
16.35944269624189
 10
5.792017560171058
 20
16.38060763248621
 10
5.746840247681848
 20
16.40163752671897
 10
5.699384574288671
 20
16.42253207716781
 10
5.649726893566524
 20
16.44325837647119
 10
5.595398046655184
 20
16.46476735930072
 10
5.538709045140259
 20
16.48606730825299
 10
5.479659889021744
 20
16.50715822332799
 10
5.418250578299643
 20
16.52804010452572
 10
5.354481112973956
 20
16.54871295184619
 10
5.28835149304468
 20
16.5691767652894
 10
5.225698654696611
 20
16.58773928239843
 10
5.161218039059685
 20
16.60607823063847
 10
5.094909646133902
 20
16.6241936100095
 10
5.02677347591926
 20
16.64208542051153
 10
4.956809528415763
 20
16.65975366214456
 10
4.88631582673049
 20
16.67688878340001
 10
4.81405904267953
 20
16.69380824909783
 10
4.740044845811306
 20
16.7105107918343
 10
4.66440128187036
 20
16.72696778718781
  0
LWPOLYLINE
  5
E6
330
1F
100
AcDbEntity
  8
0
  6
CONTINUOUS
 62
     7
100
AcDbPolyline
 90
       26
 70
   128
 43
0.0
 10
4.6643963024473
 20
16.72696704898299
 10
4.634622208245013
 20
16.73300991441763
 10
4.603219797676207
 20
16.73880015229969
 10
4.570393673345856
 20
16.74434480779096
 10
4.536348437858933
 20
16.74965092605322
 10
4.501288693820412
 20
16.75472555224828
 10
4.454525965084898
 20
16.76098262041549
 10
4.406355882279198
 20
16.76690541080567
 10
4.356970164346642
 20
16.7725058226982
 10
4.306560530230556
 20
16.77779575537245
 10
4.246069499977091
 20
16.78364637357205
 10
4.184378903308915
 20
16.78910936585625
 10
4.121636030688394
 20
16.79419078747792
 10
4.057988172577883
 20
16.79889669368997
 10
3.993582619439743
 20
16.80323313974529
 10
3.926658316840724
 20
16.80731573367413
 10
3.858999943299996
 20
16.81102579461071
 10
3.790710476583539
 20
16.81436205519211
 10
3.721892894457329
 20
16.81732324805544
 10
3.652650174687346
 20
16.81990810583779
 10
3.583398689861371
 20
16.82210478693761
 10
3.513786851320582
 20
16.82392491380771
 10
3.443910169200127
 20
16.82536291028737
 10
3.373198078074717
 20
16.82642122235081
 10
3.30231518685367
 20
16.82707929874689
 10
3.231368771430529
 20
16.82732982344724
  0
LWPOLYLINE
  5
E7
330
1F
100
AcDbEntity
  8
0
  6
CONTINUOUS
 62
     7
100
AcDbPolyline
 90
        4
 70
   128
 43
0.0
 10
3.231368771430529
 20
16.82732982344724
 10
3.684980028546026
 20
16.8270848029979
 10
4.138593197411956
 20
16.82693672158087
 10
4.278243333669828
 20
16.82692566811049
  0
LINE
  5
E8
330
1F
100
AcDbEntity
  8
0
  6
CONTINUOUS
 62
     7
100
AcDbLine
 10
4.278243333669828
 20
16.82692566811049
 30
0.0
 11
12.52339994384098
 21
16.82692566811049
 31
0.0
  0
LWPOLYLINE
  5
E9
330
1F
100
AcDbEntity
  8
0
  6
CONTINUOUS
 62
     7
100
AcDbPolyline
 90
        4
 70
   128
 43
0.0
 10
12.52339994384098
 20
16.82692566811049
 10
12.66305020182435
 20
16.82693672159994
 10
13.11666259373649
 20
16.82708480270063
 10
13.57027450608027
 20
16.82732982344724
  0
LWPOLYLINE
  5
EA
330
1F
100
AcDbEntity
  8
0
  6
CONTINUOUS
 62
     7
100
AcDbPolyline
 90
       27
 70
   128
 43
0.0
 10
13.57027450608027
 20
16.82732982344724
 10
13.49487538732028
 20
16.82704980540443
 10
13.41951127977074
 20
16.82630933026759
 10
13.34430610076112
 20
16.82511652971346
 10
13.26938376762086
 20
16.8234795354188
 10
13.19486819767943
 20
16.82140647906034
 10
13.11864026324866
 20
16.8188238328962
 10
13.04287494613442
 20
16.81578650864555
 10
12.96770566530696
 20
16.81229712977692
 10
12.8932658397365
 20
16.80835831975883
 10
12.81968888839328
 20
16.80397270205982
 10
12.75969040084629
 20
16.80001462915917
 10
12.7003506341423
 20
16.7957396899526
 10
12.64177483412658
 20
16.7911445885918
 10
12.5840682466444
 20
16.78622602922845
 10
12.53777434442646
 20
16.78197778970202
 10
12.4921271708403
 20
16.77749990526696
 10
12.44723015718245
 20
16.77278602321148
 10
12.4031867347494
 20
16.76782979082384
 10
12.36010033483769
 20
16.76262485539223
 10
12.31995657258599
 20
16.75741468061373
 10
12.28087533789307
 20
16.75195056544414
 10
12.24303121214816
 20
16.74622296854671
 10
12.21511795958704
 20
16.74167221742517
 10
12.18809114669292
 20
16.73694848966143
 10
12.16208830725525
 20
16.7320480214494
 10
12.13724697506351
 20
16.72696704898299
  0
LWPOLYLINE
  5
EB
330
1F
100
AcDbEntity
  8
0
  6
CONTINUOUS
 62
     7
100
AcDbPolyline
 90
       24
 70
   128
 43
0.0
 10
10.81792507199669
 20
16.27343253114507
 10
10.85170707878301
 20
16.29513763543596
 10
10.88776814670996
 20
16.31670769771527
 10
10.92610827577756
 20
16.33814271798302
 10
10.9667274659858
 20
16.35944269623919
 10
11.00962571733468
 20
16.38060763248379
 10
11.0548030298242
 20
16.40163752671683
 10
11.10225870321775
 20
16.42253207716594
 10
11.15191638394033
 20
16.44325837646958
 10
11.20624523085218
 20
16.46476735929939
 10
11.26293423236768
 20
16.48606730825194
 10
11.32198338848682
 20
16.50715822332721
 10
11.3833926992096
 20
16.52804010452521
 10
11.44716216453604
 20
16.54871295184594
 10
11.51329178446612
 20
16.5691767652894
 10
11.57594462280386
 20
16.58773928239543
 10
11.64042523842986
 20
16.60607823063254
 10
11.70673363134413
 20
16.62419361000072
 10
11.77486980154667
 20
16.64208542049997
 10
11.84483374903746
 20
16.6597536621303
 10
11.91532745070968
 20
16.67688878338316
 10
11.98758423474701
 20
16.69380824907847
 10
12.0615984316011
 20
16.7105107918125
 10
12.13724199552756
 20
16.7269677871637
  0
ARC
  5
EC
330
1F
100
AcDbEntity
  8
0
  6
CONTINUOUS
 62
     7
100
AcDbCircle
 10
10.99708058765494
 20
14.25460703875321
 30
0.0
 40
3.63871261144721
100
AcDbArc
 50
19.1225231875126
 51
44.9947542924085
  0
LWPOLYLINE
  5
ED
330
1F
100
AcDbEntity
  8
0
  6
CONTINUOUS
 62
     7
100
AcDbPolyline
 90
       29
 70
   128
 43
0.0
 10
12.13724697506351
 20
16.72696704898299
 10
12.13724732828341
 20
16.72696686134117
 10
12.21275374106719
 20
16.68537905743771
 10
12.28698853004886
 20
16.64153216224086
 10
12.35986007120384
 20
16.59550197758561
 10
12.42722077715044
 20
16.55016238694282
 10
12.49332622263812
 20
16.50292141193303
 10
12.55812409841812
 20
16.45385719241317
 10
12.6215620952417
 20
16.40304786824014
 10
12.68358790386011
 20
16.35057157927087
 10
12.7441492150246
 20
16.29650646536226
 10
12.80276019085248
 20
16.24133537613411
 10
12.85993763662012
 20
16.18459761929689
 10
12.91561520515704
 20
16.12634768051735
 10
12.96972654929277
 20
16.06664004546221
 10
13.02220532185685
 20
16.0055291997982
 10
13.07298517567881
 20
15.94306962919207
 10
13.12121813018508
 20
15.88036085215613
 10
13.16777935044374
 20
15.81632209374443
 10
13.21259638742979
 20
15.7510138422727
 10
13.25559679211822
 20
15.68449658605667
 10
13.29670811548405
 20
15.61683081341206
 10
13.33585790850225
 20
15.54807701265461
 10
13.37248907631441
 20
15.47923938210748
 10
13.40715954380021
 20
15.4093138134099
 10
13.4397997376028
 20
15.33838071325132
 10
13.47034008436533
 20
15.2665204883212
 10
13.49871101073095
 20
15.193813545309
 10
13.52484294334281
 20
15.12034029090419
  0
ARC
  5
EE
330
1F
100
AcDbEntity
  8
0
  6
CONTINUOUS
 62
     7
100
AcDbCircle
 10
5.804309551417679
 20
14.25487342279562
 30
0.0
 40
3.63834525444939
100
AcDbArc
 50
135.0053937316309
 51
160.8819935547912
  0
LWPOLYLINE
  5
EF
330
1F
100
AcDbEntity
  8
0
  6
CONTINUOUS
 62
     7
100
AcDbPolyline
 90
       30
 70
   128
 43
0.0
 10
3.276800334167991
 20
15.12034029090419
 10
3.302124421229965
 20
15.1916455506415
 10
3.329557230023025
 20
15.26222943640223
 10
3.359035310286747
 20
15.33201811549189
 10
3.390495211760708
 20
15.40093775521601
 10
3.423873484184482
 20
15.4689145228801
 10
3.459106677297645
 20
15.53587458578967
 10
3.497059386606154
 20
15.60335855756999
 10
3.53690074818121
 20
15.66980751071083
 10
3.578562574761989
 20
15.73516416498723
 10
3.621976679087671
 20
15.79937124017419
 10
3.667074873897428
 20
15.86237145604674
 10
3.713788971930438
 20
15.9241075323799
 10
3.762968633942016
 20
15.98564677461859
 10
3.813790187768468
 20
16.0459040406566
 10
3.866190840837884
 20
16.10482821738534
 10
3.920107800578356
 20
16.16236819169621
 10
3.975478274417975
 20
16.21847285048063
 10
4.032239469784831
 20
16.27309108063001
 10
4.090920765326568
 20
16.32671221136254
 10
4.151016888675314
 20
16.37883116870625
 10
4.212480268036747
 20
16.42937481183817
 10
4.275263331616545
 20
16.47826999993529
 10
4.339318507620387
 20
16.52544359217466
 10
4.404598224253946
 20
16.57082244773327
 10
4.467970071835357
 20
16.61239461528302
 10
4.532435462699539
 20
16.65230963175703
 10
4.597931665584285
 20
16.69051715962113
 10
4.664395949227392
 20
16.72696686134117
 10
4.664396302447296
 20
16.72696704898299
  0
LWPOLYLINE
  5
F0
330
1F
100
AcDbEntity
  8
0
  6
CONTINUOUS
 62
     7
100
AcDbPolyline
 90
       29
 70
   128
 43
0.0
 10
13.52484319537596
 20
13.60423507987903
 10
13.49871073581744
 20
13.53076228240394
 10
13.47033952819461
 20
13.45805574242835
 10
13.43979914211658
 20
13.38619584777473
 10
13.40715914719247
 20
13.31526298626553
 10
13.37248911303139
 20
13.24533754572324
 10
13.33585860924245
 20
13.17649991397029
 10
13.2967094366517
 20
13.10774576083677
 10
13.25559861750695
 20
13.04007963204094
 10
13.21259852328376
 20
12.97356210136688
 10
13.16778152545767
 20
12.90825374259864
 10
13.12121999550424
 20
12.84421512952031
 10
13.07298630489902
 20
12.78150683591597
 10
13.02220540707126
 20
12.71904759393189
 10
12.96972593437002
 20
12.6579368779397
 10
12.91561423760835
 20
12.59822912444372
 10
12.85993666759932
 20
12.53997876994829
 10
12.80275957515598
 20
12.48324025095775
 10
12.74414931109138
 20
12.42806800397642
 10
12.68358785865098
 20
12.37400091227888
 10
12.62156153746573
 20
12.32152296635895
 10
12.55812271718449
 20
12.27071227231649
 10
12.4933237674561
 20
12.22164693625139
 10
12.42721705792941
 20
12.1744050642635
 10
12.35985495825326
 20
12.1290647624527
 10
12.28698471667272
 20
12.0830375582928
 10
12.21275090659146
 20
12.03919420861303
 10
12.13724694127953
 20
11.99760743271683
 10
12.13724658806617
 20
11.99760724506335
  0
ARC
  5
F1
330
1F
100
AcDbEntity
  8
0
  6
CONTINUOUS
 62
     7
100
AcDbCircle
 10
11.00008425049817
 20
14.46811535008018
 30
0.0
 40
3.635279603618652
100
AcDbArc
 50
314.9924187770261
 51
340.889022653436
  0
SPLINE
  5
F2
330
1F
100
AcDbEntity
  8
0
  6
CONTINUOUS
 62
     7
100
AcDbSpline
210
0.0
220
0.0
230
1.0
 70
    14
 71
     3
 72
    18
 73
    14
 74
     0
 42
0.0000000001
 43
0.0000000001
 40
0.0
 40
0.0
 40
0.0
 40
0.0
 40
0.0
 40
0.0312500000000004
 40
0.0390625000000004
 40
0.0390625000000004
 40
0.0468750000000004
 40
0.0468750000000004
 40
0.0625000000000001
 40
0.125
 40
0.2499999999999997
 40
0.4999999999999999
 40
1.0
 40
1.0
 40
1.0
 40
1.0
 10
8.400821638755413
 20
-4.236941058084466E+99
 30
0.0
 41
1.0
 10
8.400821638755413
 20
-4.236941058084466E+99
 30
0.0
 41
1.0
 10
-2.870075258738817E+99
 20
-1.778985818887600E+99
 30
0.0
 41
1.0
 10
-2.086493708219307E+99
 20
-1.983991078450026E+99
 30
0.0
 41
1.0
 10
-8.860075870365008E+99
 20
-1.881488448696161E+99
 30
0.0
 41
1.0
 10
6.771480282641871E+99
 20
1.752417219719881E+99
 30
0.0
 41
1.0
 10
-1.881488448680835E+99
 20
-8.862638436185614E+99
 30
0.0
 41
1.0
 10
1.659997711828842E+99
 20
14.36228710308122
 30
0.0
 41
1.0
 10
1.659994891323376E+99
 20
14.36228710308122
 30
0.0
 41
1.0
 10
-1.845191171018016E+99
 20
-1.881488448680746E+99
 30
0.0
 41
1.0
 10
1.659994891323376E+99
 20
14.36228710308122
 30
0.0
 41
1.0
 10
8.400821638755413
 20
14.36228710308122
 30
0.0
 41
1.0
 10
8.400821638755413
 20
14.36228710308122
 30
0.0
 41
1.0
 10
8.400821638755413
 20
-4.236941058084466E+99
 30
0.0
 41
1.0
  0
LINE
  5
F3
330
1F
100
AcDbEntity
  8
0
  6
CONTINUOUS
 62
     7
100
AcDbLine
 10
14.73415497208873
 20
17.36228710569015
 30
0.0
 11
2.06748830542207
 21
17.36228710569015
 31
0.0
  0
SPLINE
  5
F4
330
1F
100
AcDbEntity
  8
0
  6
CONTINUOUS
 62
     7
100
AcDbSpline
210
0.0
220
0.0
230
1.0
 70
    12
 71
     3
 72
    17
 73
    13
 74
     0
 42
0.0000000001
 43
0.0000000001
 40
0.0
 40
0.0
 40
0.0
 40
0.0
 40
0.0312500000000078
 40
0.0390625000000089
 40
0.0390625000000089
 40
0.04687500000001
 40
0.04687500000001
 40
0.0625000000000106
 40
0.1250000000000098
 40
0.2500000000000081
 40
0.5000000000000048
 40
1.0
 40
1.0
 40
1.0
 40
1.0
 10
-1.778985818887600E+99
 20
-1.778984254845460E+99
 30
0.0
 41
1.0
 10
-1.983991078450026E+99
 20
-1.881486884614740E+99
 30
0.0
 41
1.0
 10
-1.881486884606289E+99
 20
14.36228710308122
 30
0.0
 41
1.0
 10
6.771480282618194E+99
 20
1.659994891323377E+99
 30
0.0
 41
1.0
 10
-9.171878352454802E+99
 20
-1.983989514399435E+99
 30
0.0
 41
1.0
 10
-8.862638436109241E+99
 20
1.659994391959316E+99
 30
0.0
 41
1.0
 10
-1.947693800787296E+99
 20
-1.881486884614740E+99
 30
0.0
 41
1.0
 10
8.400821638755413
 20
-6.970197350813163E+99
 30
0.0
 41
1.0
 10
-6.232204742085184E+99
 20
-6.560224375337696E+99
 30
0.0
 41
1.0
 10
-4.510124972767680E+99
 20
-9.020243689939572E+99
 30
0.0
 41
1.0
 10
8.400821638755413
 20
1.752430815667456E+99
 30
0.0
 41
1.0
 10
1.752415804208003E+99
 20
2.122110737789897E+99
 30
0.0
 41
1.0
 10
8.400821638755413
 20
1.659994391959316E+99
 30
0.0
 41
1.0
  0
LINE
  5
F7
330
1F
100
AcDbEntity
  8
0
  6
CONTINUOUS
 62
     7
100
AcDbLine
 10
2.06748830542207
 20
11.36228710569015
 30
0.0
 11
14.73415497208873
 21
11.36228710569015
 31
0.0
  0
LWPOLYLINE
  5
F8
330
1F
100
AcDbEntity
  8
0
  6
CONTINUOUS
 62
     7
100
AcDbPolyline
 90
       38
 70
   128
 43
0.0
 10
8.243949090042473
 20
11.94519498149168
 10
8.24551605121157
 20
11.9457726630335
 10
8.2507105687661
 20
11.94749804675095
 10
8.256509530618709
 20
11.94916132524297
 10
8.262889586396724
 20
11.95075580107411
 10
8.269825045867332
 20
11.95227505385296
 10
8.277287982383068
 20
11.95371296608479
 10
8.285248345332579
 20
11.95506374780455
 10
8.293674081143832
 20
11.956321959891
 10
8.302531262352523
 20
11.95748253596814
 10
8.311784224216014
 20
11.95854080280574
 10
8.321395708322652
 20
11.95949249913675
 10
8.331327012618256
 20
11.96033379281593
 10
8.341538147245621
 20
11.96106129625057
 10
8.351987995569556
 20
11.96167208004111
 10
8.362634479739071
 20
11.96216368477678
 10
8.373434730120022
 20
11.96253413093885
 10
8.384345257916013
 20
11.96278192687135
 10
8.395322130282407
 20
11.96290607478752
 10
8.406321147228403
 20
11.96290607478752
 10
8.417298019594795
 20
11.96278192687135
 10
8.428208547390784
 20
11.96253413093885
 10
8.439008797771737
 20
11.96216368477678
 10
8.449655281941252
 20
11.96167208004111
 10
8.460105130265187
 20
11.96106129625057
 10
8.47031626489255
 20
11.96033379281593
 10
8.480247569188156
 20
11.95949249913675
 10
8.489859053294795
 20
11.95854080280574
 10
8.499112015158285
 20
11.95748253596814
 10
8.507969196366977
 20
11.956321959891
 10
8.516394932178229
 20
11.95506374780455
 10
8.524355295127742
 20
11.95371296608479
 10
8.531818231643475
 20
11.95227505385296
 10
8.538753691114083
 20
11.95075580107411
 10
8.545133746892098
 20
11.94916132524297
 10
8.550932708744706
 20
11.94749804675095
 10
8.556127226299237
 20
11.9457726630335
 10
8.557694187468348
 20
11.94519498149167
  0
SPLINE
  5
F9
330
1F
100
AcDbEntity
  8
0
  6
CONTINUOUS
 62
     7
100
AcDbSpline
210
0.0
220
0.0
230
1.0
 70
    12
 71
     3
 72
     8
 73
     4
 74
     0
 42
0.0000000001
 43
0.0000000001
 40
0.2081975128446909
 40
0.2081975128446909
 40
0.2081975128446909
 40
0.2081975128446909
 40
0.9733870716516136
 40
0.9733870716516136
 40
0.9733870716516136
 40
0.9733870716516136
 10
-4.305116584428867E+99
 20
-1.845053531611382E+99
 30
0.0
 41
1.0
 10
-1.041230918585029E+99
 20
-1.018241366669511E+99
 30
0.0
 41
1.0
 10
8.400821638755413
 20
14.36228710308122
 30
0.0
 41
1.0
 10
8.400821638755413
 20
14.36228710308122
 30
0.0
 41
1.0
  0
LWPOLYLINE
  5
FA
330
1F
100
AcDbEntity
  8
0
  6
CONTINUOUS
 62
     7
100
AcDbPolyline
 90
       47
 70
   128
 43
0.0
 10
5.983716962336856
 20
12.45114170683516
 10
5.92005671236523
 20
12.45264819508483
 10
5.856429113265642
 20
12.45628825557014
 10
5.792940083052106
 20
12.46205004631476
 10
5.729695539738628
 20
12.46992172534235
 10
5.666801401339222
 20
12.47989145067656
 10
5.602457315971035
 20
12.49234262136253
 10
5.538521172675769
 20
12.50700247331248
 10
5.475102852833111
 20
12.52383846549974
 10
5.412312237822738
 20
12.54281805689768
 10
5.350259209024329
 20
12.56390870647967
 10
5.29069643327821
 20
12.58641795551059
 10
5.231861861431374
 20
12.61090335804121
 10
5.173849255193138
 20
12.63732017721582
 10
5.116752376272815
 20
12.66562367617872
 10
5.060664986379717
 20
12.69576911807424
 10
5.004051008883844
 20
12.72868995298463
 10
4.948536590493619
 20
12.76353930156599
 10
4.894214598244298
 20
12.80025380974592
 10
4.841177899171135
 20
12.83877012345201
 10
4.789519360309383
 20
12.87902488861185
 10
4.740189993455973
 20
12.92020424488248
 10
4.692214809986737
 20
12.96303372007313
 10
4.645671015182642
 20
13.00744051165203
 10
4.600635814324656
 20
13.05335181708743
 10
4.557186412693743
 20
13.10069483384756
 10
4.514150215004292
 20
13.1508966292301
 10
4.472821673046692
 20
13.20258842830209
 10
4.433273191416867
 20
13.25567872604556
 10
4.395577174710727
 20
13.31007601744254
 10
4.359806027524195
 20
13.36568879747503
 10
4.326918545870857
 20
13.42086276165423
 10
4.29587079999145
 20
13.47715475838055
 10
4.266715093353442
 20
13.53446976291754
 10
4.239503729424294
 20
13.59271275052873
 10
4.214289011671469
 20
13.65178869647768
 10
4.190426672875521
 20
13.71348256783521
 10
4.168705460330373
 20
13.77602663018472
 10
4.149166063738332
 20
13.83930706531711
 10
4.131849172801699
 20
13.90321005502333
 10
4.116795477222782
 20
13.96762178109429
 10
4.104062956634946
 20
14.03227075239341
 10
4.093597893563938
 20
14.09734576214117
 10
4.085423196772492
 20
14.16272751374912
 10
4.079498360130414
 20
14.2290998084166
 10
4.075934467580212
 20
14.29566172519763
 10
4.074743778983188
 20
14.36228710569016
  0
LWPOLYLINE
  5
FB
330
1F
100
AcDbEntity
  8
0
  6
CONTINUOUS
 62
     7
100
AcDbPolyline
 90
       47
 70
   128
 43
0.0
 10
12.72689949852761
 20
14.36228710569016
 10
12.72583719601941
 20
14.29943255728054
 10
12.722658191372
 20
14.23659631864568
 10
12.71737433890123
 20
14.17388389017473
 10
12.70999749292293
 20
14.11140077225686
 10
12.70053950775294
 20
14.04925246528124
 10
12.68862935499014
 20
13.98564472637447
 10
12.67452746052957
 20
13.92242850322588
 10
12.65826710350274
 20
13.85971268548977
 10
12.63988156304117
 20
13.79760616282047
 10
12.61940411827636
 20
13.73621782487232
 10
12.59751748519183
 20
13.67729827025679
 10
12.57367795584024
 20
13.6190864006142
 10
12.54793091120603
 20
13.56167371590573
 10
12.52032173227367
 20
13.50515171609255
 10
12.4908958000276
 20
13.44961190113582
 10
12.45874963051435
 20
13.39354404159562
 10
12.42470429557745
 20
13.33854445578509
 10
12.38882292860923
 20
13.28470252268585
 10
12.35116866300201
 20
13.23210762127954
 10
12.31180463214808
 20
13.1808491305478
 10
12.27133577334944
 20
13.13164256413257
 10
12.2292321300474
 20
13.08375852733035
 10
12.18556573349911
 20
13.03727141610082
 10
12.14040861496173
 20
12.99225562640367
 10
12.09383280569242
 20
12.94878555419859
 10
12.04446279018068
 20
12.90570891239479
 10
11.99361910787681
 20
12.86429306381252
 10
11.94139124185426
 20
12.82460620656757
 10
11.88786867518651
 20
12.78671653877569
 10
11.833140890947
 20
12.75069225855268
 10
11.77823414241579
 20
12.71714512505854
 10
11.72219494154893
 20
12.68541766451906
 10
11.6651175030236
 20
12.6555604056483
 10
11.60709604151697
 20
12.6276238771603
 10
11.54822477170621
 20
12.6016586077691
 10
11.48676060920623
 20
12.57700843383538
 10
11.42442998588602
 20
12.55446627761614
 10
11.36134396391777
 20
12.53407131078336
 10
11.29761360547368
 20
12.51586270500905
 10
11.23334997272596
 20
12.4998796319652
 10
11.16543037548678
 20
12.4855244677237
 10
11.09701305790905
 20
12.4736360441327
 10
11.02823224031186
 20
12.46424315200033
 10
10.95831464596195
 20
12.45729368777836
 10
10.88816507773993
 20
12.45292228372494
 10
10.81792631517395
 20
12.45114170683516
  0
LWPOLYLINE
  5
FD
330
1F
100
AcDbEntity
  8
0
  6
CONTINUOUS
 62
     7
100
AcDbPolyline
 90
       47
 70
   128
 43
0.0
 10
4.074743778983188
 20
14.36228710569016
 10
4.075806339366105
 20
14.42515399987332
 10
4.078986337669281
 20
14.48800260954234
 10
4.084272249624346
 20
14.5507273017599
 10
4.09165255096293
 20
14.61322244358864
 10
4.101115717416664
 20
14.67538240209123
 10
4.113032292355528
 20
14.73900255720161
 10
4.12714058925448
 20
14.8022310631604
 10
4.143407406065828
 20
14.86495902120412
 10
4.161799540741874
 20
14.92707753256925
 10
4.182283791234922
 20
14.9884776984923
 10
4.204177377827049
 20
15.04740788812793
 10
4.228024831859842
 20
15.10562996832054
 10
4.253780921380616
 20
15.16305224454637
 10
4.281400414436678
 20
15.21958302228169
 10
4.310838079075342
 20
15.27513060700275
 10
4.342997476491121
 20
15.3312066893087
 10
4.377055995878137
 20
15.38621426434064
 10
4.412950730468289
 20
15.4400637657741
 10
4.450618773493482
 20
15.49266562728458
 10
4.489997218185613
 20
15.54393028254762
 10
4.530470588563278
 20
15.59312928768433
 10
4.572578982751593
 20
15.64100521039427
 10
4.616250242650097
 20
15.687483720426
 10
4.661412210158328
 20
15.73249048752807
 10
4.707992727175824
 20
15.77595118144903
 10
4.757366502093169
 20
15.81901857870567
 10
4.808212641890233
 20
15.86042624545962
 10
4.860442127634526
 20
15.9001054623278
 10
4.913965940393558
 20
15.93798750992715
 10
4.968695061234843
 20
15.97400366887459
 10
5.023603372609048
 20
16.00754276028954
 10
5.079643693139535
 20
16.03926242564356
 10
5.13672188478813
 20
16.06911202810552
 10
5.19474380951665
 20
16.09704093084426
 10
5.253615329286915
 20
16.12299849702864
 10
5.315079097530603
 20
16.14764078517255
 10
5.377408890013181
 20
16.1701754927564
 10
5.44049371361783
 20
16.19056333372365
 10
5.504222575227736
 20
16.20876502201774
 10
5.568484481726079
 20
16.22474127158212
 10
5.636374147174358
 20
16.239082548313
 10
5.70476114076371
 20
16.25095777305002
 10
5.773511025836762
 20
16.26034013895722
 10
5.843395618090517
 20
16.26728341192328
 10
5.91351173393237
 20
16.27165243767202
 10
5.983716962336857
 20
16.27343250454517
  0
LWPOLYLINE
  5
FE
330
1F
100
AcDbEntity
  8
0
  6
CONTINUOUS
 62
     7
100
AcDbPolyline
 90
       47
 70
   128
 43
0.0
 10
10.81792631517395
 20
16.27343250454517
 10
10.88158448925306
 20
16.27192596493049
 10
10.94520998291697
 20
16.26828593177525
 10
11.00869695585521
 20
16.26252454752304
 10
11.07193956775729
 20
16.25465395461746
 10
11.1348319783127
 20
16.24468629550213
 10
11.19917431613622
 20
16.23223747749278
 10
11.26310864547761
 20
16.21757924147181
 10
11.32652503612778
 20
16.20074421112627
 10
11.38931355787759
 20
16.1817650101432
 10
11.45136428051793
 20
16.16067426220967
 10
11.51092472304052
 20
16.13816488501553
 10
11.56975707786777
 20
16.11367981811414
 10
11.62776772727794
 20
16.08726394206446
 10
11.68486305354928
 20
16.05896213742544
 10
11.74094943896005
 20
16.028819284756
 10
11.79756209598805
 20
15.99590132517601
 10
11.85307481077575
 20
15.96105412114858
 10
11.90739494959499
 20
15.92434140745185
 10
11.9604298787176
 20
15.88582691886395
 10
12.01208696441543
 20
15.84557439016304
 10
12.06142075311117
 20
15.80439323885855
 10
12.10940058564744
 20
15.76156216810727
 10
12.15594924058168
 20
15.71715392075876
 10
12.20098949647127
 20
15.67124123966255
 10
12.24444413187363
 20
15.62389686766818
 10
12.28748512496051
 20
15.5736925204651
 10
12.32881696864844
 20
15.52199685472483
 10
12.36836787019989
 20
15.46890191794974
 10
12.40606603687731
 20
15.41449975764221
 10
12.44183967594316
 20
15.35888242130462
 10
12.47472810959938
 20
15.30370689370798
 10
12.50577648625583
 20
15.24741314650833
 10
12.53493259585385
 20
15.1900962712292
 10
12.56214422833477
 20
15.13185135939417
 10
12.58735917363991
 20
15.07277350252681
 10
12.61122158587633
 20
15.01107730625253
 10
12.63294240998541
 20
14.94853077998394
 10
12.65248113690537
 20
14.88524781455944
 10
12.66979725757443
 20
14.82134230081748
 10
12.68485026293084
 20
14.75692812959647
 10
12.69758240942456
 20
14.69228318338223
 10
12.70804873090901
 20
14.62721250314688
 10
12.71622417945523
 20
14.56183498797255
 10
12.72214786326794
 20
14.49546661195656
 10
12.72570982746138
 20
14.42890856820039
 10
12.72689949852762
 20
14.36228710569016
  0
CIRCLE
  5
FF
330
1F
100
AcDbEntity
  8
0
  6
CONTINUOUS
 62
     7
100
AcDbCircle
 10
8.400821638755404
 20
14.36228710569016
 30
0.0
 40
0.4111434996699366
  0
CIRCLE
  5
100
330
1F
100
AcDbEntity
  8
0
  6
CONTINUOUS
 62
     7
100
AcDbCircle
 10
8.400821638755404
 20
14.36228710569016
 30
0.0
 40
0.3349887506559366
  0
CIRCLE
  5
101
330
1F
100
AcDbEntity
  8
0
  6
CONTINUOUS
 62
     7
100
AcDbCircle
 10
8.400821638755404
 20
14.36228710569016
 30
0.0
 40
0.1733333333333338
  0
ARC
  5
189
330
1F
100
AcDbEntity
  8
0
  6
CONTINUOUS
 62
     7
100
AcDbCircle
 10
11.35982433729469
 20
14.37113255539002
 30
0.0
 40
3.263059998048001
100
AcDbArc
 50
340.4626720075303
 51
359.8446833473177
  0
ENDSEC
  0
SECTION
  2
OBJECTS
  0
DICTIONARY
  5
C
330
0
100
AcDbDictionary
  3
ACAD_GROUP
350
D
  3
ACAD_LAYOUT
350
1A
  3
ACAD_MLINESTYLE
350
17
  3
ACAD_PLOTSETTINGS
350
19
  3
ACAD_PLOTSTYLENAME
350
E
  3
ACDBHEADERROUNDTRIPXREC
350
201
  3
ACDBVARIABLEDICTIONARY
350
146
  0
DICTIONARY
  5
10A
330
1F
100
AcDbDictionary
280
     1
  3
ACAD_LAYOUTSELFREF
360
223
  0
DICTIONARY
  5
10C
330
1B
100
AcDbDictionary
280
     1
  3
ACAD_LAYOUTSELFREF
360
222
  0
DICTIONARY
  5
D
102
{ACAD_REACTORS
330
C
102
}
330
C
100
AcDbDictionary
  0
DICTIONARY
  5
1A
102
{ACAD_REACTORS
330
C
102
}
330
C
100
AcDbDictionary
  0
DICTIONARY
  5
17
102
{ACAD_REACTORS
330
C
102
}
330
C
100
AcDbDictionary
  3
STANDARD
350
18
  0
DICTIONARY
  5
19
102
{ACAD_REACTORS
330
C
102
}
330
C
100
AcDbDictionary
  0
ACDBDICTIONARYWDFLT
  5
E
102
{ACAD_REACTORS
330
C
102
}
330
C
100
AcDbDictionary
281
     1
  3
Normal
350
F
100
AcDbDictionaryWithDefault
340
F
  0
DICTIONARY
  5
201
102
{ACAD_REACTORS
330
C
102
}
330
C
100
AcDbDictionary
  3
CEPSNTYPE
350
20B
  3
DIMSTYLEDATA
350
20F
  3
FINGERPRINTGUID
350
20C
  3
HYPERLINKBASE
350
204
  3
INSUNITS
350
20A
  3
LAYOUTDICT
350
206
  3
LWETCUNION
350
209
  3
PLOTSETDICT
350
207
  3
PLOTSTYLNAMDICT
350
208
  3
PSVPSCALE
350
20E
  3
PUCSBASE
350
212
  3
PUCSORGBACK
350
218
  3
PUCSORGBOTTOM
350
214
  3
PUCSORGFRONT
350
217
  3
PUCSORGLEFT
350
215
  3
PUCSORGRIGHT
350
216
  3
PUCSORGTOP
350
213
  3
PUCSORTHOREF
350
210
  3
PUCSORTHOVIEW
350
211
  3
STYLESHEET
350
205
  3
TSTACKALIGN
350
202
  3
TSTACKSIZE
350
203
  3
UCSBASE
350
21B
  3
UCSORGBACK
350
221
  3
UCSORGBOTTOM
350
21D
  3
UCSORGFRONT
350
220
  3
UCSORGLEFT
350
21E
  3
UCSORGRIGHT
350
21F
  3
UCSORGTOP
350
21C
  3
UCSORTHOREF
350
219
  3
UCSORTHOVIEW
350
21A
  3
VERSIONGUID
350
20D
  0
DICTIONARY
  5
146
102
{ACAD_REACTORS
330
C
102
}
330
C
100
AcDbDictionary
  3
DIMASSOC
350
147
  0
XRECORD
  5
223
102
{ACAD_REACTORS
330
10A
102
}
330
10A
100
AcDbXrecord
340
1F
  0
XRECORD
  5
222
102
{ACAD_REACTORS
330
10C
102
}
330
10C
100
AcDbXrecord
340
1B
  0
MLINESTYLE
  5
18
102
{ACAD_REACTORS
330
17
102
}
330
17
100
AcDbMlineStyle
  2
STANDARD
 70
     0
  3

 62
   256
 51
90.0
 52
90.0
 71
     2
 49
0.5
 62
   256
  6
BYLAYER
 49
-0.5
 62
   256
  6
BYLAYER
  0
ACDBPLACEHOLDER
  5
F
102
{ACAD_REACTORS
330
E
102
}
330
E
100
AcDbPlaceHolder
280
     0
  0
XRECORD
  5
20B
102
{ACAD_REACTORS
330
201
102
}
330
201
100
AcDbXrecord
 90
        0
  0
XRECORD
  5
20F
102
{ACAD_REACTORS
330
201
102
}
330
201
100
AcDbXrecord
1000
DSTYLE
1002
{
1070
   278
 70
    44
1002
}
  0
XRECORD
  5
20C
102
{ACAD_REACTORS
330
201
102
}
330
201
100
AcDbXrecord
  1
{E0EAB11A-07C0-4869-BE92-23EB7F002FBF}
  0
XRECORD
  5
204
102
{ACAD_REACTORS
330
201
102
}
330
201
100
AcDbXrecord
  1

  0
XRECORD
  5
20A
102
{ACAD_REACTORS
330
201
102
}
330
201
100
AcDbXrecord
 90
        4
  0
XRECORD
  5
206
102
{ACAD_REACTORS
330
201
102
}
330
201
100
AcDbXrecord
340
1A
  0
XRECORD
  5
209
102
{ACAD_REACTORS
330
201
102
}
330
201
100
AcDbXrecord
 90
    10781
  0
XRECORD
  5
207
102
{ACAD_REACTORS
330
201
102
}
330
201
100
AcDbXrecord
340
19
  0
XRECORD
  5
208
102
{ACAD_REACTORS
330
201
102
}
330
201
100
AcDbXrecord
340
E
  0
XRECORD
  5
20E
102
{ACAD_REACTORS
330
201
102
}
330
201
100
AcDbXrecord
 40
0.0
  0
XRECORD
  5
212
102
{ACAD_REACTORS
330
201
102
}
330
201
100
AcDbXrecord
340
0
  0
XRECORD
  5
218
102
{ACAD_REACTORS
330
201
102
}
330
201
100
AcDbXrecord
 10
0.0
 20
0.0
 30
0.0
  0
XRECORD
  5
214
102
{ACAD_REACTORS
330
201
102
}
330
201
100
AcDbXrecord
 10
0.0
 20
0.0
 30
0.0
  0
XRECORD
  5
217
102
{ACAD_REACTORS
330
201
102
}
330
201
100
AcDbXrecord
 10
0.0
 20
0.0
 30
0.0
  0
XRECORD
  5
215
102
{ACAD_REACTORS
330
201
102
}
330
201
100
AcDbXrecord
 10
0.0
 20
0.0
 30
0.0
  0
XRECORD
  5
216
102
{ACAD_REACTORS
330
201
102
}
330
201
100
AcDbXrecord
 10
0.0
 20
0.0
 30
0.0
  0
XRECORD
  5
213
102
{ACAD_REACTORS
330
201
102
}
330
201
100
AcDbXrecord
 10
0.0
 20
0.0
 30
0.0
  0
XRECORD
  5
210
102
{ACAD_REACTORS
330
201
102
}
330
201
100
AcDbXrecord
340
0
  0
XRECORD
  5
211
102
{ACAD_REACTORS
330
201
102
}
330
201
100
AcDbXrecord
 70
     0
  0
XRECORD
  5
205
102
{ACAD_REACTORS
330
201
102
}
330
201
100
AcDbXrecord
  1

  0
XRECORD
  5
202
102
{ACAD_REACTORS
330
201
102
}
330
201
100
AcDbXrecord
 90
        1
  0
XRECORD
  5
203
102
{ACAD_REACTORS
330
201
102
}
330
201
100
AcDbXrecord
 90
       70
  0
XRECORD
  5
21B
102
{ACAD_REACTORS
330
201
102
}
330
201
100
AcDbXrecord
340
0
  0
XRECORD
  5
221
102
{ACAD_REACTORS
330
201
102
}
330
201
100
AcDbXrecord
 10
0.0
 20
0.0
 30
0.0
  0
XRECORD
  5
21D
102
{ACAD_REACTORS
330
201
102
}
330
201
100
AcDbXrecord
 10
0.0
 20
0.0
 30
0.0
  0
XRECORD
  5
220
102
{ACAD_REACTORS
330
201
102
}
330
201
100
AcDbXrecord
 10
0.0
 20
0.0
 30
0.0
  0
XRECORD
  5
21E
102
{ACAD_REACTORS
330
201
102
}
330
201
100
AcDbXrecord
 10
0.0
 20
0.0
 30
0.0
  0
XRECORD
  5
21F
102
{ACAD_REACTORS
330
201
102
}
330
201
100
AcDbXrecord
 10
0.0
 20
0.0
 30
0.0
  0
XRECORD
  5
21C
102
{ACAD_REACTORS
330
201
102
}
330
201
100
AcDbXrecord
 10
0.0
 20
0.0
 30
0.0
  0
XRECORD
  5
219
102
{ACAD_REACTORS
330
201
102
}
330
201
100
AcDbXrecord
340
0
  0
XRECORD
  5
21A
102
{ACAD_REACTORS
330
201
102
}
330
201
100
AcDbXrecord
 70
     0
  0
XRECORD
  5
20D
102
{ACAD_REACTORS
330
201
102
}
330
201
100
AcDbXrecord
  1
{E299DACF-E3EB-400A-98A9-9E26F3D18849}
  0
DICTIONARYVAR
  5
147
102
{ACAD_REACTORS
330
146
102
}
330
146
100
DictionaryVariables
280
     0
  1
1
  0
ENDSEC
  0
EOF
