  0
SECTION
  2
HEADER
  9
$ACADVER
  1
AC1014
  9
$ACADMAINTVER
 70
     9
  9
$DWGCODEPAGE
  3
ANSI_1250
  9
$INSBASE
 10
0.0
 20
0.0
 30
0.0
  9
$EXTMIN
 10
3.358153515139454
 20
4.554778130500812
 30
0.0
  9
$EXTMAX
 10
14.69148684847279
 20
17.27429639252169
 30
0.0
  9
$LIMMIN
 10
0.0
 20
0.0
  9
$LIMMAX
 10
0.0
 20
0.0
  9
$ORTHOMODE
 70
     1
  9
$REGENMODE
 70
     1
  9
$FILLMODE
 70
     1
  9
$QTEXTMODE
 70
     0
  9
$MIRRTEXT
 70
     1
  9
$DRAGMODE
 70
     2
  9
$LTSCALE
 40
1.0
  9
$OSMODE
 70
  3007
  9
$ATTMODE
 70
     1
  9
$TEXTSIZE
 40
2.5
  9
$TRACEWID
 40
1.0
  9
$TEXTSTYLE
  7
STANDARD
  9
$CLAYER
  8
0
  9
$CELTYPE
  6
BYLAYER
  9
$CECOLOR
 62
   256
  9
$CELTSCALE
 40
1.0
  9
$DELOBJ
 70
     1
  9
$DISPSILH
 70
     0
  9
$DIMSCALE
 40
1.0
  9
$DIMASZ
 40
0.3
  9
$DIMEXO
 40
0.1
  9
$DIMDLI
 40
3.75
  9
$DIMRND
 40
0.0
  9
$DIMDLE
 40
0.0
  9
$DIMEXE
 40
0.1
  9
$DIMTP
 40
0.0
  9
$DIMTM
 40
0.0
  9
$DIMTXT
 40
0.2822222222222222
  9
$DIMCEN
 40
2.5
  9
$DIMTSZ
 40
0.0
  9
$DIMTOL
 70
     0
  9
$DIMLIM
 70
     0
  9
$DIMTIH
 70
     1
  9
$DIMTOH
 70
     1
  9
$DIMSE1
 70
     0
  9
$DIMSE2
 70
     0
  9
$DIMTAD
 70
     1
  9
$DIMZIN
 70
     0
  9
$DIMBLK
  1

  9
$DIMASO
 70
     1
  9
$DIMSHO
 70
     1
  9
$DIMPOST
  1

  9
$DIMAPOST
  1

  9
$DIMALT
 70
     0
  9
$DIMALTD
 70
     3
  9
$DIMALTF
 40
0.3937007874015748
  9
$DIMLFAC
 40
15.0
  9
$DIMTOFL
 70
     1
  9
$DIMTVP
 40
0.0
  9
$DIMTIX
 70
     0
  9
$DIMSOXD
 70
     0
  9
$DIMSAH
 70
     0
  9
$DIMBLK1
  1

  9
$DIMBLK2
  1

  9
$DIMSTYLE
  2
ISO-25
  9
$DIMCLRD
 70
     0
  9
$DIMCLRE
 70
     0
  9
$DIMCLRT
 70
     0
  9
$DIMTFAC
 40
1.0
  9
$DIMGAP
 40
0.1524
  9
$DIMJUST
 70
     0
  9
$DIMSD1
 70
     0
  9
$DIMSD2
 70
     0
  9
$DIMTOLJ
 70
     0
  9
$DIMTZIN
 70
     0
  9
$DIMALTZ
 70
     0
  9
$DIMALTTZ
 70
     0
  9
$DIMFIT
 70
     3
  9
$DIMUPT
 70
     0
  9
$DIMUNIT
 70
     2
  9
$DIMDEC
 70
     2
  9
$DIMTDEC
 70
     2
  9
$DIMALTU
 70
     2
  9
$DIMALTTD
 70
     3
  9
$DIMTXSTY
  7
STANDARD
  9
$DIMAUNIT
 70
     0
  9
$LUNITS
 70
     2
  9
$LUPREC
 70
     1
  9
$SKETCHINC
 40
1.0
  9
$FILLETRAD
 40
10.0
  9
$AUNITS
 70
     0
  9
$AUPREC
 70
     0
  9
$MENU
  1
.
  9
$ELEVATION
 40
0.0
  9
$PELEVATION
 40
0.0
  9
$THICKNESS
 40
0.0
  9
$LIMCHECK
 70
     0
  9
$BLIPMODE
 70
     0
  9
$CHAMFERA
 40
10.0
  9
$CHAMFERB
 40
10.0
  9
$CHAMFERC
 40
20.0
  9
$CHAMFERD
 40
0.0
  9
$SKPOLY
 70
     0
  9
$TDCREATE
 40
2453964.604769120
  9
$TDUPDATE
 40
2453966.374608831
  9
$TDINDWG
 40
0.0163802199
  9
$TDUSRTIMER
 40
0.0163802199
  9
$USRTIMER
 70
     1
  9
$ANGBASE
 50
0.0
  9
$ANGDIR
 70
     0
  9
$PDMODE
 70
     0
  9
$PDSIZE
 40
-1.0
  9
$PLINEWID
 40
0.0
  9
$COORDS
 70
     2
  9
$SPLFRAME
 70
     0
  9
$SPLINETYPE
 70
     6
  9
$SPLINESEGS
 70
     8
  9
$ATTDIA
 70
     0
  9
$ATTREQ
 70
     1
  9
$HANDLING
 70
 22529
  9
$HANDSEED
  5
1D3
  9
$SURFTAB1
 70
     6
  9
$SURFTAB2
 70
     6
  9
$SURFTYPE
 70
     6
  9
$SURFU
 70
     6
  9
$SURFV
 70
     6
  9
$UCSNAME
  2

  9
$UCSORG
 10
0.0
 20
0.0
 30
0.0
  9
$UCSXDIR
 10
1.0
 20
0.0
 30
0.0
  9
$UCSYDIR
 10
0.0
 20
1.0
 30
0.0
  9
$PUCSNAME
  2

  9
$PUCSORG
 10
0.0
 20
0.0
 30
0.0
  9
$PUCSXDIR
 10
1.0
 20
0.0
 30
0.0
  9
$PUCSYDIR
 10
0.0
 20
1.0
 30
0.0
  9
$USERI1
 70
     0
  9
$USERI2
 70
     0
  9
$USERI3
 70
     0
  9
$USERI4
 70
     0
  9
$USERI5
 70
     0
  9
$USERR1
 40
0.0
  9
$USERR2
 40
0.0
  9
$USERR3
 40
0.0
  9
$USERR4
 40
0.0
  9
$USERR5
 40
0.0
  9
$WORLDVIEW
 70
     1
  9
$SHADEDGE
 70
     3
  9
$SHADEDIF
 70
    70
  9
$TILEMODE
 70
     1
  9
$MAXACTVP
 70
    48
  9
$PINSBASE
 10
0.0
 20
0.0
 30
0.0
  9
$PLIMCHECK
 70
     0
  9
$PEXTMIN
 10
1.000000000000000E+20
 20
1.000000000000000E+20
 30
1.000000000000000E+20
  9
$PEXTMAX
 10
-1.000000000000000E+20
 20
-1.000000000000000E+20
 30
-1.000000000000000E+20
  9
$PLIMMIN
 10
0.0
 20
0.0
  9
$PLIMMAX
 10
420.0
 20
297.0
  9
$UNITMODE
 70
     0
  9
$VISRETAIN
 70
     1
  9
$PLINEGEN
 70
     0
  9
$PSLTSCALE
 70
     1
  9
$TREEDEPTH
 70
  3020
  9
$PICKSTYLE
 70
     1
  9
$CMLSTYLE
  2
STANDARD
  9
$CMLJUST
 70
     0
  9
$CMLSCALE
 40
20.0
  9
$PROXYGRAPHICS
 70
     1
  9
$MEASUREMENT
 70
     1
  0
ENDSEC
  0
SECTION
  2
CLASSES
  0
CLASS
  1
ACDBDICTIONARYWDFLT
  2
AcDbDictionaryWithDefault
  3
AutoCAD 2000
 90
        0
280
     0
281
     0
  0
CLASS
  1
ACDBPLACEHOLDER
  2
AcDbPlaceHolder
  3
AutoCAD 2000
 90
        0
280
     0
281
     0
  0
CLASS
  1
LAYOUT
  2
AcDbLayout
  3
AutoCAD 2000
 90
        0
280
     0
281
     0
  0
CLASS
  1
DICTIONARYVAR
  2
AcDbDictionaryVar
  3
AutoCAD 2000
 90
        0
280
     0
281
     0
  0
CLASS
  1
LONG_TRANSACTION
  2
AcDbLongTransaction
  3
AutoCAD 2000
 90
        0
280
     0
281
     0
  0
CLASS
  1
LWPOLYLINE
  2
AcDbPolyline
  3
AutoCAD 2000
 90
        0
280
     0
281
     1
  0
CLASS
  1
HATCH
  2
AcDbHatch
  3
AutoCAD 2000
 90
        0
280
     0
281
     1
  0
CLASS
  1
XRECORD
  2
AcDbXrecord
  3
AutoCAD 2000
 90
        0
280
     0
281
     0
  0
CLASS
  1
LONG_TRANSACTION
  2
AcDbLongTransaction
  3
AutoCAD 2000
 90
        0
280
     0
281
     0
  0
CLASS
  1
LWPOLYLINE
  2
AcDbPolyline
  3
AutoCAD 2000
 90
        0
280
     0
281
     1
  0
CLASS
  1
HATCH
  2
AcDbHatch
  3
AutoCAD 2000
 90
        0
280
     0
281
     1
  0
CLASS
  1
XRECORD
  2
AcDbXrecord
  3
AutoCAD 2000
 90
        0
280
     0
281
     0
  0
CLASS
  1
LONG_TRANSACTION
  2
AcDbLongTransaction
  3
AutoCAD 2000
 90
        0
280
     0
281
     0
  0
CLASS
  1
LWPOLYLINE
  2
AcDbPolyline
  3
AutoCAD 2000
 90
        0
280
     0
281
     1
  0
CLASS
  1
HATCH
  2
AcDbHatch
  3
AutoCAD 2000
 90
        0
280
     0
281
     1
  0
CLASS
  1
XRECORD
  2
AcDbXrecord
  3
AutoCAD 2000
 90
        0
280
     0
281
     0
  0
ENDSEC
  0
SECTION
  2
TABLES
  0
TABLE
  2
VPORT
  5
8
330
0
100
AcDbSymbolTable
 70
     2
  0
VPORT
  5
1AE
330
8
100
AcDbSymbolTableRecord
100
AcDbViewportTableRecord
  2
*ACTIVE
 70
     0
 10
0.0
 20
0.0
 11
1.0
 21
1.0
 12
9.024456736678668
 22
10.91467902449715
 13
0.0
 23
0.0
 14
10.0
 24
10.0
 15
10.0
 25
10.0
 16
0.0
 26
0.0
 36
1.0
 17
0.0
 27
0.0
 37
0.0
 40
12.84020285476446
 41
1.674961119751166
 42
50.0
 43
0.0
 44
0.0
 50
0.0
 51
0.0
 71
     0
 72
  2000
 73
     1
 74
     3
 75
     0
 76
     0
 77
     0
 78
     0
  0
ENDTAB
  0
TABLE
  2
LTYPE
  5
5
330
0
100
AcDbSymbolTable
 70
     1
  0
LTYPE
  5
14
330
5
100
AcDbSymbolTableRecord
100
AcDbLinetypeTableRecord
  2
BYBLOCK
 70
     0
  3

 72
    65
 73
     0
 40
0.0
  0
LTYPE
  5
15
330
5
100
AcDbSymbolTableRecord
100
AcDbLinetypeTableRecord
  2
BYLAYER
 70
     0
  3

 72
    65
 73
     0
 40
0.0
  0
LTYPE
  5
16
330
5
100
AcDbSymbolTableRecord
100
AcDbLinetypeTableRecord
  2
CONTINUOUS
 70
     0
  3
Solid line
 72
    65
 73
     0
 40
0.0
  0
ENDTAB
  0
TABLE
  2
LAYER
  5
2
330
0
100
AcDbSymbolTable
 70
     1
  0
LAYER
  5
10
330
2
100
AcDbSymbolTableRecord
100
AcDbLayerTableRecord
  2
0
 70
     0
 62
     7
  6
CONTINUOUS
  0
ENDTAB
  0
TABLE
  2
STYLE
  5
3
330
0
100
AcDbSymbolTable
 70
     1
  0
STYLE
  5
11
330
3
100
AcDbSymbolTableRecord
100
AcDbTextStyleTableRecord
  2
STANDARD
 70
     0
 40
0.0
 41
1.0
 50
0.0
 71
     0
 42
2.5
  3
ARIAL.TTF
  4

1001
ACAD
1000
Arial
1071
       34
  0
ENDTAB
  0
TABLE
  2
VIEW
  5
6
330
0
100
AcDbSymbolTable
 70
     0
  0
ENDTAB
  0
TABLE
  2
UCS
  5
7
330
0
100
AcDbSymbolTable
 70
     0
  0
ENDTAB
  0
TABLE
  2
APPID
  5
9
330
0
100
AcDbSymbolTable
 70
     1
  0
APPID
  5
12
330
9
100
AcDbSymbolTableRecord
100
AcDbRegAppTableRecord
  2
ACAD
 70
     0
  0
ENDTAB
  0
TABLE
  2
DIMSTYLE
  5
A
330
0
100
AcDbSymbolTable
 70
     1
  0
DIMSTYLE
105
27
330
A
100
AcDbSymbolTableRecord
100
AcDbDimStyleTableRecord
  2
ISO-25
 70
     0
  3

  4

  5

  6

  7

 40
1.0
 41
2.5
 42
0.625
 43
3.75
 44
1.25
 45
0.0
 46
0.0
 47
0.0
 48
0.0
140
2.5
141
2.5
142
0.0
143
0.03937007874016
144
1.0
145
0.0
146
1.0
147
0.625
 71
     0
 72
     0
 73
     0
 74
     0
 75
     0
 76
     0
 77
     1
 78
     8
170
     0
171
     3
172
     1
173
     0
174
     0
175
     0
176
     0
177
     0
178
     0
270
     2
271
     2
272
     2
273
     2
274
     3
340
11
275
     0
280
     0
281
     0
282
     0
283
     0
284
     8
285
     0
286
     0
287
     3
288
     0
  0
ENDTAB
  0
TABLE
  2
BLOCK_RECORD
  5
1
330
0
100
AcDbSymbolTable
 70
     1
  0
BLOCK_RECORD
  5
1F
102
{ACAD_XDICTIONARY
360
FC
102
}
330
1
100
AcDbSymbolTableRecord
100
AcDbBlockTableRecord
  2
*MODEL_SPACE
  0
BLOCK_RECORD
  5
1B
102
{ACAD_XDICTIONARY
360
FE
102
}
330
1
100
AcDbSymbolTableRecord
100
AcDbBlockTableRecord
  2
*PAPER_SPACE
  0
ENDTAB
  0
ENDSEC
  0
SECTION
  2
BLOCKS
  0
BLOCK
  5
20
330
1F
100
AcDbEntity
  8
0
100
AcDbBlockBegin
  2
*MODEL_SPACE
 70
     0
 10
0.0
 20
0.0
 30
0.0
  3
*MODEL_SPACE
  1

  0
ENDBLK
  5
21
330
1F
100
AcDbEntity
  8
0
100
AcDbBlockEnd
  0
BLOCK
  5
1C
330
1B
100
AcDbEntity
 67
     1
  8
0
100
AcDbBlockBegin
  2
*PAPER_SPACE
 70
     0
 10
0.0
 20
0.0
 30
0.0
  3
*PAPER_SPACE
  1

  0
ENDBLK
  5
1D
330
1B
100
AcDbEntity
 67
     1
  8
0
100
AcDbBlockEnd
  0
ENDSEC
  0
SECTION
  2
ENTITIES
  0
LINE
  5
9F
330
1F
100
AcDbEntity
  8
0
  6
CONTINUOUS
100
AcDbLine
 10
14.16016805578876
 20
7.68297635548403
 30
0.0
 11
12.82616066521421
 21
4.782960289017618
 31
0.0
  0
LINE
  5
A0
330
1F
100
AcDbEntity
  8
0
  6
CONTINUOUS
100
AcDbLine
 10
12.82607361867427
 20
4.782997424621316
 30
0.0
 11
6.569696934833386
 21
4.671203224277832
 31
0.0
  0
LINE
  5
A1
330
1F
100
AcDbEntity
  8
0
  6
CONTINUOUS
100
AcDbLine
 10
5.746610095445523
 20
4.671203224277832
 30
0.0
 11
4.912311135903355
 21
4.687889203468674
 31
0.0
  0
ARC
  5
A2
330
1F
100
AcDbEntity
  8
0
  6
CONTINUOUS
100
AcDbCircle
 10
5.74434388197624
 20
4.55789255081343
 30
0.0
 40
0.1133333333333343
100
AcDbArc
 50
53.76087159364906
 51
88.85423716182712
  0
ARC
  5
A3
330
1F
100
AcDbEntity
  8
0
  6
CONTINUOUS
100
AcDbCircle
 10
6.571963148302669
 20
4.55789255081343
 30
0.0
 40
0.1133333333333343
100
AcDbArc
 50
91.14576283817291
 51
126.239128406352
  0
ARC
  5
A4
330
1F
100
AcDbEntity
  8
0
  6
CONTINUOUS
100
AcDbCircle
 10
6.158153515139455
 20
5.122482302315638
 30
0.0
 40
0.5866666666666674
100
AcDbArc
 50
233.760871593647
 51
252.8152040989118
  0
ARC
  5
A5
330
1F
100
AcDbEntity
  8
0
  6
CONTINUOUS
100
AcDbCircle
 10
6.158153515139455
 20
5.122482302315638
 30
0.0
 40
0.5866666666666674
100
AcDbArc
 50
287.1847959010867
 51
306.2391284063513
  0
LWPOLYLINE
  5
A6
330
1F
100
AcDbEntity
  8
0
  6
CONTINUOUS
100
AcDbPolyline
 90
       56
 70
   128
 43
0.0
 10
4.200940185055562
 20
4.709354128546753
 10
4.190823137222865
 20
4.781736535468331
 10
4.177187953346059
 20
4.879273443222334
 10
4.163838399362438
 20
4.974752454491994
 10
4.150774810414635
 20
5.068172708016704
 10
4.137997505794395
 20
5.15953335548995
 10
4.125727323172387
 20
5.247256988701799
 10
4.113733859143879
 20
5.332992333770237
 10
4.102017374615115
 20
5.41673862692278
 10
4.090578117741941
 20
5.49849511856372
 10
4.079191423338169
 20
5.579868219153407
 10
4.068093870988102
 20
5.659167943092733
 10
4.057285686354994
 20
5.736393542301502
 10
4.046767083308928
 20
5.811544285780358
 10
4.036538264413961
 20
5.88461945996176
 10
4.026599421404197
 20
5.955618369031593
 10
4.016950735648366
 20
6.024540335223044
 10
4.00759237860262
 20
6.091384699084341
 10
3.998524512251222
 20
6.156150819721914
 10
3.989747289534843
 20
6.218838075020513
 10
3.981260854766169
 20
6.279445861841745
 10
3.973065344032598
 20
6.337973596202484
 10
3.965160885585675
 20
6.394420713434549
 10
3.957547600217218
 20
6.448786668327
 10
3.950824639981837
 20
6.496793434400305
 10
3.944346524205725
 20
6.543050613782172
 10
3.938113330922449
 20
6.587557830110235
 10
3.932125133825993
 20
6.630314721048058
 10
3.926382002470582
 20
6.671320938334508
 10
3.920884002461896
 20
6.710576147826855
 10
3.915177986455166
 20
6.751315813040475
 10
3.90976257354923
 20
6.789979944988125
 10
3.90463783388253
 20
6.826568170026077
 10
3.899803833036614
 20
6.861080134507348
 10
3.895260632257189
 20
6.893515504810827
 10
3.891895016996006
 20
6.917543439268516
 10
3.888708987593364
 20
6.94028905728066
 10
3.885702568591101
 20
6.961752223091401
 10
3.882870083811097
 20
6.981973495898566
 10
3.879973479434868
 20
7.002652354645152
 10
3.876003735369707
 20
7.03099207014455
 10
3.871725540345309
 20
7.061533423416094
 10
3.867138839401304
 20
7.094276726576015
 10
3.862243573967633
 20
7.129222314257911
 10
3.857039681919221
 20
7.166370543617368
 10
3.851527097633923
 20
7.205721794335821
 10
3.845705752053689
 20
7.247276468623452
 10
3.839575572749062
 20
7.291034991220921
 10
3.83313648398699
 20
7.336997809399728
 10
3.826388406801976
 20
7.38516539296096
 10
3.819331259070702
 20
7.435538234232172
 10
3.811964955590012
 20
7.488116848062205
 10
3.804289408158442
 20
7.542901771813595
 10
3.796304525661239
 20
7.599893565352392
 10
3.788713227594397
 20
7.65407521354257
 10
3.784663869714563
 20
7.682976355484032
  0
LINE
  5
A7
330
1F
100
AcDbEntity
  8
0
  6
CONTINUOUS
100
AcDbLine
 10
14.69148684847279
 20
8.016309688817367
 30
0.0
 11
14.69148684847279
 21
7.682976355484032
 31
0.0
  0
LINE
  5
A8
330
1F
100
AcDbEntity
  8
0
  6
CONTINUOUS
100
AcDbLine
 10
14.69148684847279
 20
8.016309688817367
 30
0.0
 11
8.691486848472669
 21
8.016309688817367
 31
0.0
  0
LINE
  5
A9
330
1F
100
AcDbEntity
  8
0
  6
CONTINUOUS
100
AcDbLine
 10
8.691486848472669
 20
8.016309688817367
 30
0.0
 11
8.691486848472669
 21
7.682976355484032
 31
0.0
  0
LINE
  5
AA
330
1F
100
AcDbEntity
  8
0
  6
CONTINUOUS
100
AcDbLine
 10
8.691486848472669
 20
7.682976355484032
 30
0.0
 11
14.69148684847279
 21
7.682976355484032
 31
0.0
  0
LINE
  5
AB
330
1F
100
AcDbEntity
  8
0
  6
CONTINUOUS
100
AcDbLine
 10
3.358153515139454
 20
8.016309688817367
 30
0.0
 11
3.358153515139454
 21
7.682976355484032
 31
0.0
  0
LINE
  5
AC
330
1F
100
AcDbEntity
  8
0
  6
CONTINUOUS
100
AcDbLine
 10
8.691486848472669
 20
8.016309688817367
 30
0.0
 11
3.358153515139454
 21
8.016309688817367
 31
0.0
  0
LINE
  5
AD
330
1F
100
AcDbEntity
  8
0
  6
CONTINUOUS
100
AcDbLine
 10
3.358153515139454
 20
7.682976355484032
 30
0.0
 11
8.691486848472669
 21
7.682976355484032
 31
0.0
  0
LINE
  5
AE
330
1F
100
AcDbEntity
  8
0
  6
CONTINUOUS
100
AcDbLine
 10
9.838153515139454
 20
7.667629815724454
 30
0.0
 11
11.54482018180612
 21
7.667629815724454
 31
0.0
  0
LINE
  5
AF
330
1F
100
AcDbEntity
  8
0
  6
CONTINUOUS
100
AcDbLine
 10
11.54482018180612
 20
7.682976355484032
 30
0.0
 11
11.54482018180612
 21
7.667629815724454
 31
0.0
  0
LINE
  5
B0
330
1F
100
AcDbEntity
  8
0
  6
CONTINUOUS
100
AcDbLine
 10
9.838153515139454
 20
7.682976355484032
 30
0.0
 11
9.838153515139454
 21
7.667629815724454
 31
0.0
  0
LINE
  5
B1
330
1F
100
AcDbEntity
  8
0
  6
CONTINUOUS
100
AcDbLine
 10
9.838153515139454
 20
7.524177835892843
 30
0.0
 11
11.54482018180612
 21
7.524177835892842
 31
0.0
  0
LINE
  5
B2
330
1F
100
AcDbEntity
  8
0
  6
CONTINUOUS
100
AcDbLine
 10
11.54482018180612
 20
7.667629815724454
 30
0.0
 11
11.54482018180612
 21
7.524177835892842
 31
0.0
  0
LINE
  5
B3
330
1F
100
AcDbEntity
  8
0
  6
CONTINUOUS
100
AcDbLine
 10
9.838153515139454
 20
7.667629815724454
 30
0.0
 11
9.838153515139454
 21
7.524177835892843
 31
0.0
  0
LWPOLYLINE
  5
B4
330
1F
100
AcDbEntity
  8
0
  6
CONTINUOUS
100
AcDbPolyline
 90
        5
 70
   128
 43
0.0
 10
3.871942809744652
 20
7.682976355484032
 10
3.919970832315389
 20
7.310615033290694
 10
3.998193477897553
 20
6.704106315932587
 10
4.127311971030657
 20
5.702835169350279
 10
4.256400941018727
 20
4.701561608739651
  0
LWPOLYLINE
  5
B5
330
1F
100
AcDbEntity
  8
0
  6
CONTINUOUS
100
AcDbPolyline
 90
       14
 70
   128
 43
0.0
 10
8.952642359725107
 20
4.732017684563539
 10
7.430806348137588
 20
4.698803207708666
 10
7.177161988517369
 20
4.693218461919582
 10
6.923515515022421
 20
4.687583794183782
 10
6.669835808505792
 20
4.682375743059809
 10
6.416091749820528
 20
4.67807084710621
 10
6.162252219819675
 20
4.675145644881523
 10
5.908286099356278
 20
4.674076674944298
 10
5.701948088242456
 20
4.674979664800915
 10
5.495524950766972
 20
4.677342888154129
 10
5.289047851981472
 20
4.680691556157063
 10
5.082547956937606
 20
4.684550879962841
 10
4.669485068409496
 20
4.69282564379181
 10
4.256400941018727
 20
4.701561608739651
  0
LINE
  5
B6
330
1F
100
AcDbEntity
  8
0
  6
CONTINUOUS
100
AcDbLine
 10
8.855114601406958
 20
7.682976355484032
 30
0.0
 11
8.952642359725107
 21
4.732017684563539
 31
0.0
  0
ARC
  5
B7
330
1F
100
AcDbEntity
  8
0
  6
CONTINUOUS
100
AcDbCircle
 10
5.755146156612847
 20
7.65872912681589
 30
0.0
 40
0.1868286393404743
100
AcDbArc
 50
172.5327760288983
 51
183.6393311648879
  0
LWPOLYLINE
  5
B8
330
1F
100
AcDbEntity
  8
0
  6
CONTINUOUS
100
AcDbPolyline
 90
       59
 70
   128
 43
0.0
 10
5.873033483197595
 20
7.682976355484032
 10
5.874416433011848
 20
7.677234914759339
 10
5.876403052560213
 20
7.667172747430339
 10
5.877853396556876
 20
7.657039266189749
 10
5.878762370615648
 20
7.646870065260009
 10
5.879126781931997
 20
7.63670086433027
 10
5.878945350497886
 20
7.62656738308968
 10
5.87821871359784
 20
7.616505215760681
 10
5.876949423570476
 20
7.606549706072994
 10
5.875141938843306
 20
7.596735823117491
 10
5.872802608272355
 20
7.587098038515977
 10
5.869939648841576
 20
7.577670205338368
 10
5.866563116800382
 20
7.568485439192547
 10
5.862684872340713
 20
7.55957600190458
 10
5.858318537937678
 20
7.550973188197884
 10
5.85347945050012
 20
7.542707215769357
 10
5.848184607499147
 20
7.534807119148627
 10
5.842452607263911
 20
7.527300647713201
 10
5.836303583654292
 20
7.520214168217767
 10
5.82975913533998
 20
7.513572572180006
 10
5.822842249934366
 20
7.507399188448229
 10
5.815577223249706
 20
7.501715701257946
 10
5.807989573957193
 20
7.496542074065196
 10
5.800105953951703
 20
7.491896479424185
 10
5.791954054736027
 20
7.487795235155518
 10
5.783562510153473
 20
7.48425274702927
 10
5.774960795810438
 20
7.481281458164179
 10
5.766179125542269
 20
7.478891805320755
 10
5.757248345286061
 20
7.477092182241761
 10
5.74819982473318
 20
7.475888910168901
 10
5.739065347142084
 20
7.475286215639212
 10
5.729876997698454
 20
7.475286215639212
 10
5.720667050814828
 20
7.475888910168902
 10
5.711467856765532
 20
7.477092182241763
 10
5.702311728055164
 20
7.478891805320755
 10
5.693230825919767
 20
7.481281458164181
 10
5.684257047359276
 20
7.484252747029271
 10
5.675421913098174
 20
7.48779523515552
 10
5.666756456867783
 20
7.491896479424187
 10
5.658291116399153
 20
7.496542074065199
 10
5.65005562650942
 20
7.501715701257947
 10
5.642078914657183
 20
7.507399188448231
 10
5.634388999333745
 20
7.513572572180008
 10
5.627012891647142
 20
7.520214168217768
 10
5.619976500444636
 20
7.527300647713204
 10
5.613304541306955
 20
7.53480711914863
 10
5.607020449733909
 20
7.54270721576936
 10
5.60114629882633
 20
7.550973188197887
 10
5.595702721753525
 20
7.559576001904584
 10
5.590708839278496
 20
7.568485439192549
 10
5.58618219259557
 20
7.577670205338371
 10
5.582138681716312
 20
7.58709803851598
 10
5.578592509620159
 20
7.596735823117494
 10
5.575556132365932
 20
7.606549706072998
 10
5.573040215339476
 20
7.616505215760684
 10
5.571053595791111
 20
7.626567383089684
 10
5.56960325179445
 20
7.636700864330274
 10
5.568694277735676
 20
7.646870065260011
 10
5.568694277735676
 20
7.646870065260011
  0
LWPOLYLINE
  5
B9
330
1F
100
AcDbEntity
  8
0
  6
CONTINUOUS
100
AcDbPolyline
 90
        4
 70
   128
 43
0.0
 10
12.57503265569454
 20
4.784962559360218
 10
11.09718834926554
 20
4.757580234860204
 10
10.3582547244879
 20
4.744453745857367
 10
8.952642359725107
 20
4.732017684563539
  0
LWPOLYLINE
  5
BA
330
1F
100
AcDbEntity
  8
0
  6
CONTINUOUS
100
AcDbPolyline
 90
        4
 70
   128
 43
0.0
 10
12.57503265569454
 20
4.784962559360218
 10
12.93084308102182
 20
5.630663256708868
 10
13.28667906423108
 20
6.476353407345373
 10
13.79442830047254
 20
7.682976355484032
  0
LWPOLYLINE
  5
BB
330
1F
100
AcDbEntity
  8
0
  6
CONTINUOUS
100
AcDbPolyline
 90
       17
 70
   128
 43
0.0
 10
12.8260735633871
 20
4.783000355858088
 10
12.82616549809843
 20
4.782999630708896
 10
12.82485482688128
 20
4.78300996590491
 10
12.8214001859872
 20
4.783037195856048
 10
12.81580369130138
 20
4.783081284412333
 10
12.808067458709
 20
4.783142195423787
 10
12.79819360409527
 20
4.783219892740428
 10
12.78591985348888
 20
4.78331641223892
 10
12.77142359755213
 20
4.783430304796763
 10
12.75471141490746
 20
4.783561459800704
 10
12.73578988417729
 20
4.783709766637487
 10
12.71466558398408
 20
4.783875114693858
 10
12.69113609616239
 20
4.784057954915859
 10
12.66533976220828
 20
4.784257128847215
 10
12.63734487933607
 20
4.784473627134207
 10
12.60721974476005
 20
4.784708440423115
 10
12.57503265569454
 20
4.784962559360218
  0
LWPOLYLINE
  5
BC
330
1F
100
AcDbEntity
  8
0
  6
CONTINUOUS
100
AcDbPolyline
 90
        9
 70
   128
 43
0.0
 10
4.256400941018727
 20
4.701561608739651
 10
4.243116277646869
 20
4.702296774696752
 10
4.231571931981404
 20
4.703131107156482
 10
4.221882715695057
 20
4.704057060714143
 10
4.214025480265718
 20
4.705068371157849
 10
4.208007702350652
 20
4.706157813688214
 10
4.203824031050762
 20
4.707320168093125
 10
4.201475374310904
 20
4.708550715167598
 10
4.201148385894843
 20
4.709383226914408
  0
LWPOLYLINE
  5
BD
330
1F
100
AcDbEntity
  8
0
  6
CONTINUOUS
100
AcDbPolyline
 90
       36
 70
   128
 43
0.0
 10
5.578416194998222
 20
7.682976355484032
 10
5.578095820619557
 20
7.680007871650026
 10
5.577369183719513
 20
7.669945704321026
 10
5.5771877522854
 20
7.659812223080436
 10
5.577552163601749
 20
7.649643022150696
 10
5.578461137660521
 20
7.639473821220957
 10
5.579911481657184
 20
7.629340339980367
 10
5.581898101205551
 20
7.619278172651366
 10
5.584414018232006
 20
7.609322662963681
 10
5.587450395486234
 20
7.599508780008178
 10
5.590996567582386
 20
7.589870995406664
 10
5.595040078461643
 20
7.580443162229054
 10
5.599566725144573
 20
7.571258396083233
 10
5.604560607619601
 20
7.562348958795267
 10
5.610004184692407
 20
7.55374614508857
 10
5.615878335599983
 20
7.545480172660044
 10
5.622162427173032
 20
7.537580076039314
 10
5.62883438631071
 20
7.530073604603888
 10
5.635870777513217
 20
7.522987125108453
 10
5.643246885199822
 20
7.516345529070692
 10
5.650936800523259
 20
7.510172145338915
 10
5.658913512375496
 20
7.504488658148631
 10
5.667149002265229
 20
7.499315030955883
 10
5.675614342733858
 20
7.494669436314871
 10
5.684279798964251
 20
7.490568192046205
 10
5.693114933225354
 20
7.487025703919955
 10
5.702088711785844
 20
7.484054415054866
 10
5.711169613921242
 20
7.481664762211441
 10
5.720325742631608
 20
7.479865139132449
 10
5.729524936680908
 20
7.478661867059588
 10
5.738734883564536
 20
7.478059172529899
 10
5.747923233008163
 20
7.478059172529899
 10
5.757057710599257
 20
7.478661867059588
 10
5.766106231152136
 20
7.479865139132449
 10
5.775037011408345
 20
7.481664762211442
 10
5.77991741057904
 20
7.482914830897638
  0
LINE
  5
BE
330
1F
100
AcDbEntity
  8
0
  6
CONTINUOUS
100
AcDbLine
 10
6.158153515139455
 20
4.562006314129406
 30
0.0
 11
6.331486848472788
 21
4.562006314129406
 31
0.0
  0
LINE
  5
BF
330
1F
100
AcDbEntity
  8
0
  6
CONTINUOUS
100
AcDbLine
 10
5.984820181806123
 20
4.562006314129406
 30
0.0
 11
6.158153515139455
 21
4.562006314129406
 31
0.0
  0
LINE
  5
C0
330
1F
100
AcDbEntity
  8
0
  6
CONTINUOUS
100
AcDbLine
 10
6.158153515139455
 20
4.671203224277832
 30
0.0
 11
6.569696934833386
 21
4.671203224277832
 31
0.0
  0
LINE
  5
C1
330
1F
100
AcDbEntity
  8
0
  6
CONTINUOUS
100
AcDbLine
 10
5.746610095445523
 20
4.671203224277832
 30
0.0
 11
6.158153515139455
 21
4.671203224277832
 31
0.0
  0
LINE
  5
C2
330
1F
100
AcDbEntity
  8
0
  6
CONTINUOUS
100
AcDbLine
 10
6.504965398171481
 20
4.649302320104264
 30
0.0
 11
5.811341632107426
 21
4.649302320104264
 31
0.0
  0
LINE
  5
C3
330
1F
100
AcDbEntity
  8
0
100
AcDbLine
 10
10.69148684847278
 20
11.47429639252169
 30
0.0
 11
10.69148684847278
 21
11.48168390539809
 31
0.0
  0
ARC
  5
C4
330
1F
100
AcDbEntity
  8
0
100
AcDbCircle
 10
4.467547713399415
 20
14.40762972585504
 30
0.0
 40
8.345699328856307
100
AcDbArc
 50
346.0139332757865
 51
13.98606672421265
  0
ARC
  5
C5
330
1F
100
AcDbEntity
  8
0
100
AcDbCircle
 10
6.582623970303041
 20
14.40762972585502
 30
0.0
 40
7.676754627710833
100
AcDbArc
 50
341.4123081038453
 51
18.58769189615393
  0
ARC
  5
C6
330
1F
100
AcDbEntity
  8
0
100
AcDbCircle
 10
12.11070232475981
 20
15.66883001128515
 30
0.0
 40
7.892332555722457
100
AcDbArc
 50
174.5721877996508
 51
186.7233904456519
  0
ARC
  5
C7
330
1F
100
AcDbEntity
  8
0
100
AcDbCircle
 10
11.87140917932372
 20
15.65745347722293
 30
0.0
 40
8.104040686086237
100
AcDbArc
 50
171.4459739230845
 51
188.5742244483543
  0
LINE
  5
C8
330
1F
100
AcDbEntity
  8
0
  6
CONTINUOUS
100
AcDbLine
 10
14.65236524255055
 20
11.94103395634097
 30
0.0
 11
13.85893532477541
 21
11.96062039059367
 31
0.0
  0
LINE
  5
C9
330
1F
100
AcDbEntity
  8
0
  6
CONTINUOUS
100
AcDbLine
 10
14.65236524255055
 20
11.94103395634097
 30
0.0
 11
14.65236524255055
 21
16.87422549536908
 31
0.0
  0
LINE
  5
CA
330
1F
100
AcDbEntity
  8
0
  6
CONTINUOUS
100
AcDbLine
 10
14.65236524255055
 20
16.87422549536908
 30
0.0
 11
13.8589353247754
 21
16.85463906111637
 31
0.0
  0
ARC
  5
CB
330
1F
100
AcDbEntity
  8
0
  6
CONTINUOUS
100
AcDbCircle
 10
6.586834052218177
 20
14.40762116633831
 30
0.0
 40
7.672767003871062
100
AcDbArc
 50
341.4022263341455
 51
18.59777366585372
  0
LINE
  5
CC
330
1F
100
AcDbEntity
  8
0
  6
CONTINUOUS
100
AcDbLine
 10
3.857517441941883
 20
16.86286405593217
 30
0.0
 11
3.397275121061685
 21
16.87422549536908
 31
0.0
  0
LINE
  5
CD
330
1F
100
AcDbEntity
  8
0
  6
CONTINUOUS
100
AcDbLine
 10
3.397275121061685
 20
14.6668375141535
 30
0.0
 11
3.397275121061685
 21
16.87422549536908
 31
0.0
  0
LINE
  5
CE
330
1F
100
AcDbEntity
  8
0
  6
CONTINUOUS
100
AcDbLine
 10
3.857942880983634
 20
14.44921785156513
 30
0.0
 11
3.397275121061685
 21
14.6668375141535
 31
0.0
  0
ARC
  5
CF
330
1F
100
AcDbEntity
  8
0
  6
CONTINUOUS
100
AcDbCircle
 10
11.87171466158437
 20
15.65748705618795
 30
0.0
 40
8.104347760455034
100
AcDbArc
 50
171.4460606080739
 51
188.5741372016195
  0
LINE
  5
D0
330
1F
100
AcDbEntity
  8
0
  6
CONTINUOUS
100
AcDbLine
 10
8.691486848472669
 20
11.27429639252169
 30
0.0
 11
3.358153515139454
 21
13.94096305918836
 31
0.0
  0
LINE
  5
D1
330
1F
100
AcDbEntity
  8
0
  6
CONTINUOUS
100
AcDbLine
 10
14.69148684847279
 20
11.27429639252169
 30
0.0
 11
8.691486848472669
 21
11.27429639252169
 31
0.0
  0
LINE
  5
D2
330
1F
100
AcDbEntity
  8
0
  6
CONTINUOUS
100
AcDbLine
 10
9.858153515139456
 20
11.94096305918836
 30
0.0
 11
8.848865500139197
 21
11.94096305918836
 31
0.0
  0
LINE
  5
D3
330
1F
100
AcDbEntity
  8
0
  6
CONTINUOUS
100
AcDbLine
 10
8.848865500139197
 20
11.94096305918836
 30
0.0
 11
3.391486848472785
 21
14.66965238502162
 31
0.0
  0
LINE
  5
D4
330
1F
100
AcDbEntity
  8
0
  6
CONTINUOUS
100
AcDbLine
 10
3.391486848472785
 20
14.66965238502162
 30
0.0
 11
3.391486848472785
 21
16.87429639252169
 31
0.0
  0
LINE
  5
D5
330
1F
100
AcDbEntity
  8
0
  6
CONTINUOUS
100
AcDbLine
 10
3.391486848472785
 20
16.87429639252169
 30
0.0
 11
14.65815351513945
 21
16.87429639252169
 31
0.0
  0
LINE
  5
D6
330
1F
100
AcDbEntity
  8
0
  6
CONTINUOUS
100
AcDbLine
 10
14.65815351513945
 20
11.94096305918836
 30
0.0
 11
14.65815351513945
 21
16.87429639252169
 31
0.0
  0
LINE
  5
D7
330
1F
100
AcDbEntity
  8
0
  6
CONTINUOUS
100
AcDbLine
 10
14.65815351513945
 20
11.94096305918836
 30
0.0
 11
11.52482018180612
 21
11.94096305918836
 31
0.0
  0
LINE
  5
D8
330
1F
100
AcDbEntity
  8
0
  6
CONTINUOUS
100
AcDbLine
 10
11.52482018180612
 20
11.94096305918836
 30
0.0
 11
11.52482018180612
 21
11.47429639252169
 31
0.0
  0
LINE
  5
D9
330
1F
100
AcDbEntity
  8
0
  6
CONTINUOUS
100
AcDbLine
 10
9.858153515139456
 20
11.47429639252169
 30
0.0
 11
11.52482018180612
 21
11.47429639252169
 31
0.0
  0
LINE
  5
DA
330
1F
100
AcDbEntity
  8
0
  6
CONTINUOUS
100
AcDbLine
 10
9.858153515139456
 20
11.94096305918836
 30
0.0
 11
9.858153515139456
 21
11.47429639252169
 31
0.0
  0
LINE
  5
DB
330
1F
100
AcDbEntity
  8
0
  6
CONTINUOUS
100
AcDbLine
 10
3.358153515139454
 20
13.94096305918836
 30
0.0
 11
3.358153515139454
 21
17.27429639252169
 31
0.0
  0
LINE
  5
DC
330
1F
100
AcDbEntity
  8
0
  6
CONTINUOUS
100
AcDbLine
 10
14.69148684847279
 20
17.27429639252169
 30
0.0
 11
14.69148684847279
 21
11.27429639252169
 31
0.0
  0
LINE
  5
DD
330
1F
100
AcDbEntity
  8
0
  6
CONTINUOUS
100
AcDbLine
 10
3.358153515139454
 20
17.27429639252169
 30
0.0
 11
14.69148684847279
 21
17.27429639252169
 31
0.0
  0
LWPOLYLINE
  5
DE
330
1F
100
AcDbEntity
  8
0
  6
CONTINUOUS
100
AcDbPolyline
 90
       14
 70
   128
 43
0.0
 10
4.253757679847939
 20
16.41537807866412
 10
4.679977076551031
 20
16.41460800124784
 10
5.106208303568166
 20
16.4139721194384
 10
5.532450086277183
 20
16.41351310682898
 10
5.958742532434188
 20
16.41327844084192
 10
6.385040142533906
 20
16.41328657206287
 10
6.811332169706593
 20
16.41353653439416
 10
7.32015080600293
 20
16.41411186931365
 10
7.828954889472948
 20
16.4149184998463
 10
8.337745513808052
 20
16.41590428162206
 10
8.846523772699645
 20
16.41701707027084
 10
10.0219574265058
 20
16.4182047214226
 10
11.29390735525145
 20
16.42135033848068
 10
12.5658348508529
 20
16.42466783333541
  0
LINE
  5
DF
330
1F
100
AcDbEntity
  8
0
  6
CONTINUOUS
100
AcDbLine
 10
13.8589353247754
 20
16.85463906111637
 30
0.0
 11
12.5658348508529
 21
16.42466783333541
 31
0.0
  0
ELLIPSE
  5
E0
330
1F
100
AcDbEntity
  8
0
  6
CONTINUOUS
100
AcDbEllipse
 10
14.65815351513945
 20
16.86962972585502
 30
0.0
 11
-0.0333333333327235
 21
0.0000000000000079
 31
0.0
210
0.0
220
0.0
230
-1.0
 40
0.1400000000025192
 41
1.396263401592275
 42
1.570796326794863
  0
ELLIPSE
  5
E1
330
1F
100
AcDbEntity
  8
0
  6
CONTINUOUS
100
AcDbEllipse
 10
3.391486848472785
 20
16.86962972585502
 30
0.0
 11
-0.0333333333333315
 21
0.0
 31
0.0
210
0.0
220
0.0
230
-1.0
 40
0.1400000000000725
 41
1.570796326794896
 42
1.745329251994577
  0
LINE
  5
E2
330
1F
100
AcDbEntity
  8
0
  6
CONTINUOUS
100
AcDbLine
 10
3.857517441941883
 20
16.86286405593217
 30
0.0
 11
4.253757679847939
 21
16.41537807866412
 31
0.0
  0
ELLIPSE
  5
E3
330
1F
100
AcDbEntity
  8
0
  6
CONTINUOUS
100
AcDbEllipse
 10
14.65815351513945
 20
11.94562972585502
 30
0.0
 11
-0.0333333333335732
 21
0.0000000000000022
 31
0.0
210
0.0
220
0.0
230
-1.0
 40
0.1399999999990038
 41
4.712388980384679
 42
4.886921905582909
  0
ELLIPSE
  5
E4
330
1F
100
AcDbEntity
  8
0
  6
CONTINUOUS
100
AcDbEllipse
 10
3.391486848472785
 20
14.67486987696912
 30
0.0
 11
-0.0332661143262332
 21
0.0169642373923758
 31
0.0
210
0.0
220
0.0
230
-0.9999999999999998
 40
0.1247231351289573
 41
4.474338367303925
 42
4.648871292503375
  0
LWPOLYLINE
  5
E5
330
1F
100
AcDbEntity
  8
0
  6
CONTINUOUS
100
AcDbPolyline
 90
       14
 70
   128
 43
0.0
 10
8.956753174391602
 20
12.39798258125589
 10
7.436778464350267
 20
13.1631701741837
 10
7.18344600033164
 20
13.29071387329699
 10
6.930112775193027
 20
13.41826860654047
 10
6.676746929710784
 20
13.54577417838271
 10
6.423316604661263
 20
13.67317039329229
 10
6.169789940820814
 20
13.80039705573777
 10
5.916135078965801
 20
13.92739397018773
 10
5.710846142000171
 20
14.02989513756149
 10
5.505471279601154
 20
14.13220822585963
 10
5.3000424096843
 20
14.23439378575491
 10
5.094591450165159
 20
14.33651236792004
 10
4.683628780703802
 20
14.54069855987988
 10
4.272645836582828
 20
14.74482586721256
  0
LINE
  5
E6
330
1F
100
AcDbEntity
  8
0
  6
CONTINUOUS
100
AcDbLine
 10
3.857942880983634
 20
14.44921785156513
 30
0.0
 11
4.272645836582828
 21
14.74482586721256
 31
0.0
  0
LINE
  5
E7
330
1F
100
AcDbEntity
  8
0
  6
CONTINUOUS
100
AcDbLine
 10
8.848865500139197
 20
11.94096305918836
 30
0.0
 11
8.956753174391602
 21
12.39798258125589
 31
0.0
  0
LWPOLYLINE
  5
E8
330
1F
100
AcDbEntity
  8
0
  6
CONTINUOUS
100
AcDbPolyline
 90
      107
 70
   128
 43
0.0
 10
5.887620256481723
 20
13.47897809243961
 10
5.88671128242295
 20
13.47784084775009
 10
5.885260938426288
 20
13.47697987904524
 10
5.883274318877921
 20
13.47639821050901
 10
5.880758401851467
 20
13.47609788527338
 10
5.87772202459724
 20
13.47607995824167
 10
5.874175852501085
 20
13.47634449238324
 10
5.870132341621829
 20
13.47689055851228
 10
5.865605694938901
 20
13.47771623855158
 10
5.860611812463872
 20
13.47881863226989
 10
5.855168235391067
 20
13.48019386746908
 10
5.84929408448349
 20
13.48183711358534
 10
5.84300999291044
 20
13.48374259865677
 10
5.83633803377276
 20
13.48590362959756
 10
5.829301642570255
 20
13.4883126157077
 10
5.821925534883652
 20
13.49096109533564
 10
5.814235619560214
 20
13.49383976560008
 10
5.806258907707977
 20
13.49693851506673
 10
5.798023417818242
 20
13.50024645926507
 10
5.789558077349614
 20
13.50375197892046
 10
5.780892621119223
 20
13.50744276076726
 10
5.77205748685812
 20
13.51130584079963
 10
5.76308370829763
 20
13.51532764980805
 10
5.754002806162231
 20
13.51949406104171
 10
5.744846677451864
 20
13.5237904398292
 10
5.735647483402566
 20
13.52820169498333
 10
5.726437536518938
 20
13.53271233180947
 10
5.71724918707531
 20
13.53730650653129
 10
5.708114709484213
 20
13.5419680819425
 10
5.699066188931334
 20
13.54668068408947
 10
5.690135408675129
 20
13.55142775978527
 10
5.681353738406956
 20
13.55619263475339
 10
5.672752024063923
 20
13.56095857219672
 10
5.664360479481368
 20
13.56570883158619
 10
5.656208580265694
 20
13.57042672746242
 10
5.6483249602602
 20
13.57509568804409
 10
5.640737310967688
 20
13.57969931343687
 10
5.633472284283032
 20
13.58422143323867
 10
5.626555398877416
 20
13.58864616333876
 10
5.620010950563106
 20
13.59295796171128
 10
5.613861926953486
 20
13.5971416830072
 10
5.608129926718248
 20
13.60118263175287
 10
5.602835083717277
 20
13.60506661396845
 10
5.597995996279719
 20
13.60877998702475
 10
5.593629661876684
 20
13.61230970756349
 10
5.589751417417017
 20
13.61564337731252
 10
5.586374885375821
 20
13.61876928663528
 10
5.583511925945041
 20
13.62167645566127
 10
5.581172595374091
 20
13.62435467285325
 10
5.579365110646921
 20
13.62679453087566
 10
5.578095820619557
 20
13.6289874596382
 10
5.577369183719513
 20
13.63092575639863
 10
5.5771877522854
 20
13.63260261281887
 10
5.577552163601749
 20
13.6340121388796
 10
5.578461137660521
 20
13.63514938356911
 10
5.579911481657184
 20
13.63601035227397
 10
5.581898101205551
 20
13.63659202081019
 10
5.584414018232006
 20
13.63689234604582
 10
5.587450395486234
 20
13.63691027307753
 10
5.590996567582386
 20
13.63664573893596
 10
5.595040078461643
 20
13.63609967280693
 10
5.599566725144573
 20
13.63527399276763
 10
5.604560607619601
 20
13.63417159904932
 10
5.610004184692407
 20
13.63279636385013
 10
5.615878335599983
 20
13.63115311773386
 10
5.622162427173032
 20
13.62924763266244
 10
5.62883438631071
 20
13.62708660172165
 10
5.635870777513217
 20
13.6246776156115
 10
5.643246885199822
 20
13.62202913598356
 10
5.650936800523259
 20
13.61915046571913
 10
5.658913512375496
 20
13.61605171625248
 10
5.667149002265229
 20
13.61274377205414
 10
5.675614342733858
 20
13.60923825239875
 10
5.684279798964251
 20
13.60554747055195
 10
5.693114933225354
 20
13.60168439051958
 10
5.702088711785844
 20
13.59766258151116
 10
5.711169613921242
 20
13.59349617027749
 10
5.720325742631608
 20
13.58919979149
 10
5.729524936680908
 20
13.58478853633588
 10
5.738734883564536
 20
13.58027789950973
 10
5.747923233008163
 20
13.57568372478791
 10
5.757057710599257
 20
13.5710221493767
 10
5.766106231152136
 20
13.56630954722974
 10
5.775037011408345
 20
13.56156247153394
 10
5.783818681676516
 20
13.55679759656582
 10
5.792420396019551
 20
13.55203165912248
 10
5.800811940602104
 20
13.54728139973302
 10
5.80896383981778
 20
13.54256350385679
 10
5.816847459823272
 20
13.53789454327511
 10
5.824435109115784
 20
13.53329091788234
 10
5.831700135800442
 20
13.52876879808053
 10
5.838617021206056
 20
13.52434406798045
 10
5.845161469520368
 20
13.52003226960793
 10
5.851310493129986
 20
13.51584854831201
 10
5.857042493365224
 20
13.51180759956633
 10
5.862337336366195
 20
13.50792361735075
 10
5.867176423803755
 20
13.50421024429445
 10
5.871542758206787
 20
13.50068052375572
 10
5.875421002666454
 20
13.49734685400669
 10
5.878797534707651
 20
13.49422094468392
 10
5.881660494138431
 20
13.49131377565794
 10
5.88399982470938
 20
13.48863555846596
 10
5.88580730943655
 20
13.48619570044355
 10
5.887076599463913
 20
13.484002771681
 10
5.887803236363959
 20
13.48206447492058
 10
5.88798466779807
 20
13.48038761850034
 10
5.887620256481723
 20
13.47897809243961
  0
LINE
  5
E9
330
1F
100
AcDbEntity
  8
0
  6
CONTINUOUS
100
AcDbLine
 10
11.52482018180612
 20
12.00763686676607
 30
0.0
 11
11.52482018180612
 21
11.94096305918836
 31
0.0
  0
LINE
  5
EA
330
1F
100
AcDbEntity
  8
0
  6
CONTINUOUS
100
AcDbLine
 10
12.5658348508529
 20
12.39059161837466
 30
0.0
 11
13.85893532477541
 21
11.96062039059367
 31
0.0
  0
LWPOLYLINE
  5
EB
330
1F
100
AcDbEntity
  8
0
  6
CONTINUOUS
100
AcDbPolyline
 90
        4
 70
   128
 43
0.0
 10
12.5658348508529
 20
12.39059161837466
 10
11.09464451671775
 20
12.39441193275065
 10
10.35903828424344
 20
12.39624354316474
 10
8.956753174391602
 20
12.39798258125589
  0
LINE
  5
EC
330
1F
100
AcDbEntity
  8
0
  6
CONTINUOUS
100
AcDbLine
 10
9.858153515139456
 20
12.00763686676607
 30
0.0
 11
9.858153515139456
 21
11.94096305918836
 31
0.0
  0
LINE
  5
ED
330
1F
100
AcDbEntity
  8
0
  6
CONTINUOUS
100
AcDbLine
 10
9.858153515139456
 20
12.00763686676607
 30
0.0
 11
11.52482018180612
 21
12.00763686676607
 31
0.0
  0
ARC
  5
EE
330
1F
100
AcDbEntity
  8
0
  6
CONTINUOUS
100
AcDbCircle
 10
12.11021209910642
 20
15.66898074366282
 30
0.0
 40
7.891863351269769
100
AcDbArc
 50
174.5704131921581
 51
186.7248939379738
  0
ARC
  5
EF
330
1F
100
AcDbEntity
  8
0
  6
CONTINUOUS
100
AcDbCircle
 10
4.467454912431083
 20
14.40762911693282
 30
0.0
 40
8.345789525892683
100
AcDbArc
 50
346.0140831974683
 51
13.98591680253082
  0
LWPOLYLINE
  5
F0
330
1F
100
AcDbEntity
  8
0
  6
CONTINUOUS
100
AcDbPolyline
 90
       40
 70
   128
 43
0.0
 10
5.869415622264044
 20
13.47700805221795
 10
5.866563116800382
 20
13.47963108227454
 10
5.862684872340713
 20
13.48296475202358
 10
5.858318537937678
 20
13.48649447256231
 10
5.85347945050012
 20
13.49020784561861
 10
5.848184607499147
 20
13.49409182783419
 10
5.842452607263911
 20
13.49813277657986
 10
5.836303583654292
 20
13.50231649787578
 10
5.82975913533998
 20
13.5066282962483
 10
5.822842249934366
 20
13.51105302634839
 10
5.815577223249706
 20
13.51557514615019
 10
5.807989573957193
 20
13.52017877154297
 10
5.800105953951703
 20
13.52484773212464
 10
5.791954054736027
 20
13.52956562800088
 10
5.783562510153473
 20
13.53431588739034
 10
5.774960795810438
 20
13.53908182483368
 10
5.766179125542269
 20
13.5438466998018
 10
5.757248345286061
 20
13.5485937754976
 10
5.74819982473318
 20
13.55330637764456
 10
5.739065347142084
 20
13.55796795305577
 10
5.729876997698454
 20
13.56256212777759
 10
5.720667050814828
 20
13.56707276460373
 10
5.711467856765532
 20
13.57148401975786
 10
5.702311728055164
 20
13.57578039854535
 10
5.693230825919767
 20
13.57994680977901
 10
5.684257047359276
 20
13.58396861878744
 10
5.675421913098174
 20
13.58783169881981
 10
5.666756456867783
 20
13.5915224806666
 10
5.658291116399153
 20
13.595028000322
 10
5.65005562650942
 20
13.59833594452034
 10
5.642078914657183
 20
13.60143469398698
 10
5.634388999333745
 20
13.60431336425142
 10
5.627012891647142
 20
13.60696184387936
 10
5.619976500444636
 20
13.6093708299895
 10
5.613304541306955
 20
13.61153186093029
 10
5.607020449733909
 20
13.61343734600172
 10
5.60114629882633
 20
13.61508059211798
 10
5.595702721753525
 20
13.61645582731717
 10
5.590708839278496
 20
13.61755822103549
 10
5.586898911955493
 20
13.61826640737238
  0
CIRCLE
  5
F1
330
1F
100
AcDbEntity
  8
0
  6
CONTINUOUS
100
AcDbCircle
 10
6.158153515139455
 20
14.40762972585504
 30
0.0
 40
0.4111434996699366
  0
CIRCLE
  5
F2
330
1F
100
AcDbEntity
  8
0
  6
CONTINUOUS
100
AcDbCircle
 10
6.158153515139455
 20
14.40762972585504
 30
0.0
 40
0.3349887506559384
  0
CIRCLE
  5
F3
330
1F
100
AcDbEntity
  8
0
  6
CONTINUOUS
100
AcDbCircle
 10
6.158153515139455
 20
14.40762972585504
 30
0.0
 40
0.1733333333333338
  0
ENDSEC
  0
SECTION
  2
OBJECTS
  0
DICTIONARY
  5
C
330
0
100
AcDbDictionary
  3
ACAD_GROUP
350
D
  3
ACAD_LAYOUT
350
1A
  3
ACAD_MLINESTYLE
350
17
  3
ACAD_PLOTSETTINGS
350
19
  3
ACAD_PLOTSTYLENAME
350
E
  3
ACDBHEADERROUNDTRIPXREC
350
1AF
  3
ACDBVARIABLEDICTIONARY
350
136
  0
DICTIONARY
  5
FC
330
1F
100
AcDbDictionary
280
     1
  3
ACAD_LAYOUTSELFREF
360
1D1
  0
DICTIONARY
  5
FE
330
1B
100
AcDbDictionary
280
     1
  3
ACAD_LAYOUTSELFREF
360
1D0
  0
DICTIONARY
  5
D
102
{ACAD_REACTORS
330
C
102
}
330
C
100
AcDbDictionary
  0
DICTIONARY
  5
1A
102
{ACAD_REACTORS
330
C
102
}
330
C
100
AcDbDictionary
  0
DICTIONARY
  5
17
102
{ACAD_REACTORS
330
C
102
}
330
C
100
AcDbDictionary
  3
STANDARD
350
18
  0
DICTIONARY
  5
19
102
{ACAD_REACTORS
330
C
102
}
330
C
100
AcDbDictionary
  0
ACDBDICTIONARYWDFLT
  5
E
102
{ACAD_REACTORS
330
C
102
}
330
C
100
AcDbDictionary
281
     1
  3
Normal
350
F
100
AcDbDictionaryWithDefault
340
F
  0
DICTIONARY
  5
1AF
102
{ACAD_REACTORS
330
C
102
}
330
C
100
AcDbDictionary
  3
CEPSNTYPE
350
1B9
  3
DIMSTYLEDATA
350
1BD
  3
FINGERPRINTGUID
350
1BA
  3
HYPERLINKBASE
350
1B2
  3
INSUNITS
350
1B8
  3
LAYOUTDICT
350
1B4
  3
LWETCUNION
350
1B7
  3
PLOTSETDICT
350
1B5
  3
PLOTSTYLNAMDICT
350
1B6
  3
PSVPSCALE
350
1BC
  3
PUCSBASE
350
1C0
  3
PUCSORGBACK
350
1C6
  3
PUCSORGBOTTOM
350
1C2
  3
PUCSORGFRONT
350
1C5
  3
PUCSORGLEFT
350
1C3
  3
PUCSORGRIGHT
350
1C4
  3
PUCSORGTOP
350
1C1
  3
PUCSORTHOREF
350
1BE
  3
PUCSORTHOVIEW
350
1BF
  3
STYLESHEET
350
1B3
  3
TSTACKALIGN
350
1B0
  3
TSTACKSIZE
350
1B1
  3
UCSBASE
350
1C9
  3
UCSORGBACK
350
1CF
  3
UCSORGBOTTOM
350
1CB
  3
UCSORGFRONT
350
1CE
  3
UCSORGLEFT
350
1CC
  3
UCSORGRIGHT
350
1CD
  3
UCSORGTOP
350
1CA
  3
UCSORTHOREF
350
1C7
  3
UCSORTHOVIEW
350
1C8
  3
VERSIONGUID
350
1BB
  0
DICTIONARY
  5
136
102
{ACAD_REACTORS
330
C
102
}
330
C
100
AcDbDictionary
  3
DIMASSOC
350
137
  0
XRECORD
  5
1D1
102
{ACAD_REACTORS
330
FC
102
}
330
FC
100
AcDbXrecord
340
1F
  0
XRECORD
  5
1D0
102
{ACAD_REACTORS
330
FE
102
}
330
FE
100
AcDbXrecord
340
1B
  0
MLINESTYLE
  5
18
102
{ACAD_REACTORS
330
17
102
}
330
17
100
AcDbMlineStyle
  2
STANDARD
 70
     0
  3

 62
   256
 51
90.0
 52
90.0
 71
     2
 49
0.5
 62
   256
  6
BYLAYER
 49
-0.5
 62
   256
  6
BYLAYER
  0
ACDBPLACEHOLDER
  5
F
102
{ACAD_REACTORS
330
E
102
}
330
E
100
AcDbPlaceHolder
280
     0
  0
XRECORD
  5
1B9
102
{ACAD_REACTORS
330
1AF
102
}
330
1AF
100
AcDbXrecord
 90
        0
  0
XRECORD
  5
1BD
102
{ACAD_REACTORS
330
1AF
102
}
330
1AF
100
AcDbXrecord
1000
DSTYLE
1002
{
1070
   278
 70
    44
1002
}
  0
XRECORD
  5
1BA
102
{ACAD_REACTORS
330
1AF
102
}
330
1AF
100
AcDbXrecord
  1
{CFB3CE24-516A-4C07-8C92-C6D3EA51848D}
  0
XRECORD
  5
1B2
102
{ACAD_REACTORS
330
1AF
102
}
330
1AF
100
AcDbXrecord
  1

  0
XRECORD
  5
1B8
102
{ACAD_REACTORS
330
1AF
102
}
330
1AF
100
AcDbXrecord
 90
        4
  0
XRECORD
  5
1B4
102
{ACAD_REACTORS
330
1AF
102
}
330
1AF
100
AcDbXrecord
340
1A
  0
XRECORD
  5
1B7
102
{ACAD_REACTORS
330
1AF
102
}
330
1AF
100
AcDbXrecord
 90
    10781
  0
XRECORD
  5
1B5
102
{ACAD_REACTORS
330
1AF
102
}
330
1AF
100
AcDbXrecord
340
19
  0
XRECORD
  5
1B6
102
{ACAD_REACTORS
330
1AF
102
}
330
1AF
100
AcDbXrecord
340
E
  0
XRECORD
  5
1BC
102
{ACAD_REACTORS
330
1AF
102
}
330
1AF
100
AcDbXrecord
 40
0.0
  0
XRECORD
  5
1C0
102
{ACAD_REACTORS
330
1AF
102
}
330
1AF
100
AcDbXrecord
340
0
  0
XRECORD
  5
1C6
102
{ACAD_REACTORS
330
1AF
102
}
330
1AF
100
AcDbXrecord
 10
0.0
 20
0.0
 30
0.0
  0
XRECORD
  5
1C2
102
{ACAD_REACTORS
330
1AF
102
}
330
1AF
100
AcDbXrecord
 10
0.0
 20
0.0
 30
0.0
  0
XRECORD
  5
1C5
102
{ACAD_REACTORS
330
1AF
102
}
330
1AF
100
AcDbXrecord
 10
0.0
 20
0.0
 30
0.0
  0
XRECORD
  5
1C3
102
{ACAD_REACTORS
330
1AF
102
}
330
1AF
100
AcDbXrecord
 10
0.0
 20
0.0
 30
0.0
  0
XRECORD
  5
1C4
102
{ACAD_REACTORS
330
1AF
102
}
330
1AF
100
AcDbXrecord
 10
0.0
 20
0.0
 30
0.0
  0
XRECORD
  5
1C1
102
{ACAD_REACTORS
330
1AF
102
}
330
1AF
100
AcDbXrecord
 10
0.0
 20
0.0
 30
0.0
  0
XRECORD
  5
1BE
102
{ACAD_REACTORS
330
1AF
102
}
330
1AF
100
AcDbXrecord
340
0
  0
XRECORD
  5
1BF
102
{ACAD_REACTORS
330
1AF
102
}
330
1AF
100
AcDbXrecord
 70
     0
  0
XRECORD
  5
1B3
102
{ACAD_REACTORS
330
1AF
102
}
330
1AF
100
AcDbXrecord
  1

  0
XRECORD
  5
1B0
102
{ACAD_REACTORS
330
1AF
102
}
330
1AF
100
AcDbXrecord
 90
        1
  0
XRECORD
  5
1B1
102
{ACAD_REACTORS
330
1AF
102
}
330
1AF
100
AcDbXrecord
 90
       70
  0
XRECORD
  5
1C9
102
{ACAD_REACTORS
330
1AF
102
}
330
1AF
100
AcDbXrecord
340
0
  0
XRECORD
  5
1CF
102
{ACAD_REACTORS
330
1AF
102
}
330
1AF
100
AcDbXrecord
 10
0.0
 20
0.0
 30
0.0
  0
XRECORD
  5
1CB
102
{ACAD_REACTORS
330
1AF
102
}
330
1AF
100
AcDbXrecord
 10
0.0
 20
0.0
 30
0.0
  0
XRECORD
  5
1CE
102
{ACAD_REACTORS
330
1AF
102
}
330
1AF
100
AcDbXrecord
 10
0.0
 20
0.0
 30
0.0
  0
XRECORD
  5
1CC
102
{ACAD_REACTORS
330
1AF
102
}
330
1AF
100
AcDbXrecord
 10
0.0
 20
0.0
 30
0.0
  0
XRECORD
  5
1CD
102
{ACAD_REACTORS
330
1AF
102
}
330
1AF
100
AcDbXrecord
 10
0.0
 20
0.0
 30
0.0
  0
XRECORD
  5
1CA
102
{ACAD_REACTORS
330
1AF
102
}
330
1AF
100
AcDbXrecord
 10
0.0
 20
0.0
 30
0.0
  0
XRECORD
  5
1C7
102
{ACAD_REACTORS
330
1AF
102
}
330
1AF
100
AcDbXrecord
340
0
  0
XRECORD
  5
1C8
102
{ACAD_REACTORS
330
1AF
102
}
330
1AF
100
AcDbXrecord
 70
     0
  0
XRECORD
  5
1BB
102
{ACAD_REACTORS
330
1AF
102
}
330
1AF
100
AcDbXrecord
  1
{B024B646-C582-45E8-97AD-4E0A26D92770}
  0
DICTIONARYVAR
  5
137
102
{ACAD_REACTORS
330
136
102
}
330
136
100
DictionaryVariables
280
     0
  1
1
  0
ENDSEC
  0
EOF
