  0
SECTION
  2
HEADER
  9
$ACADVER
  1
AC1014
  9
$ACADMAINTVER
 70
     9
  9
$DWGCODEPAGE
  3
ANSI_1250
  9
$INSBASE
 10
0.0
 20
0.0
 30
0.0
  9
$EXTMIN
 10
3.590593029873673
 20
8.651092588262507
 30
-0.0015258207003583
  9
$EXTMAX
 10
12.70643010307852
 20
16.76449589357303
 30
0.0000000349246037
  9
$LIMMIN
 10
0.0
 20
0.0
  9
$LIMMAX
 10
0.0
 20
0.0
  9
$ORTHOMODE
 70
     0
  9
$REGENMODE
 70
     1
  9
$FILLMODE
 70
     1
  9
$QTEXTMODE
 70
     0
  9
$MIRRTEXT
 70
     1
  9
$DRAGMODE
 70
     2
  9
$LTSCALE
 40
1.0
  9
$OSMODE
 70
  1007
  9
$ATTMODE
 70
     1
  9
$TEXTSIZE
 40
2.5
  9
$TRACEWID
 40
1.0
  9
$TEXTSTYLE
  7
STANDARD
  9
$CLAYER
  8
0
  9
$CELTYPE
  6
BYLAYER
  9
$CECOLOR
 62
   256
  9
$CELTSCALE
 40
1.0
  9
$DELOBJ
 70
     1
  9
$DISPSILH
 70
     0
  9
$DIMSCALE
 40
1.0
  9
$DIMASZ
 40
0.3
  9
$DIMEXO
 40
0.01
  9
$DIMDLI
 40
3.75
  9
$DIMRND
 40
0.0
  9
$DIMDLE
 40
0.0
  9
$DIMEXE
 40
0.1
  9
$DIMTP
 40
0.0
  9
$DIMTM
 40
0.0
  9
$DIMTXT
 40
0.2822222222222222
  9
$DIMCEN
 40
2.5
  9
$DIMTSZ
 40
0.0
  9
$DIMTOL
 70
     0
  9
$DIMLIM
 70
     0
  9
$DIMTIH
 70
     1
  9
$DIMTOH
 70
     1
  9
$DIMSE1
 70
     0
  9
$DIMSE2
 70
     0
  9
$DIMTAD
 70
     1
  9
$DIMZIN
 70
     0
  9
$DIMBLK
  1

  9
$DIMASO
 70
     1
  9
$DIMSHO
 70
     1
  9
$DIMPOST
  1

  9
$DIMAPOST
  1

  9
$DIMALT
 70
     0
  9
$DIMALTD
 70
     3
  9
$DIMALTF
 40
0.3937007874015748
  9
$DIMLFAC
 40
15.0
  9
$DIMTOFL
 70
     1
  9
$DIMTVP
 40
0.0
  9
$DIMTIX
 70
     0
  9
$DIMSOXD
 70
     0
  9
$DIMSAH
 70
     0
  9
$DIMBLK1
  1

  9
$DIMBLK2
  1

  9
$DIMSTYLE
  2
ISO-25
  9
$DIMCLRD
 70
     0
  9
$DIMCLRE
 70
     0
  9
$DIMCLRT
 70
     0
  9
$DIMTFAC
 40
1.0
  9
$DIMGAP
 40
0.1524
  9
$DIMJUST
 70
     0
  9
$DIMSD1
 70
     0
  9
$DIMSD2
 70
     0
  9
$DIMTOLJ
 70
     0
  9
$DIMTZIN
 70
     0
  9
$DIMALTZ
 70
     0
  9
$DIMALTTZ
 70
     0
  9
$DIMFIT
 70
     3
  9
$DIMUPT
 70
     0
  9
$DIMUNIT
 70
     2
  9
$DIMDEC
 70
     2
  9
$DIMTDEC
 70
     2
  9
$DIMALTU
 70
     2
  9
$DIMALTTD
 70
     3
  9
$DIMTXSTY
  7
STANDARD
  9
$DIMAUNIT
 70
     0
  9
$LUNITS
 70
     2
  9
$LUPREC
 70
     2
  9
$SKETCHINC
 40
1.0
  9
$FILLETRAD
 40
10.0
  9
$AUNITS
 70
     0
  9
$AUPREC
 70
     0
  9
$MENU
  1
.
  9
$ELEVATION
 40
0.0
  9
$PELEVATION
 40
0.0
  9
$THICKNESS
 40
0.0
  9
$LIMCHECK
 70
     0
  9
$BLIPMODE
 70
     0
  9
$CHAMFERA
 40
10.0
  9
$CHAMFERB
 40
10.0
  9
$CHAMFERC
 40
20.0
  9
$CHAMFERD
 40
0.0
  9
$SKPOLY
 70
     0
  9
$TDCREATE
 40
2454418.390218090
  9
$TDUPDATE
 40
2454420.426802835
  9
$TDINDWG
 40
0.0006657060
  9
$TDUSRTIMER
 40
0.0006657060
  9
$USRTIMER
 70
     1
  9
$ANGBASE
 50
0.0
  9
$ANGDIR
 70
     0
  9
$PDMODE
 70
     0
  9
$PDSIZE
 40
-1.0
  9
$PLINEWID
 40
0.0
  9
$COORDS
 70
     1
  9
$SPLFRAME
 70
     0
  9
$SPLINETYPE
 70
     6
  9
$SPLINESEGS
 70
     8
  9
$ATTDIA
 70
     0
  9
$ATTREQ
 70
     1
  9
$HANDLING
 70
 22529
  9
$HANDSEED
  5
6F4
  9
$SURFTAB1
 70
     6
  9
$SURFTAB2
 70
     6
  9
$SURFTYPE
 70
     6
  9
$SURFU
 70
     6
  9
$SURFV
 70
     6
  9
$UCSNAME
  2

  9
$UCSORG
 10
0.0
 20
0.0
 30
0.0
  9
$UCSXDIR
 10
1.0
 20
0.0
 30
0.0
  9
$UCSYDIR
 10
0.0
 20
1.0
 30
0.0
  9
$PUCSNAME
  2

  9
$PUCSORG
 10
0.0
 20
0.0
 30
0.0
  9
$PUCSXDIR
 10
1.0
 20
0.0
 30
0.0
  9
$PUCSYDIR
 10
0.0
 20
1.0
 30
0.0
  9
$USERI1
 70
     0
  9
$USERI2
 70
     0
  9
$USERI3
 70
     0
  9
$USERI4
 70
     0
  9
$USERI5
 70
     0
  9
$USERR1
 40
0.0
  9
$USERR2
 40
0.0
  9
$USERR3
 40
0.0
  9
$USERR4
 40
0.0
  9
$USERR5
 40
0.0
  9
$WORLDVIEW
 70
     1
  9
$SHADEDGE
 70
     3
  9
$SHADEDIF
 70
    70
  9
$TILEMODE
 70
     1
  9
$MAXACTVP
 70
    64
  9
$PINSBASE
 10
0.0
 20
0.0
 30
0.0
  9
$PLIMCHECK
 70
     0
  9
$PEXTMIN
 10
1.000000000000000E+20
 20
1.000000000000000E+20
 30
1.000000000000000E+20
  9
$PEXTMAX
 10
-1.000000000000000E+20
 20
-1.000000000000000E+20
 30
-1.000000000000000E+20
  9
$PLIMMIN
 10
0.0
 20
0.0
  9
$PLIMMAX
 10
420.0
 20
297.0
  9
$UNITMODE
 70
     0
  9
$VISRETAIN
 70
     1
  9
$PLINEGEN
 70
     0
  9
$PSLTSCALE
 70
     1
  9
$TREEDEPTH
 70
  3020
  9
$PICKSTYLE
 70
     1
  9
$CMLSTYLE
  2
STANDARD
  9
$CMLJUST
 70
     0
  9
$CMLSCALE
 40
20.0
  9
$PROXYGRAPHICS
 70
     1
  9
$MEASUREMENT
 70
     1
  0
ENDSEC
  0
SECTION
  2
CLASSES
  0
CLASS
  1
ACDBDICTIONARYWDFLT
  2
AcDbDictionaryWithDefault
  3
AutoCAD 2000
 90
        0
280
     0
281
     0
  0
CLASS
  1
ACDBPLACEHOLDER
  2
AcDbPlaceHolder
  3
AutoCAD 2000
 90
        0
280
     0
281
     0
  0
CLASS
  1
LAYOUT
  2
AcDbLayout
  3
AutoCAD 2000
 90
        0
280
     0
281
     0
  0
CLASS
  1
DICTIONARYVAR
  2
AcDbDictionaryVar
  3
AutoCAD 2000
 90
        0
280
     0
281
     0
  0
CLASS
  1
LONG_TRANSACTION
  2
AcDbLongTransaction
  3
AutoCAD 2000
 90
        0
280
     0
281
     0
  0
CLASS
  1
LWPOLYLINE
  2
AcDbPolyline
  3
AutoCAD 2000
 90
        0
280
     0
281
     1
  0
CLASS
  1
HATCH
  2
AcDbHatch
  3
AutoCAD 2000
 90
        0
280
     0
281
     1
  0
CLASS
  1
XRECORD
  2
AcDbXrecord
  3
AutoCAD 2000
 90
        0
280
     0
281
     0
  0
ENDSEC
  0
SECTION
  2
TABLES
  0
TABLE
  2
VPORT
  5
8
330
0
100
AcDbSymbolTable
 70
     4
  0
VPORT
  5
6CC
330
8
100
AcDbSymbolTableRecord
100
AcDbViewportTableRecord
  2
*ACTIVE
 70
     0
 10
0.0
 20
0.0
 11
1.0
 21
1.0
 12
8.148511566476098
 22
12.70779424091777
 13
0.0
 23
0.0
 14
10.0
 24
10.0
 15
10.0
 25
10.0
 16
0.0
 26
0.0
 36
1.0
 17
0.0
 27
0.0
 37
0.0
 40
8.193338313244622
 41
1.981907894736842
 42
50.0
 43
0.0
 44
0.0
 50
0.0
 51
0.0
 71
     0
 72
  2000
 73
     1
 74
     3
 75
     0
 76
     0
 77
     0
 78
     0
  0
ENDTAB
  0
TABLE
  2
LTYPE
  5
5
330
0
100
AcDbSymbolTable
 70
     6
  0
LTYPE
  5
14
330
5
100
AcDbSymbolTableRecord
100
AcDbLinetypeTableRecord
  2
BYBLOCK
 70
     0
  3

 72
    65
 73
     0
 40
0.0
  0
LTYPE
  5
15
330
5
100
AcDbSymbolTableRecord
100
AcDbLinetypeTableRecord
  2
BYLAYER
 70
     0
  3

 72
    65
 73
     0
 40
0.0
  0
LTYPE
  5
16
330
5
100
AcDbSymbolTableRecord
100
AcDbLinetypeTableRecord
  2
CONTINUOUS
 70
     0
  3
Solid line
 72
    65
 73
     0
 40
0.0
  0
ENDTAB
  0
TABLE
  2
LAYER
  5
2
330
0
100
AcDbSymbolTable
 70
    17
  0
LAYER
  5
10
330
2
100
AcDbSymbolTableRecord
100
AcDbLayerTableRecord
  2
0
 70
     0
 62
     7
  6
CONTINUOUS
  0
ENDTAB
  0
TABLE
  2
STYLE
  5
3
330
0
100
AcDbSymbolTable
 70
     4
  0
STYLE
  5
11
330
3
100
AcDbSymbolTableRecord
100
AcDbTextStyleTableRecord
  2
STANDARD
 70
     0
 40
0.0
 41
1.0
 50
0.0
 71
     0
 42
2.5
  3
ARIAL.TTF
  4

1001
ACAD
1000
Arial
1071
       34
  0
ENDTAB
  0
TABLE
  2
VIEW
  5
6
330
0
100
AcDbSymbolTable
 70
     0
  0
ENDTAB
  0
TABLE
  2
UCS
  5
7
330
0
100
AcDbSymbolTable
 70
     0
  0
ENDTAB
  0
TABLE
  2
APPID
  5
9
330
0
100
AcDbSymbolTable
 70
     1
  0
APPID
  5
12
330
9
100
AcDbSymbolTableRecord
100
AcDbRegAppTableRecord
  2
ACAD
 70
     0
  0
ENDTAB
  0
TABLE
  2
DIMSTYLE
  5
A
330
0
100
AcDbSymbolTable
 70
     4
  0
DIMSTYLE
105
27
330
A
100
AcDbSymbolTableRecord
100
AcDbDimStyleTableRecord
  2
ISO-25
 70
     0
  3

  4

  5

  6

  7

 40
1.0
 41
2.5
 42
0.625
 43
3.75
 44
1.25
 45
0.0
 46
0.0
 47
0.0
 48
0.0
140
2.5
141
2.5
142
0.0
143
0.03937007874016
144
1.0
145
0.0
146
1.0
147
0.625
 71
     0
 72
     0
 73
     0
 74
     0
 75
     0
 76
     0
 77
     1
 78
     8
170
     0
171
     3
172
     1
173
     0
174
     0
175
     0
176
     0
177
     0
178
     0
270
     2
271
     2
272
     2
273
     2
274
     3
340
11
275
     0
280
     0
281
     0
282
     0
283
     0
284
     8
285
     0
286
     0
287
     3
288
     0
  0
ENDTAB
  0
TABLE
  2
BLOCK_RECORD
  5
1
330
0
100
AcDbSymbolTable
 70
    23
  0
BLOCK_RECORD
  5
1F
102
{ACAD_XDICTIONARY
360
6F0
102
}
330
1
100
AcDbSymbolTableRecord
100
AcDbBlockTableRecord
  2
*MODEL_SPACE
  0
BLOCK_RECORD
  5
1B
102
{ACAD_XDICTIONARY
360
6EE
102
}
330
1
100
AcDbSymbolTableRecord
100
AcDbBlockTableRecord
  2
*PAPER_SPACE
  0
ENDTAB
  0
ENDSEC
  0
SECTION
  2
BLOCKS
  0
BLOCK
  5
20
330
1F
100
AcDbEntity
  8
0
100
AcDbBlockBegin
  2
*MODEL_SPACE
 70
     0
 10
0.0
 20
0.0
 30
0.0
  3
*MODEL_SPACE
  1

  0
ENDBLK
  5
21
330
1F
100
AcDbEntity
  8
0
100
AcDbBlockEnd
  0
BLOCK
  5
1C
330
1B
100
AcDbEntity
 67
     1
  8
0
100
AcDbBlockBegin
  2
*PAPER_SPACE
 70
     0
 10
0.0
 20
0.0
 30
0.0
  3
*PAPER_SPACE
  1

  0
ENDBLK
  5
1D
330
1B
100
AcDbEntity
 67
     1
  8
0
100
AcDbBlockEnd
  0
ENDSEC
  0
SECTION
  2
ENTITIES
  0
LINE
  5
101
330
1F
100
AcDbEntity
  8
0
100
AcDbLine
 10
3.612909797342943
 20
16.72290067018852
 30
0.0
 11
12.46290970197551
 21
16.72290067018852
 31
0.0
  0
LINE
  5
102
330
1F
100
AcDbEntity
  8
0
100
AcDbLine
 10
3.612909797342943
 20
16.62290061654434
 30
0.0
 11
3.612909797342943
 21
16.72290067018852
 31
0.0
  0
LINE
  5
103
330
1F
100
AcDbEntity
  8
0
100
AcDbLine
 10
12.41290974965922
 20
8.672900896686176
 30
0.0
 11
12.56290960660808
 21
8.672900896686176
 31
0.0
  0
LINE
  5
104
330
1F
100
AcDbEntity
  8
0
100
AcDbLine
 10
3.612909797342943
 20
16.62290061654434
 30
0.0
 11
3.612909797342943
 21
16.47290061058388
 31
0.0
  0
ARC
  5
105
330
1F
100
AcDbEntity
  8
0
100
AcDbCircle
 10
12.46290967813352
 20
16.52290065826752
 30
0.0
 40
0.1999999999999993
100
AcDbArc
 50
359.9999999999997
 51
89.99999999999898
  0
LINE
  5
106
330
1F
100
AcDbEntity
  8
0
100
AcDbLine
 10
12.66290980926387
 20
16.52290071191177
 30
0.0
 11
12.66290980926387
 21
8.672900896686176
 31
0.0
  0
LINE
  5
107
330
1F
100
AcDbEntity
  8
0
100
AcDbLine
 10
12.66290980926387
 20
8.672900896686176
 30
0.0
 11
12.56290960660808
 21
8.672900896686176
 31
0.0
  0
ARC
  5
108
330
1F
100
AcDbEntity
  8
0
100
AcDbCircle
 10
4.276472611099157
 20
9.339295262239835
 30
0.0
 40
0.1591259665871513
100
AcDbArc
 50
225.7210215755513
 51
272.0197027300581
  0
LINE
  5
109
330
1F
100
AcDbEntity
  8
0
100
AcDbLine
 10
11.94373864284389
 20
9.180268149989704
 30
0.0
 11
4.282080713423417
 21
9.180268149989704
 31
0.0
  0
ARC
  5
10A
330
1F
100
AcDbEntity
  8
0
100
AcDbCircle
 10
11.94934674516815
 20
9.339295262239835
 30
0.0
 40
0.1591259665871513
100
AcDbArc
 50
267.9802972699434
 51
314.2789784244502
  0
ARC
  5
10B
330
1F
100
AcDbEntity
  8
0
100
AcDbCircle
 10
12.4972806634861
 20
8.78864631182855
 30
0.0
 40
0.100041976321142
100
AcDbArc
 50
269.9923518483791
 51
314.9526920450903
  0
LINE
  5
10C
330
1F
100
AcDbEntity
  8
0
100
AcDbLine
 10
3.72855204692714
 20
8.6886043363987
 30
0.0
 11
12.49726730934016
 21
8.6886043363987
 31
0.0
  0
ARC
  5
10D
330
1F
100
AcDbEntity
  8
0
100
AcDbCircle
 10
3.728539611814222
 20
8.788648533583661
 30
0.0
 40
0.100044197957779
100
AcDbArc
 50
225.0478344592579
 51
270.0071216472764
  0
ARC
  5
10E
330
1F
100
AcDbEntity
  8
0
100
AcDbCircle
 10
11.94934686006798
 20
16.00650684170568
 30
0.0
 40
0.1591251092559653
100
AcDbArc
 50
45.72077833703118
 51
92.01975501369757
  0
LINE
  5
10F
330
1F
100
AcDbEntity
  8
0
100
AcDbLine
 10
4.282080713423417
 20
16.16553309203968
 30
0.0
 11
11.94373864284389
 21
16.16553309203968
 31
0.0
  0
ARC
  5
110
330
1F
100
AcDbEntity
  8
0
100
AcDbCircle
 10
4.276472496199319
 20
16.00650684170568
 30
0.0
 40
0.1591251092559653
100
AcDbArc
 50
87.98024498630274
 51
134.279221662969
  0
ARC
  5
111
330
1F
100
AcDbEntity
  8
0
100
AcDbCircle
 10
3.728539536363788
 20
16.55715434567163
 30
0.0
 40
0.1000429332703151
100
AcDbArc
 50
89.99283505133361
 51
134.9528275786108
  0
LINE
  5
112
330
1F
100
AcDbEntity
  8
0
100
AcDbLine
 10
12.49726730934016
 20
16.65719727815971
 30
0.0
 11
3.72855204692714
 21
16.65719727815971
 31
0.0
  0
ARC
  5
113
330
1F
100
AcDbEntity
  8
0
100
AcDbCircle
 10
12.49727882276225
 20
16.5571519351273
 30
0.0
 40
0.1000453436949076
100
AcDbArc
 50
45.0477436549406
 51
90.0065937151143
  0
ARC
  5
114
330
1F
100
AcDbEntity
  8
0
100
AcDbCircle
 10
4.279302552354157
 20
16.00933835084306
 30
0.0
 40
0.159124080204241
100
AcDbArc
 50
135.7207337836096
 51
182.0199413240047
  0
LINE
  5
115
330
1F
100
AcDbEntity
  8
0
100
AcDbLine
 10
4.120277348669694
 20
9.342071514743427
 30
0.0
 11
4.120277348669694
 21
16.00372965278015
 31
0.0
  0
ARC
  5
116
330
1F
100
AcDbEntity
  8
0
100
AcDbCircle
 10
4.279304314591368
 20
9.336463355868735
 30
0.0
 40
0.1591258223426269
100
AcDbArc
 50
177.9802750638233
 51
224.2790006305698
  0
ARC
  5
117
330
1F
100
AcDbEntity
  8
0
100
AcDbCircle
 10
3.72865793522109
 20
8.788531340585359
 30
0.0
 40
0.1000449968506802
100
AcDbArc
 50
179.9934095609488
 51
224.9524593138735
  0
LINE
  5
118
330
1F
100
AcDbEntity
  8
0
100
AcDbLine
 10
3.628612939032243
 20
16.55725817026482
 30
0.0
 11
3.628612939032243
 21
8.78854284824715
 31
0.0
  0
ARC
  5
119
330
1F
100
AcDbEntity
  8
0
100
AcDbCircle
 10
3.728658337751326
 20
16.5572696604034
 30
0.0
 40
0.1000453993789001
100
AcDbArc
 50
135.0476360632323
 51
180.0065803770351
  0
ARC
  5
11A
330
1F
100
AcDbEntity
  8
0
100
AcDbCircle
 10
12.49715965213586
 20
8.788532072313236
 30
0.0
 40
0.1000467656795313
100
AcDbArc
 50
315.0479598558714
 51
0.0061712693117928
  0
ARC
  5
11B
330
1F
100
AcDbEntity
  8
0
100
AcDbCircle
 10
12.51299120254514
 20
8.772819253065396
 30
0.0
 40
0.0999183585341064
100
AcDbArc
 50
269.9881005423545
 51
0.0118994576452601
  0
ARC
  5
11C
330
1F
100
AcDbEntity
  8
0
100
AcDbCircle
 10
12.49716232015715
 20
16.55727019883947
 30
0.0
 40
0.1000440978010234
100
AcDbArc
 50
359.9931111721947
 51
44.95267238753776
  0
ARC
  5
11D
330
1F
100
AcDbEntity
  8
0
100
AcDbCircle
 10
12.51299102684941
 20
16.57298218579729
 30
0.0
 40
0.0999185341934996
100
AcDbArc
 50
359.9882013115917
 51
90.01179868840905
  0
ARC
  5
11E
330
1F
100
AcDbEntity
  8
0
100
AcDbCircle
 10
11.94651504167594
 20
9.336463355868733
 30
0.0
 40
0.1591258223426264
100
AcDbArc
 50
315.7209993694321
 51
2.019724936177299
  0
LINE
  5
11F
330
1F
100
AcDbEntity
  8
0
100
AcDbLine
 10
12.10554200759761
 20
16.00372965278015
 30
0.0
 11
12.10554200759761
 21
9.342071514743427
 31
0.0
  0
ARC
  5
120
330
1F
100
AcDbEntity
  8
0
100
AcDbCircle
 10
11.94651680391314
 20
16.00933835084305
 30
0.0
 40
0.1591240802042446
100
AcDbArc
 50
357.9800586759982
 51
44.27926621639088
  0
LINE
  5
121
330
1F
100
AcDbEntity
  8
0
100
AcDbLine
 10
12.59720641723506
 20
8.78854284824715
 30
0.0
 11
12.59720641723506
 21
16.55725817026482
 31
0.0
  0
ARC
  5
122
330
1F
100
AcDbEntity
  8
0
100
AcDbCircle
 10
3.712828481815527
 20
16.57298203339965
 30
0.0
 40
0.0999186865598627
100
AcDbArc
 50
89.98828871805486
 51
180.0117112819462
  0
LINE
  5
123
330
1F
100
AcDbEntity
  8
0
100
AcDbLine
 10
12.51297045102946
 20
8.672900896686176
 30
0.0
 11
3.71284890523784
 21
8.672900896686176
 31
0.0
  0
LINE
  5
124
330
1F
100
AcDbEntity
  8
0
100
AcDbLine
 10
3.71284890523784
 20
16.67290071787224
 30
0.0
 11
12.51297045102946
 21
16.67290071787224
 31
0.0
  0
ARC
  5
125
330
1F
100
AcDbEntity
  8
0
100
AcDbCircle
 10
3.712827697046271
 20
8.772818796389506
 30
0.0
 40
0.0999179019541149
100
AcDbArc
 50
179.9878386169717
 51
270.01216138303
  0
LINE
  5
126
330
1F
100
AcDbEntity
  8
0
100
AcDbLine
 10
12.61290955892436
 20
16.57296160997734
 30
0.0
 11
12.61290955892436
 21
8.772840004581073
 31
0.0
  0
LINE
  5
127
330
1F
100
AcDbEntity
  8
0
100
AcDbLine
 10
3.612909797342943
 20
8.772840004581073
 30
0.0
 11
3.612909797342943
 21
16.57296160997734
 31
0.0
  0
ARC
  5
128
330
1F
100
AcDbEntity
  8
0
100
AcDbCircle
 10
4.35303543481586
 20
9.412414102708797
 30
0.0
 40
0.1523528797909005
100
AcDbArc
 50
176.0785152816315
 51
273.4283351106407
  0
ARC
  5
129
330
1F
100
AcDbEntity
  8
0
100
AcDbCircle
 10
11.82782022641953
 20
15.88615110139752
 30
0.0
 40
0.1526647193868121
100
AcDbArc
 50
357.1197137871493
 51
94.2113834357052
  0
ARC
  5
12A
330
1F
100
AcDbEntity
  8
0
100
AcDbCircle
 10
11.87278698322198
 20
9.412411067178416
 30
0.0
 40
0.1523500328213716
100
AcDbArc
 50
266.5704472119816
 51
3.922702395747291
  0
ARC
  5
12B
330
1F
100
AcDbEntity
  8
0
100
AcDbCircle
 10
4.398004967033364
 20
15.88614512700226
 30
0.0
 40
0.1526702491174422
100
AcDbArc
 50
85.79096594726285
 51
182.8779368298853
  0
LWPOLYLINE
  5
12C
330
1F
100
AcDbEntity
  8
0
100
AcDbPolyline
 90
       17
 70
   128
 43
0.0
 10
11.81660908809535
 20
16.03840361179695
 10
10.57811189046733
 20
16.02079677225933
 10
9.958851817759203
 20
16.01225594820366
 10
9.339571852000879
 20
16.00424098612652
 10
9.091830510409998
 20
16.00127468647347
 10
8.844074714692757
 20
15.99860477091656
 10
8.596306886287855
 20
15.99644671024666
 10
8.348529483886885
 20
15.99501582624302
 10
8.100744853258582
 20
15.9945275151907
 10
7.870009630682396
 20
15.99505717696533
 10
7.639280851694272
 20
15.99641273559914
 10
7.408562410386728
 20
15.99839719774113
 10
7.17785816243522
 20
16.00081349553452
 10
6.716406825693773
 20
16.00635233165608
 10
6.254974934967682
 20
16.01243677379475
 10
5.332084182413743
 20
16.02521593512878
 10
4.409210268171952
 20
16.03840361179695
  0
LWPOLYLINE
  5
12D
330
1F
100
AcDbEntity
  8
0
100
AcDbPolyline
 90
       12
 70
   128
 43
0.0
 10
12.02478009811275
 20
9.42283342422829
 10
12.01615828624599
 20
10.13999829830513
 10
12.00798261514537
 20
10.85717807354317
 10
12.00039464584224
 20
11.57437632622108
 10
11.9951843058192
 20
12.11229334415779
 10
11.9905074273669
 20
12.65022556127892
 10
11.98648649803035
 20
13.18817208351479
 10
11.98324519744746
 20
13.72613276185379
 10
11.98093223920695
 20
14.26420914770947
 10
11.97964239469401
 20
14.80229842306957
 10
11.97941559902064
 20
15.3403916472374
 10
11.98029208532207
 20
15.87847980501041
  0
LWPOLYLINE
  5
12E
330
1F
100
AcDbEntity
  8
0
100
AcDbPolyline
 90
       12
 70
   128
 43
0.0
 10
4.245527270945237
 20
15.87847980501041
 10
4.24636382213466
 20
15.403196763414
 10
4.24633998027675
 20
14.92790940048084
 10
4.245473924788163
 20
14.45262412371025
 10
4.243784729155229
 20
13.97734741510735
 10
4.240353587778733
 20
13.34358627738342
 10
4.235786381872819
 20
12.70984406413422
 10
4.230295303972886
 20
12.07612375559196
 10
4.223774555834459
 20
11.41277919353828
 10
4.216634515436815
 20
10.74945281090126
 10
4.209022108229325
 20
10.0861371571003
 10
4.201039258154557
 20
9.42283342422829
  0
ARC
  5
12F
330
1F
100
AcDbEntity
  8
0
100
AcDbCircle
 10
8.112909678133654
 20
-433.8645085737101
 30
0.0
 40
443.1407160533368
100
AcDbArc
 50
89.51504007919625
 51
90.48495992080374
  0
CIRCLE
  5
130
330
1F
100
AcDbEntity
  8
0
100
AcDbCircle
 10
8.112909678133654
 20
15.1729006582676
 30
0.0
 40
0.5999999999999979
  0
CIRCLE
  5
131
330
1F
100
AcDbEntity
  8
0
100
AcDbCircle
 10
8.112909678133654
 20
15.17290065826759
 30
0.0
 40
0.4499999999999993
  0
LINE
  5
132
330
1F
100
AcDbEntity
  8
0
100
AcDbLine
 10
12.46290970197551
 20
16.72290067018852
 30
0.0
 11
12.46290970197551
 21
16.67290071787224
 31
0.0
  0
LINE
  5
133
330
1F
100
AcDbEntity
  8
0
100
AcDbLine
 10
3.62627196660869
 20
16.62290061654434
 30
0.0
 11
3.612909797342943
 21
16.62290061654434
 31
0.0
  0
LINE
  5
134
330
1F
100
AcDbEntity
  8
0
100
AcDbLine
 10
12.56290960660808
 20
8.672900896686176
 30
0.0
 11
12.56290960660808
 21
8.686263065951923
 31
0.0
  0
LINE
  5
135
330
1F
100
AcDbEntity
  8
0
100
AcDbLine
 10
12.66290980926387
 20
16.52290071191177
 30
0.0
 11
12.61290955892436
 21
16.52290071191177
 31
0.0
  0
HATCH
  5
55D
330
1F
100
AcDbEntity
  8
0
  6
CONTINUOUS
 62
     7
100
AcDbHatch
 10
0.0
 20
0.0
 30
0.0
210
0.0
220
0.0
230
1.0
  2
ANSI32
 70
     0
 71
     0
 91
        1
 92
        0
 93
        4
 72
     1
 10
12.41290967813364
 20
3.755899584996653
 11
12.56290967813364
 21
3.755899584996653
 72
     1
 10
12.56290967813364
 20
3.755899584996653
 11
12.56290967813364
 21
3.785899584996652
 72
     1
 10
12.56290967813364
 20
3.785899584996652
 11
12.41290967813364
 21
3.785899584996652
 72
     1
 10
12.41290967813364
 20
3.785899584996652
 11
12.41290967813364
 21
3.755899584996653
 97
        0
 75
     0
 76
     1
 52
0.0
 41
0.1
 77
     0
 78
     2
 53
45.0
 43
0.0
 44
0.0
 45
-0.6735192090801866
 46
0.6735192090801866
 79
     0
 53
45.0
 43
0.449013
 44
0.0
 45
-0.6735192090801866
 46
0.6735192090801866
 79
     0
 98
        1
 10
0.0
 20
0.0
  0
HATCH
  5
55E
330
1F
100
AcDbEntity
  8
0
  6
CONTINUOUS
 62
     7
100
AcDbHatch
 10
0.0
 20
0.0
 30
0.0
210
0.0
220
0.0
230
1.0
  2
ANSI32
 70
     0
 71
     0
 91
        1
 92
        0
 93
        4
 72
     1
 10
12.41290967813364
 20
2.899899584996653
 11
12.56290967813364
 21
2.899899584996652
 72
     1
 10
12.56290967813364
 20
2.899899584996652
 11
12.56290967813364
 21
2.929899584996652
 72
     1
 10
12.56290967813364
 20
2.929899584996652
 11
12.41290967813364
 21
2.929899584996652
 72
     1
 10
12.41290967813364
 20
2.929899584996652
 11
12.41290967813364
 21
2.899899584996653
 97
        0
 75
     0
 76
     1
 52
0.0
 41
0.1
 77
     0
 78
     2
 53
45.0
 43
0.0
 44
0.0
 45
-0.6735192090801866
 46
0.6735192090801866
 79
     0
 53
45.0
 43
0.449013
 44
0.0
 45
-0.6735192090801866
 46
0.6735192090801866
 79
     0
 98
        1
 10
0.0
 20
0.0
  0
ENDSEC
  0
SECTION
  2
OBJECTS
  0
DICTIONARY
  5
C
330
0
100
AcDbDictionary
  3
ACAD_GROUP
350
D
  3
ACAD_LAYOUT
350
1A
  3
ACAD_MLINESTYLE
350
17
  3
ACAD_PLOTSETTINGS
350
19
  3
ACAD_PLOTSTYLENAME
350
E
  3
ACDBHEADERROUNDTRIPXREC
350
6CD
  3
ACDBVARIABLEDICTIONARY
350
6A2
  0
DICTIONARY
  5
6F0
330
1F
100
AcDbDictionary
280
     1
  3
ACAD_LAYOUTSELFREF
360
6F1
  0
DICTIONARY
  5
6EE
330
1B
100
AcDbDictionary
280
     1
  3
ACAD_LAYOUTSELFREF
360
6EF
  0
DICTIONARY
  5
D
102
{ACAD_REACTORS
330
C
102
}
330
C
100
AcDbDictionary
  0
DICTIONARY
  5
1A
102
{ACAD_REACTORS
330
C
102
}
330
C
100
AcDbDictionary
  0
DICTIONARY
  5
17
102
{ACAD_REACTORS
330
C
102
}
330
C
100
AcDbDictionary
  3
STANDARD
350
18
  0
DICTIONARY
  5
19
102
{ACAD_REACTORS
330
C
102
}
330
C
100
AcDbDictionary
  0
ACDBDICTIONARYWDFLT
  5
E
102
{ACAD_REACTORS
330
C
102
}
330
C
100
AcDbDictionary
281
     1
  3
Normal
350
F
100
AcDbDictionaryWithDefault
340
F
  0
DICTIONARY
  5
6CD
102
{ACAD_REACTORS
330
C
102
}
330
C
100
AcDbDictionary
  3
CEPSNTYPE
350
6D7
  3
DIMSTYLEDATA
350
6DB
  3
FINGERPRINTGUID
350
6D8
  3
HYPERLINKBASE
350
6D0
  3
INSUNITS
350
6D6
  3
LAYOUTDICT
350
6D2
  3
LWETCUNION
350
6D5
  3
PLOTSETDICT
350
6D3
  3
PLOTSTYLNAMDICT
350
6D4
  3
PSVPSCALE
350
6DA
  3
PUCSBASE
350
6DE
  3
PUCSORGBACK
350
6E4
  3
PUCSORGBOTTOM
350
6E0
  3
PUCSORGFRONT
350
6E3
  3
PUCSORGLEFT
350
6E1
  3
PUCSORGRIGHT
350
6E2
  3
PUCSORGTOP
350
6DF
  3
PUCSORTHOREF
350
6DC
  3
PUCSORTHOVIEW
350
6DD
  3
STYLESHEET
350
6D1
  3
TSTACKALIGN
350
6CE
  3
TSTACKSIZE
350
6CF
  3
UCSBASE
350
6E7
  3
UCSORGBACK
350
6ED
  3
UCSORGBOTTOM
350
6E9
  3
UCSORGFRONT
350
6EC
  3
UCSORGLEFT
350
6EA
  3
UCSORGRIGHT
350
6EB
  3
UCSORGTOP
350
6E8
  3
UCSORTHOREF
350
6E5
  3
UCSORTHOVIEW
350
6E6
  3
VERSIONGUID
350
6D9
  0
DICTIONARY
  5
6A2
102
{ACAD_REACTORS
330
C
102
}
330
C
100
AcDbDictionary
  3
DIMASSOC
350
6A3
  0
XRECORD
  5
6F1
102
{ACAD_REACTORS
330
6F0
102
}
330
6F0
100
AcDbXrecord
340
1F
  0
XRECORD
  5
6EF
102
{ACAD_REACTORS
330
6EE
102
}
330
6EE
100
AcDbXrecord
340
1B
  0
MLINESTYLE
  5
18
102
{ACAD_REACTORS
330
17
102
}
330
17
100
AcDbMlineStyle
  2
STANDARD
 70
     0
  3

 62
   256
 51
90.0
 52
90.0
 71
     2
 49
0.5
 62
   256
  6
BYLAYER
 49
-0.5
 62
   256
  6
BYLAYER
  0
ACDBPLACEHOLDER
  5
F
102
{ACAD_REACTORS
330
E
102
}
330
E
100
AcDbPlaceHolder
280
     0
  0
XRECORD
  5
6D7
102
{ACAD_REACTORS
330
6CD
102
}
330
6CD
100
AcDbXrecord
 90
        0
  0
XRECORD
  5
6DB
102
{ACAD_REACTORS
330
6CD
102
}
330
6CD
100
AcDbXrecord
1000
DSTYLE
1002
{
1070
   278
 70
    44
1002
}
  0
XRECORD
  5
6D8
102
{ACAD_REACTORS
330
6CD
102
}
330
6CD
100
AcDbXrecord
  1
{E9F71E0D-FA82-4B4D-91D0-0354AE9B71A8}
  0
XRECORD
  5
6D0
102
{ACAD_REACTORS
330
6CD
102
}
330
6CD
100
AcDbXrecord
  1

  0
XRECORD
  5
6D6
102
{ACAD_REACTORS
330
6CD
102
}
330
6CD
100
AcDbXrecord
 90
        4
  0
XRECORD
  5
6D2
102
{ACAD_REACTORS
330
6CD
102
}
330
6CD
100
AcDbXrecord
340
1A
  0
XRECORD
  5
6D5
102
{ACAD_REACTORS
330
6CD
102
}
330
6CD
100
AcDbXrecord
 90
    10781
  0
XRECORD
  5
6D3
102
{ACAD_REACTORS
330
6CD
102
}
330
6CD
100
AcDbXrecord
340
19
  0
XRECORD
  5
6D4
102
{ACAD_REACTORS
330
6CD
102
}
330
6CD
100
AcDbXrecord
340
E
  0
XRECORD
  5
6DA
102
{ACAD_REACTORS
330
6CD
102
}
330
6CD
100
AcDbXrecord
 40
0.0
  0
XRECORD
  5
6DE
102
{ACAD_REACTORS
330
6CD
102
}
330
6CD
100
AcDbXrecord
340
0
  0
XRECORD
  5
6E4
102
{ACAD_REACTORS
330
6CD
102
}
330
6CD
100
AcDbXrecord
 10
0.0
 20
0.0
 30
0.0
  0
XRECORD
  5
6E0
102
{ACAD_REACTORS
330
6CD
102
}
330
6CD
100
AcDbXrecord
 10
0.0
 20
0.0
 30
0.0
  0
XRECORD
  5
6E3
102
{ACAD_REACTORS
330
6CD
102
}
330
6CD
100
AcDbXrecord
 10
0.0
 20
0.0
 30
0.0
  0
XRECORD
  5
6E1
102
{ACAD_REACTORS
330
6CD
102
}
330
6CD
100
AcDbXrecord
 10
0.0
 20
0.0
 30
0.0
  0
XRECORD
  5
6E2
102
{ACAD_REACTORS
330
6CD
102
}
330
6CD
100
AcDbXrecord
 10
0.0
 20
0.0
 30
0.0
  0
XRECORD
  5
6DF
102
{ACAD_REACTORS
330
6CD
102
}
330
6CD
100
AcDbXrecord
 10
0.0
 20
0.0
 30
0.0
  0
XRECORD
  5
6DC
102
{ACAD_REACTORS
330
6CD
102
}
330
6CD
100
AcDbXrecord
340
0
  0
XRECORD
  5
6DD
102
{ACAD_REACTORS
330
6CD
102
}
330
6CD
100
AcDbXrecord
 70
     0
  0
XRECORD
  5
6D1
102
{ACAD_REACTORS
330
6CD
102
}
330
6CD
100
AcDbXrecord
  1

  0
XRECORD
  5
6CE
102
{ACAD_REACTORS
330
6CD
102
}
330
6CD
100
AcDbXrecord
 90
        1
  0
XRECORD
  5
6CF
102
{ACAD_REACTORS
330
6CD
102
}
330
6CD
100
AcDbXrecord
 90
       70
  0
XRECORD
  5
6E7
102
{ACAD_REACTORS
330
6CD
102
}
330
6CD
100
AcDbXrecord
340
0
  0
XRECORD
  5
6ED
102
{ACAD_REACTORS
330
6CD
102
}
330
6CD
100
AcDbXrecord
 10
0.0
 20
0.0
 30
0.0
  0
XRECORD
  5
6E9
102
{ACAD_REACTORS
330
6CD
102
}
330
6CD
100
AcDbXrecord
 10
0.0
 20
0.0
 30
0.0
  0
XRECORD
  5
6EC
102
{ACAD_REACTORS
330
6CD
102
}
330
6CD
100
AcDbXrecord
 10
0.0
 20
0.0
 30
0.0
  0
XRECORD
  5
6EA
102
{ACAD_REACTORS
330
6CD
102
}
330
6CD
100
AcDbXrecord
 10
0.0
 20
0.0
 30
0.0
  0
XRECORD
  5
6EB
102
{ACAD_REACTORS
330
6CD
102
}
330
6CD
100
AcDbXrecord
 10
0.0
 20
0.0
 30
0.0
  0
XRECORD
  5
6E8
102
{ACAD_REACTORS
330
6CD
102
}
330
6CD
100
AcDbXrecord
 10
0.0
 20
0.0
 30
0.0
  0
XRECORD
  5
6E5
102
{ACAD_REACTORS
330
6CD
102
}
330
6CD
100
AcDbXrecord
340
0
  0
XRECORD
  5
6E6
102
{ACAD_REACTORS
330
6CD
102
}
330
6CD
100
AcDbXrecord
 70
     0
  0
XRECORD
  5
6D9
102
{ACAD_REACTORS
330
6CD
102
}
330
6CD
100
AcDbXrecord
  1
{7AB32247-D90C-412D-BA73-67C1EC81A6F6}
  0
DICTIONARYVAR
  5
6A3
102
{ACAD_REACTORS
330
6A2
102
}
330
6A2
100
DictionaryVariables
280
     0
  1
1
  0
ENDSEC
  0
EOF
