  0
SECTION
  2
HEADER
  9
$ACADVER
  1
AC1014
  9
$ACADMAINTVER
 70
     9
  9
$DWGCODEPAGE
  3
ANSI_1250
  9
$INSBASE
 10
0.0
 20
0.0
 30
0.0
  9
$EXTMIN
 10
3.211099599918624
 20
8.015226615415862
 30
0.0
  9
$EXTMAX
 10
13.25260148101039
 20
17.05667647058034
 30
0.0
  9
$LIMMIN
 10
0.0
 20
0.0
  9
$LIMMAX
 10
0.0
 20
0.0
  9
$ORTHOMODE
 70
     0
  9
$REGENMODE
 70
     1
  9
$FILLMODE
 70
     1
  9
$QTEXTMODE
 70
     0
  9
$MIRRTEXT
 70
     1
  9
$DRAGMODE
 70
     2
  9
$LTSCALE
 40
1.0
  9
$OSMODE
 70
  3007
  9
$ATTMODE
 70
     1
  9
$TEXTSIZE
 40
2.5
  9
$TRACEWID
 40
1.0
  9
$TEXTSTYLE
  7
STANDARD
  9
$CLAYER
  8
0
  9
$CELTYPE
  6
BYLAYER
  9
$CECOLOR
 62
   256
  9
$CELTSCALE
 40
1.0
  9
$DELOBJ
 70
     1
  9
$DISPSILH
 70
     0
  9
$DIMSCALE
 40
1.0
  9
$DIMASZ
 40
0.3
  9
$DIMEXO
 40
0.01
  9
$DIMDLI
 40
3.75
  9
$DIMRND
 40
0.0
  9
$DIMDLE
 40
0.0
  9
$DIMEXE
 40
0.1
  9
$DIMTP
 40
0.0
  9
$DIMTM
 40
0.0
  9
$DIMTXT
 40
0.2822222222222222
  9
$DIMCEN
 40
2.5
  9
$DIMTSZ
 40
0.0
  9
$DIMTOL
 70
     0
  9
$DIMLIM
 70
     0
  9
$DIMTIH
 70
     1
  9
$DIMTOH
 70
     1
  9
$DIMSE1
 70
     0
  9
$DIMSE2
 70
     0
  9
$DIMTAD
 70
     1
  9
$DIMZIN
 70
     0
  9
$DIMBLK
  1

  9
$DIMASO
 70
     1
  9
$DIMSHO
 70
     1
  9
$DIMPOST
  1

  9
$DIMAPOST
  1

  9
$DIMALT
 70
     0
  9
$DIMALTD
 70
     3
  9
$DIMALTF
 40
0.3937007874015748
  9
$DIMLFAC
 40
10.0
  9
$DIMTOFL
 70
     1
  9
$DIMTVP
 40
0.0
  9
$DIMTIX
 70
     0
  9
$DIMSOXD
 70
     0
  9
$DIMSAH
 70
     0
  9
$DIMBLK1
  1

  9
$DIMBLK2
  1

  9
$DIMSTYLE
  2
ISO-25
  9
$DIMCLRD
 70
     0
  9
$DIMCLRE
 70
     0
  9
$DIMCLRT
 70
     0
  9
$DIMTFAC
 40
1.0
  9
$DIMGAP
 40
0.1524
  9
$DIMJUST
 70
     0
  9
$DIMSD1
 70
     0
  9
$DIMSD2
 70
     0
  9
$DIMTOLJ
 70
     0
  9
$DIMTZIN
 70
     0
  9
$DIMALTZ
 70
     0
  9
$DIMALTTZ
 70
     0
  9
$DIMFIT
 70
     3
  9
$DIMUPT
 70
     0
  9
$DIMUNIT
 70
     2
  9
$DIMDEC
 70
     2
  9
$DIMTDEC
 70
     2
  9
$DIMALTU
 70
     2
  9
$DIMALTTD
 70
     3
  9
$DIMTXSTY
  7
STANDARD
  9
$DIMAUNIT
 70
     0
  9
$LUNITS
 70
     2
  9
$LUPREC
 70
     2
  9
$SKETCHINC
 40
1.0
  9
$FILLETRAD
 40
10.0
  9
$AUNITS
 70
     0
  9
$AUPREC
 70
     0
  9
$MENU
  1
.
  9
$ELEVATION
 40
0.0
  9
$PELEVATION
 40
0.0
  9
$THICKNESS
 40
0.0
  9
$LIMCHECK
 70
     0
  9
$BLIPMODE
 70
     0
  9
$CHAMFERA
 40
10.0
  9
$CHAMFERB
 40
10.0
  9
$CHAMFERC
 40
20.0
  9
$CHAMFERD
 40
0.0
  9
$SKPOLY
 70
     0
  9
$TDCREATE
 40
2453965.639791840
  9
$TDUPDATE
 40
2453966.357469247
  9
$TDINDWG
 40
0.0028920949
  9
$TDUSRTIMER
 40
0.0028920949
  9
$USRTIMER
 70
     1
  9
$ANGBASE
 50
0.0
  9
$ANGDIR
 70
     0
  9
$PDMODE
 70
     0
  9
$PDSIZE
 40
-1.0
  9
$PLINEWID
 40
0.0
  9
$COORDS
 70
     2
  9
$SPLFRAME
 70
     0
  9
$SPLINETYPE
 70
     6
  9
$SPLINESEGS
 70
     8
  9
$ATTDIA
 70
     0
  9
$ATTREQ
 70
     1
  9
$HANDLING
 70
 22529
  9
$HANDSEED
  5
28F
  9
$SURFTAB1
 70
     6
  9
$SURFTAB2
 70
     6
  9
$SURFTYPE
 70
     6
  9
$SURFU
 70
     6
  9
$SURFV
 70
     6
  9
$UCSNAME
  2

  9
$UCSORG
 10
0.0
 20
0.0
 30
0.0
  9
$UCSXDIR
 10
1.0
 20
0.0
 30
0.0
  9
$UCSYDIR
 10
0.0
 20
1.0
 30
0.0
  9
$PUCSNAME
  2

  9
$PUCSORG
 10
0.0
 20
0.0
 30
0.0
  9
$PUCSXDIR
 10
1.0
 20
0.0
 30
0.0
  9
$PUCSYDIR
 10
0.0
 20
1.0
 30
0.0
  9
$USERI1
 70
     0
  9
$USERI2
 70
     0
  9
$USERI3
 70
     0
  9
$USERI4
 70
     0
  9
$USERI5
 70
     0
  9
$USERR1
 40
0.0
  9
$USERR2
 40
0.0
  9
$USERR3
 40
0.0
  9
$USERR4
 40
0.0
  9
$USERR5
 40
0.0
  9
$WORLDVIEW
 70
     1
  9
$SHADEDGE
 70
     3
  9
$SHADEDIF
 70
    70
  9
$TILEMODE
 70
     1
  9
$MAXACTVP
 70
    48
  9
$PINSBASE
 10
0.0
 20
0.0
 30
0.0
  9
$PLIMCHECK
 70
     0
  9
$PEXTMIN
 10
1.000000000000000E+20
 20
1.000000000000000E+20
 30
1.000000000000000E+20
  9
$PEXTMAX
 10
-1.000000000000000E+20
 20
-1.000000000000000E+20
 30
-1.000000000000000E+20
  9
$PLIMMIN
 10
0.0
 20
0.0
  9
$PLIMMAX
 10
420.0
 20
297.0
  9
$UNITMODE
 70
     0
  9
$VISRETAIN
 70
     1
  9
$PLINEGEN
 70
     0
  9
$PSLTSCALE
 70
     1
  9
$TREEDEPTH
 70
  3020
  9
$PICKSTYLE
 70
     1
  9
$CMLSTYLE
  2
STANDARD
  9
$CMLJUST
 70
     0
  9
$CMLSCALE
 40
20.0
  9
$PROXYGRAPHICS
 70
     1
  9
$MEASUREMENT
 70
     1
  0
ENDSEC
  0
SECTION
  2
CLASSES
  0
CLASS
  1
ACDBDICTIONARYWDFLT
  2
AcDbDictionaryWithDefault
  3
AutoCAD 2000
 90
        0
280
     0
281
     0
  0
CLASS
  1
ACDBPLACEHOLDER
  2
AcDbPlaceHolder
  3
AutoCAD 2000
 90
        0
280
     0
281
     0
  0
CLASS
  1
LAYOUT
  2
AcDbLayout
  3
AutoCAD 2000
 90
        0
280
     0
281
     0
  0
CLASS
  1
DICTIONARYVAR
  2
AcDbDictionaryVar
  3
AutoCAD 2000
 90
        0
280
     0
281
     0
  0
CLASS
  1
LONG_TRANSACTION
  2
AcDbLongTransaction
  3
AutoCAD 2000
 90
        0
280
     0
281
     0
  0
CLASS
  1
LWPOLYLINE
  2
AcDbPolyline
  3
AutoCAD 2000
 90
        0
280
     0
281
     1
  0
CLASS
  1
HATCH
  2
AcDbHatch
  3
AutoCAD 2000
 90
        0
280
     0
281
     1
  0
CLASS
  1
XRECORD
  2
AcDbXrecord
  3
AutoCAD 2000
 90
        0
280
     0
281
     0
  0
CLASS
  1
LONG_TRANSACTION
  2
AcDbLongTransaction
  3
AutoCAD 2000
 90
        0
280
     0
281
     0
  0
CLASS
  1
LWPOLYLINE
  2
AcDbPolyline
  3
AutoCAD 2000
 90
        0
280
     0
281
     1
  0
CLASS
  1
HATCH
  2
AcDbHatch
  3
AutoCAD 2000
 90
        0
280
     0
281
     1
  0
CLASS
  1
XRECORD
  2
AcDbXrecord
  3
AutoCAD 2000
 90
        0
280
     0
281
     0
  0
ENDSEC
  0
SECTION
  2
TABLES
  0
TABLE
  2
VPORT
  5
8
330
0
100
AcDbSymbolTable
 70
     2
  0
VPORT
  5
26A
330
8
100
AcDbSymbolTableRecord
100
AcDbViewportTableRecord
  2
*ACTIVE
 70
     0
 10
0.0
 20
0.0
 11
1.0
 21
1.0
 12
8.232350983077605
 22
12.53636174560101
 13
0.0
 23
0.0
 14
10.0
 24
10.0
 15
10.0
 25
10.0
 16
0.0
 26
0.0
 36
1.0
 17
0.0
 27
0.0
 37
0.0
 40
9.133753854508571
 41
1.674961119751166
 42
50.0
 43
0.0
 44
0.0
 50
0.0
 51
0.0
 71
     0
 72
  2000
 73
     1
 74
     3
 75
     0
 76
     0
 77
     0
 78
     0
  0
ENDTAB
  0
TABLE
  2
LTYPE
  5
5
330
0
100
AcDbSymbolTable
 70
     1
  0
LTYPE
  5
14
330
5
100
AcDbSymbolTableRecord
100
AcDbLinetypeTableRecord
  2
BYBLOCK
 70
     0
  3

 72
    65
 73
     0
 40
0.0
  0
LTYPE
  5
15
330
5
100
AcDbSymbolTableRecord
100
AcDbLinetypeTableRecord
  2
BYLAYER
 70
     0
  3

 72
    65
 73
     0
 40
0.0
  0
LTYPE
  5
16
330
5
100
AcDbSymbolTableRecord
100
AcDbLinetypeTableRecord
  2
CONTINUOUS
 70
     0
  3
Solid line
 72
    65
 73
     0
 40
0.0
  0
ENDTAB
  0
TABLE
  2
LAYER
  5
2
330
0
100
AcDbSymbolTable
 70
     1
  0
LAYER
  5
10
330
2
100
AcDbSymbolTableRecord
100
AcDbLayerTableRecord
  2
0
 70
     0
 62
     7
  6
CONTINUOUS
  0
ENDTAB
  0
TABLE
  2
STYLE
  5
3
330
0
100
AcDbSymbolTable
 70
     1
  0
STYLE
  5
11
330
3
100
AcDbSymbolTableRecord
100
AcDbTextStyleTableRecord
  2
STANDARD
 70
     0
 40
0.0
 41
1.0
 50
0.0
 71
     0
 42
2.5
  3
ARIAL.TTF
  4

1001
ACAD
1000
Arial
1071
       34
  0
ENDTAB
  0
TABLE
  2
VIEW
  5
6
330
0
100
AcDbSymbolTable
 70
     0
  0
ENDTAB
  0
TABLE
  2
UCS
  5
7
330
0
100
AcDbSymbolTable
 70
     0
  0
ENDTAB
  0
TABLE
  2
APPID
  5
9
330
0
100
AcDbSymbolTable
 70
     1
  0
APPID
  5
12
330
9
100
AcDbSymbolTableRecord
100
AcDbRegAppTableRecord
  2
ACAD
 70
     0
  0
ENDTAB
  0
TABLE
  2
DIMSTYLE
  5
A
330
0
100
AcDbSymbolTable
 70
     1
  0
DIMSTYLE
105
27
330
A
100
AcDbSymbolTableRecord
100
AcDbDimStyleTableRecord
  2
ISO-25
 70
     0
  3

  4

  5

  6

  7

 40
1.0
 41
2.5
 42
0.625
 43
3.75
 44
1.25
 45
0.0
 46
0.0
 47
0.0
 48
0.0
140
2.5
141
2.5
142
0.0
143
0.03937007874016
144
1.0
145
0.0
146
1.0
147
0.625
 71
     0
 72
     0
 73
     0
 74
     0
 75
     0
 76
     0
 77
     1
 78
     8
170
     0
171
     3
172
     1
173
     0
174
     0
175
     0
176
     0
177
     0
178
     0
270
     2
271
     2
272
     2
273
     2
274
     3
340
11
275
     0
280
     0
281
     0
282
     0
283
     0
284
     8
285
     0
286
     0
287
     3
288
     0
  0
ENDTAB
  0
TABLE
  2
BLOCK_RECORD
  5
1
330
0
100
AcDbSymbolTable
 70
     1
  0
BLOCK_RECORD
  5
1F
102
{ACAD_XDICTIONARY
360
22D
102
}
330
1
100
AcDbSymbolTableRecord
100
AcDbBlockTableRecord
  2
*MODEL_SPACE
  0
BLOCK_RECORD
  5
1B
102
{ACAD_XDICTIONARY
360
22F
102
}
330
1
100
AcDbSymbolTableRecord
100
AcDbBlockTableRecord
  2
*PAPER_SPACE
  0
ENDTAB
  0
ENDSEC
  0
SECTION
  2
BLOCKS
  0
BLOCK
  5
20
330
1F
100
AcDbEntity
  8
0
100
AcDbBlockBegin
  2
*MODEL_SPACE
 70
     0
 10
0.0
 20
0.0
 30
0.0
  3
*MODEL_SPACE
  1

  0
ENDBLK
  5
21
330
1F
100
AcDbEntity
  8
0
100
AcDbBlockEnd
  0
BLOCK
  5
1C
330
1B
100
AcDbEntity
 67
     1
  8
0
100
AcDbBlockBegin
  2
*PAPER_SPACE
 70
     0
 10
0.0
 20
0.0
 30
0.0
  3
*PAPER_SPACE
  1

  0
ENDBLK
  5
1D
330
1B
100
AcDbEntity
 67
     1
  8
0
100
AcDbBlockEnd
  0
ENDSEC
  0
SECTION
  2
ENTITIES
  0
ARC
  5
A9
330
1F
100
AcDbEntity
  8
0
  6
CONTINUOUS
 62
     7
100
AcDbCircle
 10
3.33175257350773
 20
16.93604471234617
 30
0.0
 40
0.0999101458560144
100
AcDbArc
 50
89.98334128258184
 51
180.0755177214682
  0
ARC
  5
AA
330
1F
100
AcDbEntity
  8
0
  6
CONTINUOUS
 62
     7
100
AcDbCircle
 10
13.13193273926438
 20
16.93604522709175
 30
0.0
 40
0.0999097795193739
100
AcDbArc
 50
359.9830933734947
 51
90.0168215902577
  0
ARC
  5
AB
330
1F
100
AcDbEntity
  8
0
  6
CONTINUOUS
 62
     7
100
AcDbCircle
 10
3.33175231673301
 20
8.13586448313072
 30
0.0
 40
0.0999098066301558
100
AcDbArc
 50
179.9831288582163
 51
270.0168060278776
  0
ARC
  5
AC
330
1F
100
AcDbEntity
  8
0
  6
CONTINUOUS
 62
     7
100
AcDbCircle
 10
13.13193202049186
 20
8.135865440829775
 30
0.0
 40
0.099910650552649
100
AcDbArc
 50
269.9835907510294
 51
0.1014476480729866
  0
LINE
  5
AD
330
1F
100
AcDbEntity
  8
0
  6
CONTINUOUS
 62
     7
100
AcDbLine
 10
13.13190340653929
 20
17.03595485397922
 30
0.0
 11
3.331781622329087
 21
17.03595485397922
 31
0.0
  0
LINE
  5
AE
330
1F
100
AcDbEntity
  8
0
  6
CONTINUOUS
 62
     7
100
AcDbLine
 10
3.231842514434189
 20
16.93601574608432
 30
0.0
 11
3.231842514434189
 21
8.135893902269476
 31
0.0
  0
LINE
  5
AF
330
1F
100
AcDbEntity
  8
0
  6
CONTINUOUS
 62
     7
100
AcDbLine
 10
13.23184251443418
 20
8.135893902269476
 30
0.0
 11
13.23184251443418
 21
16.93601574608432
 31
0.0
  0
LINE
  5
B0
330
1F
100
AcDbEntity
  8
0
  6
CONTINUOUS
 62
     7
100
AcDbLine
 10
3.331781622329087
 20
8.035954794374578
 30
0.0
 11
13.13190340653929
 21
8.035954794374578
 31
0.0
  0
CIRCLE
  5
B1
330
1F
100
AcDbEntity
  8
0
  6
CONTINUOUS
 62
     7
100
AcDbCircle
 10
8.231842514434189
 20
15.53595479437458
 30
0.0
 40
0.4500000000000011
  0
LWPOLYLINE
  5
B7
330
1F
100
AcDbEntity
  8
0
  6
CONTINUOUS
 62
     7
100
AcDbPolyline
 90
       13
 70
   128
 43
0.0
 10
12.61049717322859
 20
8.737596234766117
 10
12.60803699151548
 20
8.93755193659412
 10
12.59844064370665
 20
9.737383088556402
 10
12.58929967538389
 20
10.5372345060979
 10
12.58078366176161
 20
11.3371070832883
 10
12.57311552421126
 20
12.13700350233661
 10
12.56651788608107
 20
12.9369258494054
 10
12.56272703067335
 20
13.49383350321399
 10
12.55973368541273
 20
14.05076067754375
 10
12.557600137153
 20
14.60770111390697
 10
12.55638867274794
 20
15.16464840480434
 10
12.55616128102812
 20
15.72159632900106
 10
12.55698084489378
 20
16.27853851625072
  0
LWPOLYLINE
  5
BD
330
1F
100
AcDbEntity
  8
0
  6
CONTINUOUS
 62
     7
100
AcDbPolyline
 90
       13
 70
   128
 43
0.0
 10
3.933738168635697
 20
8.656304439989201
 10
4.133720692553849
 20
8.657833895174139
 10
4.933664199271531
 20
8.663390240160101
 10
5.733638700404496
 20
8.667933306184879
 10
6.533632424035401
 20
8.671342691866032
 10
7.333638068595262
 20
8.67352481791126
 10
8.133648192816705
 20
8.674384912935369
 10
8.866383876958222
 20
8.673944434610477
 10
9.599118378320069
 20
8.672367891756168
 10
10.33184662119421
 20
8.669736346689335
 10
11.06456398622069
 20
8.666128477541082
 10
11.79726570502791
 20
8.661624154535404
 10
12.52994686023268
 20
8.656304439989201
  0
LWPOLYLINE
  5
CA
330
1F
100
AcDbEntity
  8
0
  6
CONTINUOUS
 62
     7
100
AcDbPolyline
 90
       28
 70
   128
 43
0.0
 10
3.716556724467606
 20
16.36516664036857
 10
3.716846105017991
 20
16.3770981491481
 10
3.717713054576249
 20
16.38880546995746
 10
3.719156381049484
 20
16.40026483544455
 10
3.721172806182236
 20
16.41145299979793
 10
3.723758455672593
 20
16.42234701522933
 10
3.7269076670793
 20
16.43292490252601
 10
3.730614479937882
 20
16.44316498049842
 10
3.734871145644516
 20
16.45304653653251
 10
3.739669021525712
 20
16.46254945406066
 10
3.744998272815079
 20
16.47165428706752
 10
3.750848170676559
 20
16.48034263261901
 10
3.757206794181199
 20
16.48859675833332
 10
3.764061328330368
 20
16.49639982589828
 10
3.771397468009324
 20
16.50373604008304
 10
3.779200610080093
 20
16.51059042522059
 10
3.78745466128859
 20
16.51694904872524
 10
3.796142932334275
 20
16.52279902109252
 10
3.805247839846939
 20
16.52812827238189
 10
3.81475060836348
 20
16.53292614826308
 10
3.824632164397568
 20
16.53718281396972
 10
3.834872540393204
 20
16.5408896268283
 10
3.845450278678269
 20
16.54403898724662
 10
3.856344219603867
 20
16.54662448772537
 10
3.867532309451432
 20
16.54864091285811
 10
3.878991898455948
 20
16.55008416482555
 10
3.890699144759507
 20
16.55095133790122
 10
3.902630802550644
 20
16.55124056944
  0
LINE
  5
CB
330
1F
100
AcDbEntity
  8
0
  6
CONTINUOUS
 62
     7
100
AcDbLine
 10
3.716556724467606
 20
8.706743082491033
 30
0.0
 11
3.716556724467606
 21
16.36516664036857
 31
0.0
  0
LWPOLYLINE
  5
CC
330
1F
100
AcDbEntity
  8
0
  6
CONTINUOUS
 62
     7
100
AcDbPolyline
 90
       28
 70
   128
 43
0.0
 10
3.902630802550644
 20
8.520669302431219
 10
3.890699144759507
 20
8.52095838495838
 10
3.878991898455948
 20
8.521825632539862
 10
3.867532309451432
 20
8.523268660989874
 10
3.856344219603867
 20
8.525285086122625
 10
3.845450278678269
 20
8.527870735612982
 10
3.834872540393204
 20
8.531020245042913
 10
3.824632164397568
 20
8.534727057901495
 10
3.81475060836348
 20
8.538983425584905
 10
3.805247839846939
 20
8.543781003442877
 10
3.796142932334275
 20
8.549110850778692
 10
3.78745466128859
 20
8.554960450616949
 10
3.779200610080093
 20
8.561319074121588
 10
3.771397468009324
 20
8.568173608270758
 10
3.764061328330368
 20
8.575509747949713
 10
3.757206794181199
 20
8.583312591997257
 10
3.750848170676559
 20
8.591567239252203
 10
3.744998272815079
 20
8.600255212274662
 10
3.739669021525712
 20
8.609360417810552
 10
3.734871145644516
 20
8.618863186327093
 10
3.730614479937882
 20
8.628744444337957
 10
3.7269076670793
 20
8.638984522310369
 10
3.723758455672593
 20
8.649562558618658
 10
3.721172806182236
 20
8.660456499544256
 10
3.719156381049484
 20
8.671644887415045
 10
3.717713054576249
 20
8.683103880373113
 10
3.716846105017991
 20
8.694811424699896
 10
3.716556724467606
 20
8.706743082491033
  0
LINE
  5
CD
330
1F
100
AcDbEntity
  8
0
  6
CONTINUOUS
 62
     7
100
AcDbLine
 10
12.56105422631773
 20
8.520669302431219
 30
0.0
 11
3.902630802550644
 21
8.520669302431219
 31
0.0
  0
LWPOLYLINE
  5
CE
330
1F
100
AcDbEntity
  8
0
  6
CONTINUOUS
 62
     7
100
AcDbPolyline
 90
       28
 70
   128
 43
0.0
 10
12.74712830440077
 20
8.706743082491033
 10
12.74683892385039
 20
8.694811424699896
 10
12.74597197429213
 20
8.683103880373113
 10
12.74452864781889
 20
8.671644887415045
 10
12.74251222268614
 20
8.660456499544256
 10
12.73992657319578
 20
8.649562558618658
 10
12.73677736178908
 20
8.638984522310369
 10
12.73307054893049
 20
8.628744444337957
 10
12.72881388322386
 20
8.618863186327093
 10
12.72401600734266
 20
8.609360417810552
 10
12.71868675605329
 20
8.600255212274662
 10
12.71283685819182
 20
8.591567239252203
 10
12.70647823468717
 20
8.583312591997257
 10
12.699623700538
 20
8.575509747949713
 10
12.69228756085905
 20
8.568173608270758
 10
12.68448441878828
 20
8.561319074121588
 10
12.67623036757978
 20
8.554960450616949
 10
12.6675420965341
 20
8.549110850778692
 10
12.65843718902144
 20
8.543781003442877
 10
12.64893442050489
 20
8.538983425584905
 10
12.63905286447081
 20
8.534727057901495
 10
12.62881248847517
 20
8.531020245042913
 10
12.61823475019011
 20
8.527870735612982
 10
12.60734080926451
 20
8.525285086122625
 10
12.59615271941694
 20
8.523268660989874
 10
12.58469313041243
 20
8.521825632539862
 10
12.57298588410887
 20
8.52095838495838
 10
12.56105422631773
 20
8.520669302431219
  0
LINE
  5
CF
330
1F
100
AcDbEntity
  8
0
  6
CONTINUOUS
 62
     7
100
AcDbLine
 10
12.74712830440077
 20
16.36516664036857
 30
0.0
 11
12.74712830440077
 21
8.706743082491033
 31
0.0
  0
LWPOLYLINE
  5
D0
330
1F
100
AcDbEntity
  8
0
  6
CONTINUOUS
 62
     7
100
AcDbPolyline
 90
       28
 70
   128
 43
0.0
 10
12.56105422631773
 20
16.55124056944
 10
12.57298588410887
 20
16.55095133790122
 10
12.58469313041243
 20
16.55008416482555
 10
12.59615271941694
 20
16.54864091285811
 10
12.60734080926451
 20
16.54662448772537
 10
12.61823475019011
 20
16.54403898724662
 10
12.62881248847517
 20
16.5408896268283
 10
12.63905286447081
 20
16.53718281396972
 10
12.64893442050489
 20
16.53292614826308
 10
12.65843718902144
 20
16.52812827238189
 10
12.6675420965341
 20
16.52279902109252
 10
12.67623036757978
 20
16.51694904872524
 10
12.68448441878828
 20
16.51059042522059
 10
12.69228756085905
 20
16.50373604008304
 10
12.699623700538
 20
16.49639982589828
 10
12.70647823468717
 20
16.48859675833332
 10
12.71283685819182
 20
16.48034263261901
 10
12.71868675605329
 20
16.47165428706752
 10
12.72401600734266
 20
16.46254945406066
 10
12.72881388322386
 20
16.45304653653251
 10
12.73307054893049
 20
16.44316498049842
 10
12.73677736178908
 20
16.43292490252601
 10
12.73992657319578
 20
16.42234701522933
 10
12.74251222268614
 20
16.41145299979793
 10
12.74452864781889
 20
16.40026483544455
 10
12.74597197429213
 20
16.38880546995746
 10
12.74683892385039
 20
16.3770981491481
 10
12.74712830440077
 20
16.36516664036857
  0
LINE
  5
D1
330
1F
100
AcDbEntity
  8
0
  6
CONTINUOUS
 62
     7
100
AcDbLine
 10
3.902630802550644
 20
16.55124056944
 30
0.0
 11
12.56105422631773
 21
16.55124056944
 31
0.0
  0
LWPOLYLINE
  5
F1
330
1F
100
AcDbEntity
  8
0
  6
CONTINUOUS
 62
     7
100
AcDbPolyline
 90
       13
 70
   128
 43
0.0
 10
3.906704183974595
 20
16.27853851625072
 10
3.907540437140793
 20
15.72996605047332
 10
3.907381590762467
 20
15.18138915160047
 10
3.906254764952988
 20
14.63281538197147
 10
3.904186781802506
 20
14.08425237843143
 10
3.901243802466721
 20
13.53563647576915
 10
3.897542652049393
 20
12.98703309008228
 10
3.893185552516312
 20
12.43844326445209
 10
3.888275619902939
 20
11.88986804195987
 10
3.880440887370438
 20
11.10177364060031
 10
3.87187152759108
 20
10.3137009949361
 10
3.862746354499192
 20
9.525641164270513
 10
3.853187855639786
 20
8.737596234766117
  0
LWPOLYLINE
  5
104
330
1F
100
AcDbEntity
  8
0
  6
CONTINUOUS
 62
     7
100
AcDbPolyline
 90
       19
 70
   128
 43
0.0
 10
12.47509777204069
 20
16.35850909957038
 10
12.27515816346678
 20
16.35563190886127
 10
11.47539674893889
 20
16.34420011052238
 10
10.66178261891874
 20
16.3327610106145
 10
9.848150160470337
 20
16.32185440370189
 10
9.576917436280579
 20
16.31838764855014
 10
9.305671897092194
 20
16.31511058518039
 10
9.034414436974854
 20
16.3122236342107
 10
8.763145577469201
 20
16.30992721625911
 10
8.491866063633294
 20
16.3084218264495
 10
8.220576539243863
 20
16.30790788539993
 10
7.938418031045527
 20
16.30857180663692
 10
7.656270709195466
 20
16.31029825517284
 10
7.374136071958871
 20
16.31284091481315
 10
7.092015516319603
 20
16.31595332035171
 10
6.809910532393784
 20
16.31938900658237
 10
6.104754504123063
 20
16.32861133524524
 10
5.399617251315445
 20
16.33839081832515
 10
3.988587256827683
 20
16.35850909957038
  0
ARC
  5
106
330
1F
100
AcDbEntity
  8
0
  6
CONTINUOUS
 62
     7
100
AcDbCircle
 10
3.927657761463013
 20
8.730808026469123
 30
0.0
 40
0.074778650998823
100
AcDbArc
 50
174.7916705652653
 51
274.6639877455312
  0
ARC
  5
107
330
1F
100
AcDbEntity
  8
0
  6
CONTINUOUS
 62
     7
100
AcDbCircle
 10
12.53596016711161
 20
8.730823811919544
 30
0.0
 40
0.0748440444664472
100
AcDbArc
 50
265.3916324723853
 51
5.191631983392945
  0
ARC
  5
108
330
1F
100
AcDbEntity
  8
0
  6
CONTINUOUS
 62
     7
100
AcDbCircle
 10
3.981368887973051
 20
16.2838895746018
 30
0.0
 40
0.0749678488117302
100
AcDbArc
 50
84.47464728937539
 51
185.1543229990413
  0
ARC
  5
109
330
1F
100
AcDbEntity
  8
0
  6
CONTINUOUS
 62
     7
100
AcDbCircle
 10
12.48223738458416
 20
16.28375776318935
 30
0.0
 40
0.0750915198808818
100
AcDbArc
 50
354.4812989690659
 51
95.45585597225828
  0
CIRCLE
  5
10A
330
1F
100
AcDbEntity
  8
0
  6
CONTINUOUS
 62
     7
100
AcDbCircle
 10
8.231842514434189
 20
15.53595479437458
 30
0.0
 40
0.6514146625136732
  0
ENDSEC
  0
SECTION
  2
OBJECTS
  0
DICTIONARY
  5
C
330
0
100
AcDbDictionary
  3
ACAD_GROUP
350
D
  3
ACAD_LAYOUT
350
1A
  3
ACAD_MLINESTYLE
350
17
  3
ACAD_PLOTSETTINGS
350
19
  3
ACAD_PLOTSTYLENAME
350
E
  3
ACDBHEADERROUNDTRIPXREC
350
26B
  3
ACDBVARIABLEDICTIONARY
350
265
  0
DICTIONARY
  5
22D
330
1F
100
AcDbDictionary
280
     1
  3
ACAD_LAYOUTSELFREF
360
28D
  0
DICTIONARY
  5
22F
330
1B
100
AcDbDictionary
280
     1
  3
ACAD_LAYOUTSELFREF
360
28C
  0
DICTIONARY
  5
D
102
{ACAD_REACTORS
330
C
102
}
330
C
100
AcDbDictionary
  0
DICTIONARY
  5
1A
102
{ACAD_REACTORS
330
C
102
}
330
C
100
AcDbDictionary
  0
DICTIONARY
  5
17
102
{ACAD_REACTORS
330
C
102
}
330
C
100
AcDbDictionary
  3
STANDARD
350
18
  0
DICTIONARY
  5
19
102
{ACAD_REACTORS
330
C
102
}
330
C
100
AcDbDictionary
  0
ACDBDICTIONARYWDFLT
  5
E
102
{ACAD_REACTORS
330
C
102
}
330
C
100
AcDbDictionary
281
     1
  3
Normal
350
F
100
AcDbDictionaryWithDefault
340
F
  0
DICTIONARY
  5
26B
102
{ACAD_REACTORS
330
C
102
}
330
C
100
AcDbDictionary
  3
CEPSNTYPE
350
275
  3
DIMSTYLEDATA
350
279
  3
FINGERPRINTGUID
350
276
  3
HYPERLINKBASE
350
26E
  3
INSUNITS
350
274
  3
LAYOUTDICT
350
270
  3
LWETCUNION
350
273
  3
PLOTSETDICT
350
271
  3
PLOTSTYLNAMDICT
350
272
  3
PSVPSCALE
350
278
  3
PUCSBASE
350
27C
  3
PUCSORGBACK
350
282
  3
PUCSORGBOTTOM
350
27E
  3
PUCSORGFRONT
350
281
  3
PUCSORGLEFT
350
27F
  3
PUCSORGRIGHT
350
280
  3
PUCSORGTOP
350
27D
  3
PUCSORTHOREF
350
27A
  3
PUCSORTHOVIEW
350
27B
  3
STYLESHEET
350
26F
  3
TSTACKALIGN
350
26C
  3
TSTACKSIZE
350
26D
  3
UCSBASE
350
285
  3
UCSORGBACK
350
28B
  3
UCSORGBOTTOM
350
287
  3
UCSORGFRONT
350
28A
  3
UCSORGLEFT
350
288
  3
UCSORGRIGHT
350
289
  3
UCSORGTOP
350
286
  3
UCSORTHOREF
350
283
  3
UCSORTHOVIEW
350
284
  3
VERSIONGUID
350
277
  0
DICTIONARY
  5
265
102
{ACAD_REACTORS
330
C
102
}
330
C
100
AcDbDictionary
  3
DIMASSOC
350
266
  0
XRECORD
  5
28D
102
{ACAD_REACTORS
330
22D
102
}
330
22D
100
AcDbXrecord
340
1F
  0
XRECORD
  5
28C
102
{ACAD_REACTORS
330
22F
102
}
330
22F
100
AcDbXrecord
340
1B
  0
MLINESTYLE
  5
18
102
{ACAD_REACTORS
330
17
102
}
330
17
100
AcDbMlineStyle
  2
STANDARD
 70
     0
  3

 62
   256
 51
90.0
 52
90.0
 71
     2
 49
0.5
 62
   256
  6
BYLAYER
 49
-0.5
 62
   256
  6
BYLAYER
  0
ACDBPLACEHOLDER
  5
F
102
{ACAD_REACTORS
330
E
102
}
330
E
100
AcDbPlaceHolder
280
     0
  0
XRECORD
  5
275
102
{ACAD_REACTORS
330
26B
102
}
330
26B
100
AcDbXrecord
 90
        0
  0
XRECORD
  5
279
102
{ACAD_REACTORS
330
26B
102
}
330
26B
100
AcDbXrecord
1000
DSTYLE
1002
{
1070
   278
 70
    44
1002
}
  0
XRECORD
  5
276
102
{ACAD_REACTORS
330
26B
102
}
330
26B
100
AcDbXrecord
  1
{66706D0C-25DD-4FEC-8758-F72BF317F0BD}
  0
XRECORD
  5
26E
102
{ACAD_REACTORS
330
26B
102
}
330
26B
100
AcDbXrecord
  1

  0
XRECORD
  5
274
102
{ACAD_REACTORS
330
26B
102
}
330
26B
100
AcDbXrecord
 90
        4
  0
XRECORD
  5
270
102
{ACAD_REACTORS
330
26B
102
}
330
26B
100
AcDbXrecord
340
1A
  0
XRECORD
  5
273
102
{ACAD_REACTORS
330
26B
102
}
330
26B
100
AcDbXrecord
 90
    10269
  0
XRECORD
  5
271
102
{ACAD_REACTORS
330
26B
102
}
330
26B
100
AcDbXrecord
340
19
  0
XRECORD
  5
272
102
{ACAD_REACTORS
330
26B
102
}
330
26B
100
AcDbXrecord
340
E
  0
XRECORD
  5
278
102
{ACAD_REACTORS
330
26B
102
}
330
26B
100
AcDbXrecord
 40
0.0
  0
XRECORD
  5
27C
102
{ACAD_REACTORS
330
26B
102
}
330
26B
100
AcDbXrecord
340
0
  0
XRECORD
  5
282
102
{ACAD_REACTORS
330
26B
102
}
330
26B
100
AcDbXrecord
 10
0.0
 20
0.0
 30
0.0
  0
XRECORD
  5
27E
102
{ACAD_REACTORS
330
26B
102
}
330
26B
100
AcDbXrecord
 10
0.0
 20
0.0
 30
0.0
  0
XRECORD
  5
281
102
{ACAD_REACTORS
330
26B
102
}
330
26B
100
AcDbXrecord
 10
0.0
 20
0.0
 30
0.0
  0
XRECORD
  5
27F
102
{ACAD_REACTORS
330
26B
102
}
330
26B
100
AcDbXrecord
 10
0.0
 20
0.0
 30
0.0
  0
XRECORD
  5
280
102
{ACAD_REACTORS
330
26B
102
}
330
26B
100
AcDbXrecord
 10
0.0
 20
0.0
 30
0.0
  0
XRECORD
  5
27D
102
{ACAD_REACTORS
330
26B
102
}
330
26B
100
AcDbXrecord
 10
0.0
 20
0.0
 30
0.0
  0
XRECORD
  5
27A
102
{ACAD_REACTORS
330
26B
102
}
330
26B
100
AcDbXrecord
340
0
  0
XRECORD
  5
27B
102
{ACAD_REACTORS
330
26B
102
}
330
26B
100
AcDbXrecord
 70
     0
  0
XRECORD
  5
26F
102
{ACAD_REACTORS
330
26B
102
}
330
26B
100
AcDbXrecord
  1

  0
XRECORD
  5
26C
102
{ACAD_REACTORS
330
26B
102
}
330
26B
100
AcDbXrecord
 90
        1
  0
XRECORD
  5
26D
102
{ACAD_REACTORS
330
26B
102
}
330
26B
100
AcDbXrecord
 90
       70
  0
XRECORD
  5
285
102
{ACAD_REACTORS
330
26B
102
}
330
26B
100
AcDbXrecord
340
0
  0
XRECORD
  5
28B
102
{ACAD_REACTORS
330
26B
102
}
330
26B
100
AcDbXrecord
 10
0.0
 20
0.0
 30
0.0
  0
XRECORD
  5
287
102
{ACAD_REACTORS
330
26B
102
}
330
26B
100
AcDbXrecord
 10
0.0
 20
0.0
 30
0.0
  0
XRECORD
  5
28A
102
{ACAD_REACTORS
330
26B
102
}
330
26B
100
AcDbXrecord
 10
0.0
 20
0.0
 30
0.0
  0
XRECORD
  5
288
102
{ACAD_REACTORS
330
26B
102
}
330
26B
100
AcDbXrecord
 10
0.0
 20
0.0
 30
0.0
  0
XRECORD
  5
289
102
{ACAD_REACTORS
330
26B
102
}
330
26B
100
AcDbXrecord
 10
0.0
 20
0.0
 30
0.0
  0
XRECORD
  5
286
102
{ACAD_REACTORS
330
26B
102
}
330
26B
100
AcDbXrecord
 10
0.0
 20
0.0
 30
0.0
  0
XRECORD
  5
283
102
{ACAD_REACTORS
330
26B
102
}
330
26B
100
AcDbXrecord
340
0
  0
XRECORD
  5
284
102
{ACAD_REACTORS
330
26B
102
}
330
26B
100
AcDbXrecord
 70
     0
  0
XRECORD
  5
277
102
{ACAD_REACTORS
330
26B
102
}
330
26B
100
AcDbXrecord
  1
{74BCD92B-4EC5-42BD-A673-F2936CC102DD}
  0
DICTIONARYVAR
  5
266
102
{ACAD_REACTORS
330
265
102
}
330
265
100
DictionaryVariables
280
     0
  1
1
  0
ENDSEC
  0
EOF
